  0
SECTION
  2
HEADER
  9
$ACADVER
  1
AC1014
  9
$ACADMAINTVER
 70
     9
  9
$DWGCODEPAGE
  3
ANSI_932
  9
$INSBASE
 10
0.0
 20
0.0
 30
0.0
  9
$EXTMIN
 10
21.93114534593924
 20
24.46045735080122
 30
0.0
  9
$EXTMAX
 10
784.0831782824069
 20
404.5200898916402
 30
0.0
  9
$LIMMIN
 10
0.0
 20
0.0
  9
$LIMMAX
 10
297.0
 20
210.0
  9
$ORTHOMODE
 70
     1
  9
$REGENMODE
 70
     1
  9
$FILLMODE
 70
     1
  9
$QTEXTMODE
 70
     0
  9
$MIRRTEXT
 70
     0
  9
$DRAGMODE
 70
     2
  9
$LTSCALE
 40
2.0
  9
$OSMODE
 70
    37
  9
$ATTMODE
 70
     1
  9
$TEXTSIZE
 40
2.0
  9
$TRACEWID
 40
1.0
  9
$TEXTSTYLE
  7
STANDARD
  9
$CLAYER
  8
0
  9
$CELTYPE
  6
BYLAYER
  9
$CECOLOR
 62
   256
  9
$CELTSCALE
 40
1.0
  9
$DELOBJ
 70
     1
  9
$DISPSILH
 70
     0
  9
$DIMSCALE
 40
2.0
  9
$DIMASZ
 40
1.8
  9
$DIMEXO
 40
0.625
  9
$DIMDLI
 40
3.75
  9
$DIMRND
 40
0.0
  9
$DIMDLE
 40
0.0
  9
$DIMEXE
 40
0.8
  9
$DIMTP
 40
0.0
  9
$DIMTM
 40
0.0
  9
$DIMTXT
 40
1.8
  9
$DIMCEN
 40
2.5
  9
$DIMTSZ
 40
0.0
  9
$DIMTOL
 70
     0
  9
$DIMLIM
 70
     0
  9
$DIMTIH
 70
     0
  9
$DIMTOH
 70
     0
  9
$DIMSE1
 70
     0
  9
$DIMSE2
 70
     0
  9
$DIMTAD
 70
     1
  9
$DIMZIN
 70
     8
  9
$DIMBLK
  1

  9
$DIMASO
 70
     1
  9
$DIMSHO
 70
     1
  9
$DIMPOST
  1

  9
$DIMAPOST
  1

  9
$DIMALT
 70
     0
  9
$DIMALTD
 70
     4
  9
$DIMALTF
 40
0.0394
  9
$DIMLFAC
 40
1.0
  9
$DIMTOFL
 70
     1
  9
$DIMTVP
 40
0.0
  9
$DIMTIX
 70
     0
  9
$DIMSOXD
 70
     0
  9
$DIMSAH
 70
     0
  9
$DIMBLK1
  1

  9
$DIMBLK2
  1

  9
$DIMSTYLE
  2
STANDARD
  9
$DIMCLRD
 70
     0
  9
$DIMCLRE
 70
     0
  9
$DIMCLRT
 70
     0
  9
$DIMTFAC
 40
1.0
  9
$DIMGAP
 40
0.75
  9
$DIMJUST
 70
     0
  9
$DIMSD1
 70
     0
  9
$DIMSD2
 70
     0
  9
$DIMTOLJ
 70
     1
  9
$DIMTZIN
 70
     0
  9
$DIMALTZ
 70
     0
  9
$DIMALTTZ
 70
     0
  9
$DIMFIT
 70
     3
  9
$DIMUPT
 70
     0
  9
$DIMUNIT
 70
     8
  9
$DIMDEC
 70
     2
  9
$DIMTDEC
 70
     2
  9
$DIMALTU
 70
     8
  9
$DIMALTTD
 70
     4
  9
$DIMTXSTY
  7
STANDARD
  9
$DIMAUNIT
 70
     0
  9
$LUNITS
 70
     2
  9
$LUPREC
 70
     3
  9
$SKETCHINC
 40
1.0
  9
$FILLETRAD
 40
10.0
  9
$AUNITS
 70
     0
  9
$AUPREC
 70
     2
  9
$MENU
  1
.
  9
$ELEVATION
 40
0.0
  9
$PELEVATION
 40
0.0
  9
$THICKNESS
 40
0.0
  9
$LIMCHECK
 70
     0
  9
$BLIPMODE
 70
     0
  9
$CHAMFERA
 40
0.0
  9
$CHAMFERB
 40
0.0
  9
$CHAMFERC
 40
20.0
  9
$CHAMFERD
 40
0.0
  9
$SKPOLY
 70
     0
  9
$TDCREATE
 40
2453557.748032221
  9
$TDUPDATE
 40
2453615.570058946
  9
$TDINDWG
 40
0.2202325810
  9
$TDUSRTIMER
 40
0.2202323958
  9
$USRTIMER
 70
     1
  9
$ANGBASE
 50
0.0
  9
$ANGDIR
 70
     0
  9
$PDMODE
 70
     0
  9
$PDSIZE
 40
-10.0
  9
$PLINEWID
 40
0.0
  9
$COORDS
 70
     2
  9
$SPLFRAME
 70
     0
  9
$SPLINETYPE
 70
     6
  9
$SPLINESEGS
 70
     8
  9
$ATTDIA
 70
     0
  9
$ATTREQ
 70
     1
  9
$HANDLING
 70
-16383
  9
$HANDSEED
  5
2055
  9
$SURFTAB1
 70
     6
  9
$SURFTAB2
 70
     6
  9
$SURFTYPE
 70
     6
  9
$SURFU
 70
     6
  9
$SURFV
 70
     6
  9
$UCSNAME
  2

  9
$UCSORG
 10
0.0
 20
0.0
 30
0.0
  9
$UCSXDIR
 10
1.0
 20
0.0
 30
0.0
  9
$UCSYDIR
 10
0.0
 20
1.0
 30
0.0
  9
$PUCSNAME
  2

  9
$PUCSORG
 10
0.0
 20
0.0
 30
0.0
  9
$PUCSXDIR
 10
1.0
 20
0.0
 30
0.0
  9
$PUCSYDIR
 10
0.0
 20
1.0
 30
0.0
  9
$USERI1
 70
     0
  9
$USERI2
 70
     0
  9
$USERI3
 70
     0
  9
$USERI4
 70
     0
  9
$USERI5
 70
     0
  9
$USERR1
 40
0.0
  9
$USERR2
 40
0.0
  9
$USERR3
 40
0.0
  9
$USERR4
 40
0.0
  9
$USERR5
 40
0.0
  9
$WORLDVIEW
 70
     1
  9
$SHADEDGE
 70
     3
  9
$SHADEDIF
 70
    70
  9
$TILEMODE
 70
     1
  9
$MAXACTVP
 70
    48
  9
$PINSBASE
 10
0.0
 20
0.0
 30
0.0
  9
$PLIMCHECK
 70
     0
  9
$PEXTMIN
 10
0.0
 20
0.0
 30
0.0
  9
$PEXTMAX
 10
0.0
 20
0.0
 30
0.0
  9
$PLIMMIN
 10
0.0
 20
0.0
  9
$PLIMMAX
 10
12.0
 20
9.0
  9
$UNITMODE
 70
     0
  9
$VISRETAIN
 70
     1
  9
$PLINEGEN
 70
     0
  9
$PSLTSCALE
 70
     1
  9
$TREEDEPTH
 70
  3020
  9
$PICKSTYLE
 70
     1
  9
$CMLSTYLE
  2
STANDARD
  9
$CMLJUST
 70
     0
  9
$CMLSCALE
 40
1.0
  9
$PROXYGRAPHICS
 70
     1
  9
$MEASUREMENT
 70
     0
  0
ENDSEC
  0
SECTION
  2
CLASSES
  0
CLASS
  1
DICTIONARYVAR
  2
AcDbDictionaryVar
  3
AutoCAD 2000
 90
        0
280
     0
281
     0
  0
CLASS
  1
ACDBDICTIONARYWDFLT
  2
AcDbDictionaryWithDefault
  3
AutoCAD 2000
 90
        0
280
     0
281
     0
  0
CLASS
  1
ACDBPLACEHOLDER
  2
AcDbPlaceHolder
  3
AutoCAD 2000
 90
        0
280
     0
281
     0
  0
CLASS
  1
LAYOUT
  2
AcDbLayout
  3
AutoCAD 2000
 90
        0
280
     0
281
     0
  0
CLASS
  1
LONG_TRANSACTION
  2
AcDbLongTransaction
  3
AutoCAD 2000
 90
        0
280
     0
281
     0
  0
CLASS
  1
LWPOLYLINE
  2
AcDbPolyline
  3
AutoCAD 2000
 90
        0
280
     0
281
     1
  0
CLASS
  1
HATCH
  2
AcDbHatch
  3
AutoCAD 2000
 90
        0
280
     0
281
     1
  0
CLASS
  1
XRECORD
  2
AcDbXrecord
  3
AutoCAD 2000
 90
        0
280
     0
281
     0
  0
ENDSEC
  0
SECTION
  2
TABLES
  0
TABLE
  2
VPORT
  5
6E
330
0
100
AcDbSymbolTable
 70
     2
  0
VPORT
  5
202F
330
6E
100
AcDbSymbolTableRecord
100
AcDbViewportTableRecord
  2
*ACTIVE
 70
     0
 10
0.0
 20
0.0
 11
1.0
 21
1.0
 12
408.7089460114855
 22
214.4815696138305
 13
0.0
 23
0.0
 14
10.0
 24
10.0
 15
10.0
 25
10.0
 16
0.0
 26
0.0
 36
1.0
 17
0.0
 27
0.0
 37
0.0
 40
496.1764654168724
 41
1.566970091027308
 42
50.0
 43
0.0
 44
0.0
 50
0.0
 51
0.0
 71
     0
 72
   100
 73
     1
 74
     3
 75
     0
 76
     0
 77
     0
 78
     0
  0
ENDTAB
  0
TABLE
  2
LTYPE
  5
69
330
0
100
AcDbSymbolTable
 70
     3
  0
LTYPE
  5
6A
330
69
100
AcDbSymbolTableRecord
100
AcDbLinetypeTableRecord
  2
BYBLOCK
 70
     0
  3

 72
    65
 73
     0
 40
0.0
  0
LTYPE
  5
6B
330
69
100
AcDbSymbolTableRecord
100
AcDbLinetypeTableRecord
  2
BYLAYER
 70
     0
  3

 72
    65
 73
     0
 40
0.0
  0
LTYPE
  5
8
330
69
100
AcDbSymbolTableRecord
100
AcDbLinetypeTableRecord
  2
CONTINUOUS
 70
     0
  3
Solid line
 72
    65
 73
     0
 40
0.0
  0
LTYPE
  5
27C
330
69
100
AcDbSymbolTableRecord
100
AcDbLinetypeTableRecord
  2
SEKKEI_A2_
 70
     0
  3
center(A2)  ____ _ ____ _ ____ _ ____ _ ____ _ 
 72
    65
 73
     4
 40
14.28749999999999
 49
9.525
 74
     0
 49
-1.587499999999999
 74
     0
 49
1.587499999999999
 74
     0
 49
-1.587499999999999
 74
     0
  0
LTYPE
  5
2B4
330
69
100
AcDbSymbolTableRecord
100
AcDbLinetypeTableRecord
  2
HIDDEN2
 70
     0
  3
Hidden (.5x) _ _ _ _ _ _ _ _ _ _ _ _ _ _ _ _ _
 72
    65
 73
     2
 40
4.762499999999999
 49
3.174999999999999
 74
     0
 49
-1.587499999999999
 74
     0
  0
ENDTAB
  0
TABLE
  2
LAYER
  5
66
330
0
100
AcDbSymbolTable
 70
     9
  0
LAYER
  5
5E
330
66
100
AcDbSymbolTableRecord
100
AcDbLayerTableRecord
  2
0
 70
     0
 62
     7
  6
CONTINUOUS
  0
LAYER
  5
3E
330
66
100
AcDbSymbolTableRecord
100
AcDbLayerTableRecord
  2
CENTER
 70
     0
 62
     3
  6
SEKKEI_A2_
  0
LAYER
  5
2B5
330
66
100
AcDbSymbolTableRecord
100
AcDbLayerTableRecord
  2
HIDS
 70
     0
 62
     1
  6
HIDDEN2
  0
LAYER
  5
2BA
330
66
100
AcDbSymbolTableRecord
100
AcDbLayerTableRecord
  2
HOJO
 70
     0
 62
     4
  6
CONTINUOUS
  0
LAYER
  5
3FA
330
66
100
AcDbSymbolTableRecord
100
AcDbLayerTableRecord
  2
TITLE
 70
     0
 62
     4
  6
CONTINUOUS
  0
ENDTAB
  0
TABLE
  2
STYLE
  5
67
330
0
100
AcDbSymbolTable
 70
     1
  0
STYLE
  5
16
330
67
100
AcDbSymbolTableRecord
100
AcDbTextStyleTableRecord
  2
STANDARD
 70
     0
 40
0.0
 41
1.0
 50
0.0
 71
     0
 42
2.0
  3
simplex.shx
  4
extfont.shx
  0
ENDTAB
  0
TABLE
  2
VIEW
  5
6C
330
0
100
AcDbSymbolTable
 70
     0
  0
ENDTAB
  0
TABLE
  2
UCS
  5
6D
330
0
100
AcDbSymbolTable
 70
     0
  0
ENDTAB
  0
TABLE
  2
APPID
  5
70
330
0
100
AcDbSymbolTable
 70
     1
  0
APPID
  5
71
330
70
100
AcDbSymbolTableRecord
100
AcDbRegAppTableRecord
  2
ACAD
 70
     0
  0
ENDTAB
  0
TABLE
  2
DIMSTYLE
  5
72
330
0
100
AcDbSymbolTable
 70
     1
  0
DIMSTYLE
105
73
102
{ACAD_REACTORS
330
100C
102
}
330
72
100
AcDbSymbolTableRecord
100
AcDbDimStyleTableRecord
  2
STANDARD
 70
     0
  3

  4

  5

  6

  7

 40
2.0
 41
1.8
 42
0.625
 43
3.75
 44
0.8
 45
0.0
 46
0.0
 47
0.0
 48
0.0
140
1.8
141
2.5
142
0.0
143
0.0394
144
1.0
145
0.0
146
1.0
147
0.75
 71
     0
 72
     0
 73
     0
 74
     0
 75
     0
 76
     0
 77
     1
 78
     8
170
     0
171
     4
172
     1
173
     0
174
     0
175
     0
176
     0
177
     0
178
     0
270
     8
271
     2
272
     2
273
     8
274
     4
340
16
275
     0
280
     0
281
     0
282
     0
283
     1
284
     0
285
     0
286
     0
287
     3
288
     0
  0
ENDTAB
  0
TABLE
  2
BLOCK_RECORD
  5
1
330
0
100
AcDbSymbolTable
 70
    50
  0
BLOCK_RECORD
  5
2
102
{ACAD_XDICTIONARY
360
2051
102
}
330
1
100
AcDbSymbolTableRecord
100
AcDbBlockTableRecord
  2
*MODEL_SPACE
  0
BLOCK_RECORD
  5
202A
102
{ACAD_XDICTIONARY
360
2053
102
}
330
1
100
AcDbSymbolTableRecord
100
AcDbBlockTableRecord
  2
*PAPER_SPACE
  0
ENDTAB
  0
ENDSEC
  0
SECTION
  2
BLOCKS
  0
BLOCK
  5
5D
330
2
100
AcDbEntity
  8
0
100
AcDbBlockBegin
  2
*MODEL_SPACE
 70
     0
 10
0.0
 20
0.0
 30
0.0
  3
*MODEL_SPACE
  1

  0
ENDBLK
  5
5F
330
2
100
AcDbEntity
  8
0
100
AcDbBlockEnd
  0
BLOCK
  5
202C
330
202A
100
AcDbEntity
 67
     1
  8
0
100
AcDbBlockBegin
  2
*PAPER_SPACE
 70
     0
 10
0.0
 20
0.0
 30
0.0
  3
*PAPER_SPACE
  1

  0
ENDBLK
  5
202D
330
202A
100
AcDbEntity
 67
     1
  8
0
100
AcDbBlockEnd
  0
ENDSEC
  0
SECTION
  2
ENTITIES
  0
LINE
  5
7AD
330
2
100
AcDbEntity
  8
0
100
AcDbLine
 10
355.0071673141731
 20
95.19801274933616
 30
0.0
 11
423.5071673141731
 21
95.19801274933616
 31
0.0
  0
LINE
  5
7AE
330
2
100
AcDbEntity
  8
0
100
AcDbLine
 10
355.0071673141731
 20
88.39802474933618
 30
0.0
 11
423.5071673141731
 21
88.39802474933618
 31
0.0
  0
LINE
  5
7AF
330
2
100
AcDbEntity
  8
HIDS
100
AcDbLine
 10
355.0071673141731
 20
155.3980247493361
 30
0.0
 11
423.5071673141731
 21
155.3980247493361
 31
0.0
  0
LINE
  5
7B0
330
2
100
AcDbEntity
  8
HIDS
100
AcDbLine
 10
355.0071673141731
 20
162.1980127493361
 30
0.0
 11
423.5071673141731
 21
162.1980127493361
 31
0.0
  0
LINE
  5
7B1
330
2
100
AcDbEntity
  8
CENTER
100
AcDbLine
 10
340.0021933141731
 20
91.79801874933616
 30
0.0
 11
427.050929314173
 21
91.79801874933616
 31
0.0
  0
LINE
  5
7B2
330
2
100
AcDbEntity
  8
HIDS
100
AcDbLine
 10
360.0071673141731
 20
85.29801874933616
 30
0.0
 11
404.575709314173
 21
85.29801874933616
 31
0.0
  0
LINE
  5
7B3
330
2
100
AcDbEntity
  8
HIDS
100
AcDbLine
 10
406.0071673141731
 20
165.2980187493361
 30
0.0
 11
361.4386253141731
 21
165.2980187493361
 31
0.0
  0
LINE
  5
7B4
330
2
100
AcDbEntity
  8
CENTER
100
AcDbLine
 10
340.0021933141731
 20
158.7980187493361
 30
0.0
 11
427.050929314173
 21
158.7980187493361
 31
0.0
  0
LINE
  5
7B5
330
2
100
AcDbEntity
  8
HIDS
100
AcDbLine
 10
361.972255314173
 20
87.66519074933617
 30
0.0
 11
383.0071673141731
 21
87.29801874933617
 31
0.0
  0
LINE
  5
7B6
330
2
100
AcDbEntity
  8
HIDS
100
AcDbLine
 10
361.972255314173
 20
162.9308617493362
 30
0.0
 11
383.0071673141731
 21
163.2980187493361
 31
0.0
  0
LINE
  5
7B7
330
2
100
AcDbEntity
  8
0
100
AcDbLine
 10
383.0071673141731
 20
84.79801874933617
 30
0.0
 11
342.5071673141731
 21
85.50494274933617
 31
0.0
  0
LINE
  5
7B8
330
2
100
AcDbEntity
  8
0
100
AcDbLine
 10
383.0071673141731
 20
165.7980187493361
 30
0.0
 11
342.5071673141731
 21
165.0910787493361
 31
0.0
  0
LINE
  5
7B9
330
2
100
AcDbEntity
  8
CENTER
100
AcDbLine
 10
310.1356153141732
 20
125.2980187493361
 30
0.0
 11
455.8787193141729
 21
125.2980187493361
 31
0.0
  0
LINE
  5
7BA
330
2
100
AcDbEntity
  8
HIDS
100
AcDbLine
 10
343.0071673141731
 20
146.8665607493361
 30
0.0
 11
343.0071673141731
 21
102.2980187493361
 31
0.0
  0
LINE
  5
7BB
330
2
100
AcDbEntity
  8
0
100
AcDbLine
 10
30.4516753141731
 20
160.2980187493361
 30
0.0
 11
30.4516753141731
 21
90.29801874933616
 31
0.0
  0
LINE
  5
7BC
330
2
100
AcDbEntity
  8
0
100
AcDbLine
 10
79.45166331417311
 20
85.29801874933616
 30
0.0
 11
79.45166331417311
 21
165.2980187493361
 31
0.0
  0
LINE
  5
7BD
330
2
100
AcDbEntity
  8
0
100
AcDbLine
 10
88.95166331417312
 20
163.2980187493361
 30
0.0
 11
88.95166331417312
 21
87.29801874933617
 31
0.0
  0
CIRCLE
  5
7BE
330
2
100
AcDbEntity
  8
0
100
AcDbCircle
 10
223.007167314173
 20
125.2980187493361
 30
0.0
 40
25.002001
  0
CIRCLE
  5
7BF
330
2
100
AcDbEntity
  8
0
100
AcDbCircle
 10
223.007167314173
 20
125.2980187493361
 30
0.0
 40
23.0
  0
CIRCLE
  5
7C0
330
2
100
AcDbEntity
  8
0
100
AcDbCircle
 10
223.007167314173
 20
125.2980187493361
 30
0.0
 40
19.0
  0
ARC
  5
7C1
330
2
100
AcDbEntity
  8
0
100
AcDbCircle
 10
164.0071673141731
 20
108.2980187493361
 30
0.0
 40
2.0
100
AcDbArc
 50
180.0
 51
270.0
  0
ARC
  5
7C3
330
2
100
AcDbEntity
  8
0
100
AcDbCircle
 10
260.0071673141731
 20
108.2980187493361
 30
0.0
 40
2.0
100
AcDbArc
 50
270.0
 51
0.0
  0
ARC
  5
7C5
330
2
100
AcDbEntity
  8
0
100
AcDbCircle
 10
193.0071673141731
 20
111.7980187493361
 30
0.0
 40
22.0
100
AcDbArc
 50
180.0
 51
194.4775090000004
  0
ARC
  5
7C6
330
2
100
AcDbEntity
  8
0
100
AcDbCircle
 10
231.0071673141731
 20
111.7980187493361
 30
0.0
 40
22.0
100
AcDbArc
 50
345.5224880000002
 51
0.0
  0
ARC
  5
7C7
330
2
100
AcDbEntity
  8
0
100
AcDbCircle
 10
173.233440314173
 20
108.7980187493361
 30
0.0
 40
2.0
100
AcDbArc
 50
188.626923
 51
270.0
  0
LINE
  5
7C8
330
2
100
AcDbEntity
  8
0
100
AcDbLine
 10
175.8428763141731
 20
106.6150357493361
 30
0.0
 11
174.9230153141731
 21
104.6150357493361
 31
0.0
  0
ARC
  5
7C9
330
2
100
AcDbEntity
  8
0
100
AcDbCircle
 10
175.007167314173
 20
104.7980187493361
 30
0.0
 40
2.0
100
AcDbArc
 50
40.60129499999965
 51
90.0
  0
ARC
  5
7CA
330
2
100
AcDbEntity
  8
0
100
AcDbCircle
 10
250.780879314173
 20
108.7980187493361
 30
0.0
 40
2.0
100
AcDbArc
 50
270.0
 51
351.373077
  0
LINE
  5
7CB
330
2
100
AcDbEntity
  8
0
100
AcDbLine
 10
248.171443314173
 20
106.6150357493361
 30
0.0
 11
249.091334314173
 21
104.6150357493361
 31
0.0
  0
ARC
  5
7CC
330
2
100
AcDbEntity
  8
0
100
AcDbCircle
 10
249.0071673141731
 20
104.7980187493361
 30
0.0
 40
2.0
100
AcDbArc
 50
90.0
 51
139.3987120000005
  0
LINE
  5
7CD
330
2
100
AcDbEntity
  8
0
100
AcDbLine
 10
162.0071673141731
 20
108.9695887493362
 30
0.0
 11
162.0071673141731
 21
91.79801874933616
 31
0.0
  0
LINE
  5
7CE
330
2
100
AcDbEntity
  8
0
100
AcDbLine
 10
262.0071673141731
 20
91.79801874933616
 30
0.0
 11
262.0071673141731
 21
158.7980187493361
 31
0.0
  0
LINE
  5
7D0
330
2
100
AcDbEntity
  8
0
100
AcDbLine
 10
342.5071673141731
 20
165.0910787493361
 30
0.0
 11
342.5071673141731
 21
85.50494274933617
 31
0.0
  0
LINE
  5
7D1
330
2
100
AcDbEntity
  8
0
100
AcDbLine
 10
161.5071673141731
 20
150.9884787493362
 30
0.0
 11
161.5071673141731
 21
99.60755874933614
 31
0.0
  0
ARC
  5
7D2
330
2
100
AcDbEntity
  8
HIDS
100
AcDbCircle
 10
383.0071673141731
 20
125.2980187493361
 30
0.0
 40
38.0
100
AcDbArc
 50
129.356705
 51
230.6432949999999
  0
LINE
  5
7D3
330
2
100
AcDbEntity
  8
0
100
AcDbLine
 10
355.0071673141731
 20
165.3092797493361
 30
0.0
 11
355.0071673141731
 21
85.28675774933617
 31
0.0
  0
LINE
  5
7D4
330
2
100
AcDbEntity
  8
0
100
AcDbLine
 10
88.95166331417312
 20
95.04905674933615
 30
0.0
 11
162.0071673141731
 21
95.04905674933615
 31
0.0
  0
LINE
  5
7D5
330
2
100
AcDbEntity
  8
0
100
AcDbLine
 10
88.95166331417312
 20
87.29801874933617
 30
0.0
 11
160.6484183141731
 21
87.29801874933617
 31
0.0
  0
LINE
  5
7D7
330
2
100
AcDbEntity
  8
0
100
AcDbLine
 10
33.2016753141731
 20
99.29801874933616
 30
0.0
 11
79.45166331417311
 21
99.29801874933616
 31
0.0
  0
LINE
  5
7D8
330
2
100
AcDbEntity
  8
0
100
AcDbLine
 10
35.4516753141731
 20
85.29801874933616
 30
0.0
 11
79.45166331417311
 21
85.29801874933616
 31
0.0
  0
ARC
  5
7D9
330
2
100
AcDbEntity
  8
0
100
AcDbCircle
 10
35.4516823141731
 20
90.29801874933616
 30
0.0
 40
5.0
100
AcDbArc
 50
180.0
 51
270.0
  0
LINE
  5
7DA
330
2
100
AcDbEntity
  8
0
100
AcDbLine
 10
79.45166331417311
 20
95.04902574933613
 30
0.0
 11
88.95166331417312
 21
95.04902574933613
 31
0.0
  0
LINE
  5
7DB
330
2
100
AcDbEntity
  8
0
100
AcDbLine
 10
79.45166331417311
 20
87.29801874933617
 30
0.0
 11
88.95166331417312
 21
87.29801874933617
 31
0.0
  0
CIRCLE
  5
7DC
330
2
100
AcDbEntity
  8
HOJO
100
AcDbCircle
 10
255.0071673141731
 20
91.79801874933616
 30
0.0
 40
4.0
  0
CIRCLE
  5
7DD
330
2
100
AcDbEntity
  8
0
100
AcDbCircle
 10
255.0071673141731
 20
91.79801874933616
 30
0.0
 40
4.25
  0
CIRCLE
  5
7DE
330
2
100
AcDbEntity
  8
0
100
AcDbCircle
 10
255.0071673141731
 20
91.79801874933616
 30
0.0
 40
3.399999999999999
  0
LINE
  5
7DF
330
2
100
AcDbEntity
  8
0
100
AcDbLine
 10
260.0071673141731
 20
106.2980187493361
 30
0.0
 11
257.5071673141731
 21
106.2980187493361
 31
0.0
  0
LINE
  5
7E0
330
2
100
AcDbEntity
  8
0
100
AcDbLine
 10
260.0071673141731
 20
97.29801874933617
 30
0.0
 11
257.5071673141731
 21
97.29801874933617
 31
0.0
  0
LINE
  5
7E2
330
2
100
AcDbEntity
  8
0
100
AcDbLine
 10
257.5071673141731
 20
103.5980367493361
 30
0.0
 11
259.0071673141731
 21
102.7320087493361
 31
0.0
  0
LINE
  5
7E3
330
2
100
AcDbEntity
  8
0
100
AcDbLine
 10
257.5071673141731
 20
99.99803074933618
 30
0.0
 11
259.0071673141731
 21
100.8640587493361
 31
0.0
  0
CIRCLE
  5
7E4
330
2
100
AcDbEntity
  8
0
100
AcDbCircle
 10
257.5071673141731
 20
101.7980187493361
 30
0.0
 40
3.5
  0
CIRCLE
  5
7E5
330
2
100
AcDbEntity
  8
0
100
AcDbCircle
 10
257.5071673141731
 20
101.7980187493361
 30
0.0
 40
3.799999999999999
  0
ARC
  5
7E6
330
2
100
AcDbEntity
  8
0
100
AcDbCircle
 10
255.0071673141731
 20
91.79801874933616
 30
0.0
 40
7.0
100
AcDbArc
 50
227.3640750000003
 51
0.0
  0
LINE
  5
7E8
330
2
100
AcDbEntity
  8
0
100
AcDbLine
 10
231.0071673141731
 20
89.79801874933617
 30
0.0
 11
193.0071673141731
 21
89.79801874933617
 31
0.0
  0
LINE
  5
7E9
330
2
100
AcDbEntity
  8
0
100
AcDbLine
 10
169.0071673141731
 20
84.79801874933617
 30
0.0
 11
255.0071673141731
 21
84.79801874933617
 31
0.0
  0
CIRCLE
  5
7EB
330
2
100
AcDbEntity
  8
0
100
AcDbCircle
 10
166.507167314173
 20
101.7980187493361
 30
0.0
 40
3.5
  0
CIRCLE
  5
7EC
330
2
100
AcDbEntity
  8
0
100
AcDbCircle
 10
166.507167314173
 20
101.7980187493361
 30
0.0
 40
3.799999999999999
  0
ARC
  5
7ED
330
2
100
AcDbEntity
  8
0
100
AcDbCircle
 10
164.0071673141731
 20
95.29801874933616
 30
0.0
 40
2.0
100
AcDbArc
 50
90.0
 51
180.0
  0
LINE
  5
7EE
330
2
100
AcDbEntity
  8
0
100
AcDbLine
 10
161.3435473141731
 20
87.17332374933613
 30
0.0
 11
166.5741843141731
 21
85.23443574933617
 31
0.0
  0
ARC
  5
7EF
330
2
100
AcDbEntity
  8
0
100
AcDbCircle
 10
169.0071673141731
 20
91.79801874933616
 30
0.0
 40
7.0
100
AcDbArc
 50
180.0
 51
312.6359249999997
  0
ARC
  5
7F1
330
2
100
AcDbEntity
  8
0
100
AcDbCircle
 10
160.6484183141731
 20
85.29801874933616
 30
0.0
 40
2.0
100
AcDbArc
 50
69.66127000000027
 51
90.0
  0
LINE
  5
7F2
330
2
100
AcDbEntity
  8
0
100
AcDbLine
 10
161.5071673141731
 20
99.60755874933614
 30
0.0
 11
162.0071673141731
 21
99.60755874933614
 31
0.0
  0
ARC
  5
7F3
330
2
100
AcDbEntity
  8
0
100
AcDbCircle
 10
188.4078323141731
 20
94.79801874933617
 30
0.0
 40
10.0
100
AcDbArc
 50
247.6683579999997
 51
270.0
  0
ARC
  5
7F5
330
2
100
AcDbEntity
  8
0
100
AcDbCircle
 10
177.812556314173
 20
82.23428274933619
 30
0.0
 40
6.0
100
AcDbArc
 50
59.64169699999986
 51
132.6359249999996
  0
LINE
  5
7F6
330
2
100
AcDbEntity
  8
0
100
AcDbLine
 10
176.5256763141731
 20
106.0995937493361
 30
0.0
 11
185.525676314173
 21
95.59959374933617
 31
0.0
  0
LINE
  5
7F7
330
2
100
AcDbEntity
  8
0
100
AcDbLine
 10
175.605815314173
 20
104.0995937493361
 30
0.0
 11
183.525676314173
 21
94.85975574933616
 31
0.0
  0
CIRCLE
  5
7F8
330
2
100
AcDbEntity
  8
0
100
AcDbCircle
 10
169.0071673141731
 20
91.79801874933616
 30
0.0
 40
4.25
  0
CIRCLE
  5
7F9
330
2
100
AcDbEntity
  8
HOJO
100
AcDbCircle
 10
169.0071673141731
 20
91.79801874933616
 30
0.0
 40
4.0
  0
CIRCLE
  5
7FA
330
2
100
AcDbEntity
  8
0
100
AcDbCircle
 10
169.0071673141731
 20
91.79801874933616
 30
0.0
 40
3.399999999999999
  0
ARC
  5
7FB
330
2
100
AcDbEntity
  8
0
100
AcDbCircle
 10
173.6422533141731
 20
106.7980187493361
 30
0.0
 40
2.0
100
AcDbArc
 50
194.4775090000004
 51
270.0
  0
LINE
  5
7FC
330
2
100
AcDbEntity
  8
0
100
AcDbLine
 10
164.0071673141731
 20
106.2980187493361
 30
0.0
 11
166.507167314173
 21
106.2980187493361
 31
0.0
  0
LINE
  5
7FD
330
2
100
AcDbEntity
  8
0
100
AcDbLine
 10
166.507167314173
 20
99.99803074933618
 30
0.0
 11
168.0071673141731
 21
100.8640587493361
 31
0.0
  0
LINE
  5
7FE
330
2
100
AcDbEntity
  8
0
100
AcDbLine
 10
168.0071673141731
 20
102.7320087493361
 30
0.0
 11
168.0071673141731
 21
100.8640587493361
 31
0.0
  0
LINE
  5
7FF
330
2
100
AcDbEntity
  8
0
100
AcDbLine
 10
166.507167314173
 20
103.5980367493361
 30
0.0
 11
168.0071673141731
 21
102.7320087493361
 31
0.0
  0
LINE
  5
800
330
2
100
AcDbEntity
  8
0
100
AcDbLine
 10
166.507167314173
 20
103.5980367493361
 30
0.0
 11
165.0071673141731
 21
102.7320087493361
 31
0.0
  0
LINE
  5
801
330
2
100
AcDbEntity
  8
0
100
AcDbLine
 10
165.0071673141731
 20
102.7320087493361
 30
0.0
 11
165.0071673141731
 21
100.8640587493361
 31
0.0
  0
LINE
  5
802
330
2
100
AcDbEntity
  8
0
100
AcDbLine
 10
166.507167314173
 20
99.99803074933618
 30
0.0
 11
165.0071673141731
 21
100.8640587493361
 31
0.0
  0
LINE
  5
803
330
2
100
AcDbEntity
  8
0
100
AcDbLine
 10
164.0071673141731
 20
97.29801874933617
 30
0.0
 11
166.507167314173
 21
97.29801874933617
 31
0.0
  0
ARC
  5
804
330
2
100
AcDbEntity
  8
0
100
AcDbCircle
 10
166.507167314173
 20
101.7980187493361
 30
0.0
 40
4.5
100
AcDbArc
 50
270.0
 51
90.0
  0
LINE
  5
805
330
2
100
AcDbEntity
  8
0
100
AcDbLine
 10
174.0872913141731
 20
104.7980187493361
 30
0.0
 11
173.6422533141731
 21
104.7980187493361
 31
0.0
  0
ARC
  5
806
330
2
100
AcDbEntity
  8
0
100
AcDbCircle
 10
174.0872913141731
 20
102.7980187493361
 30
0.0
 40
2.0
100
AcDbArc
 50
40.60129499999965
 51
90.0
  0
ARC
  5
807
330
2
100
AcDbEntity
  8
0
100
AcDbCircle
 10
188.0071673141731
 20
92.43308974933615
 30
0.0
 40
2.0
100
AcDbArc
 50
180.0
 51
255.5224909999997
  0
ARC
  5
808
330
2
100
AcDbEntity
  8
0
100
AcDbCircle
 10
193.0071673141731
 20
111.7980187493361
 30
0.0
 40
22.0
100
AcDbArc
 50
249.5126880000004
 51
270.0
  0
ARC
  5
809
330
2
100
AcDbEntity
  8
0
100
AcDbCircle
 10
186.0071673141731
 20
93.06303374933618
 30
0.0
 40
2.0
100
AcDbArc
 50
180.0
 51
249.5126800000003
  0
LINE
  5
80A
330
2
100
AcDbEntity
  8
0
100
AcDbLine
 10
185.8829303141731
 20
94.99189674933615
 30
0.0
 11
183.882930314173
 21
94.25205974933618
 31
0.0
  0
ARC
  5
80B
330
2
100
AcDbEntity
  8
0
100
AcDbCircle
 10
182.0071673141731
 20
93.55818074933621
 30
0.0
 40
2.0
100
AcDbArc
 50
0.0
 51
40.60129499999965
  0
ARC
  5
80C
330
2
100
AcDbEntity
  8
0
100
AcDbCircle
 10
184.007167314173
 20
94.29801874933616
 30
0.0
 40
2.0
100
AcDbArc
 50
0.0
 51
40.60129499999965
  0
LINE
  5
80D
330
2
100
AcDbEntity
  8
0
100
AcDbLine
 10
186.0071673141731
 20
94.29801874933616
 30
0.0
 11
186.0071673141731
 21
92.43308974933615
 31
0.0
  0
LINE
  5
80E
330
2
100
AcDbEntity
  8
0
100
AcDbLine
 10
184.007167314173
 20
93.55818074933621
 30
0.0
 11
184.007167314173
 21
93.06303374933618
 31
0.0
  0
ARC
  5
80F
330
2
100
AcDbEntity
  8
0
100
AcDbCircle
 10
196.0071673141731
 20
113.2980187493361
 30
0.0
 40
30.0
100
AcDbArc
 50
239.6417009999995
 51
247.6683579999997
  0
ARC
  5
810
330
2
100
AcDbEntity
  8
0
100
AcDbCircle
 10
235.606502314173
 20
94.79801874933617
 30
0.0
 40
10.0
100
AcDbArc
 50
270.0
 51
292.3316420000002
  0
LINE
  5
812
330
2
100
AcDbEntity
  8
0
100
AcDbLine
 10
247.4886433141731
 20
106.0995937493361
 30
0.0
 11
238.4886583141731
 21
95.59959374933617
 31
0.0
  0
LINE
  5
813
330
2
100
AcDbEntity
  8
0
100
AcDbLine
 10
248.408534314173
 20
104.0995937493361
 30
0.0
 11
240.488643314173
 21
94.85975574933616
 31
0.0
  0
ARC
  5
814
330
2
100
AcDbEntity
  8
0
100
AcDbCircle
 10
228.0071673141731
 20
113.2980187493361
 30
0.0
 40
30.0
100
AcDbArc
 50
292.3316420000002
 51
300.3583030000001
  0
ARC
  5
815
330
2
100
AcDbEntity
  8
0
100
AcDbCircle
 10
231.0071673141731
 20
111.7980187493361
 30
0.0
 40
22.0
100
AcDbArc
 50
270.0
 51
290.4873049999995
  0
ARC
  5
816
330
2
100
AcDbEntity
  8
0
100
AcDbCircle
 10
238.0071673141731
 20
93.06303374933618
 30
0.0
 40
2.0
100
AcDbArc
 50
290.4873119999995
 51
0.0
  0
ARC
  5
817
330
2
100
AcDbEntity
  8
0
100
AcDbCircle
 10
236.0071673141731
 20
92.43308974933615
 30
0.0
 40
2.0
100
AcDbArc
 50
284.4775090000002
 51
0.0
  0
LINE
  5
818
330
2
100
AcDbEntity
  8
0
100
AcDbLine
 10
238.1314043141731
 20
94.99189674933615
 30
0.0
 11
240.131404314173
 21
94.25205974933618
 31
0.0
  0
ARC
  5
819
330
2
100
AcDbEntity
  8
0
100
AcDbCircle
 10
242.007167314173
 20
93.55818074933621
 30
0.0
 40
2.0
100
AcDbArc
 50
139.3987120000005
 51
180.0
  0
ARC
  5
81A
330
2
100
AcDbEntity
  8
0
100
AcDbCircle
 10
240.007167314173
 20
94.29801874933616
 30
0.0
 40
2.0
100
AcDbArc
 50
139.3987120000005
 51
180.0
  0
LINE
  5
81B
330
2
100
AcDbEntity
  8
0
100
AcDbLine
 10
238.0071673141731
 20
94.29801874933616
 30
0.0
 11
238.0071673141731
 21
92.43308974933615
 31
0.0
  0
LINE
  5
81C
330
2
100
AcDbEntity
  8
0
100
AcDbLine
 10
240.007167314173
 20
93.55818074933621
 30
0.0
 11
240.007167314173
 21
93.06303374933618
 31
0.0
  0
ARC
  5
81D
330
2
100
AcDbEntity
  8
0
100
AcDbCircle
 10
246.2017783141731
 20
82.23428274933619
 30
0.0
 40
6.0
100
AcDbArc
 50
47.3640670000003
 51
120.3582990000005
  0
ARC
  5
81E
330
2
100
AcDbEntity
  8
0
100
AcDbCircle
 10
249.927028314173
 20
102.7980187493361
 30
0.0
 40
2.0
100
AcDbArc
 50
90.0
 51
139.3987120000005
  0
ARC
  5
81F
330
2
100
AcDbEntity
  8
0
100
AcDbCircle
 10
257.5071673141731
 20
101.7980187493361
 30
0.0
 40
4.5
100
AcDbArc
 50
90.0
 51
270.0
  0
LINE
  5
820
330
2
100
AcDbEntity
  8
0
100
AcDbLine
 10
257.5071673141731
 20
103.5980367493361
 30
0.0
 11
256.0071673141731
 21
102.7320087493361
 31
0.0
  0
LINE
  5
821
330
2
100
AcDbEntity
  8
0
100
AcDbLine
 10
257.5071673141731
 20
99.99803074933618
 30
0.0
 11
256.0071673141731
 21
100.8640587493361
 31
0.0
  0
LINE
  5
822
330
2
100
AcDbEntity
  8
0
100
AcDbLine
 10
256.0071673141731
 20
102.7320087493361
 30
0.0
 11
256.0071673141731
 21
100.8640587493361
 31
0.0
  0
ARC
  5
823
330
2
100
AcDbEntity
  8
0
100
AcDbCircle
 10
250.3720963141731
 20
106.7980187493361
 30
0.0
 40
2.0
100
AcDbArc
 50
270.0
 51
345.5224909999996
  0
LINE
  5
824
330
2
100
AcDbEntity
  8
0
100
AcDbLine
 10
249.927028314173
 20
104.7980187493361
 30
0.0
 11
250.3720963141731
 21
104.7980187493361
 31
0.0
  0
ARC
  5
825
330
2
100
AcDbEntity
  8
0
100
AcDbCircle
 10
260.0071673141731
 20
95.29801874933616
 30
0.0
 40
2.0
100
AcDbArc
 50
0.0
 51
90.0
  0
LINE
  5
826
330
2
100
AcDbEntity
  8
0
100
AcDbLine
 10
259.0071673141731
 20
102.7320087493361
 30
0.0
 11
259.0071673141731
 21
100.8640587493361
 31
0.0
  0
LINE
  5
828
330
2
100
AcDbEntity
  8
0
100
AcDbLine
 10
342.5071673141731
 20
87.54801874933617
 30
0.0
 11
355.0071673141731
 21
87.54801874933617
 31
0.0
  0
LINE
  5
829
330
2
100
AcDbEntity
  8
0
100
AcDbLine
 10
342.5071673141731
 20
96.04801874933617
 30
0.0
 11
355.0071673141731
 21
96.04801874933617
 31
0.0
  0
LINE
  5
82A
330
2
100
AcDbEntity
  8
HIDS
100
AcDbLine
 10
349.6101943141731
 20
99.29801874933616
 30
0.0
 11
357.0071673141731
 21
91.90104574933616
 31
0.0
  0
ARC
  5
82C
330
2
100
AcDbEntity
  8
HIDS
100
AcDbCircle
 10
346.007167314173
 20
102.2980187493361
 30
0.0
 40
3.0
100
AcDbArc
 50
180.0
 51
270.0
  0
LINE
  5
82D
330
2
100
AcDbEntity
  8
0
100
AcDbLine
 10
342.5071673141731
 20
106.4682157493362
 30
0.0
 11
349.0071673141731
 21
106.2980187493361
 31
0.0
  0
LINE
  5
82E
330
2
100
AcDbEntity
  8
CENTER
100
AcDbLine
 10
342.0674703141731
 20
101.7980187493361
 30
0.0
 11
350.052180314173
 21
101.7980187493361
 31
0.0
  0
LINE
  5
831
330
2
100
AcDbEntity
  8
HIDS
100
AcDbLine
 10
346.007167314173
 20
99.29801874933616
 30
0.0
 11
349.6101943141731
 21
99.29801874933616
 31
0.0
  0
LINE
  5
832
330
2
100
AcDbEntity
  8
0
100
AcDbLine
 10
348.0071363141731
 20
105.5980067493361
 30
0.0
 11
349.0071673141731
 21
105.5980067493361
 31
0.0
  0
LINE
  5
833
330
2
100
AcDbEntity
  8
0
100
AcDbLine
 10
344.0071363141731
 20
105.2980187493361
 30
0.0
 11
348.0071363141731
 21
105.2980497493361
 31
0.0
  0
LINE
  5
834
330
2
100
AcDbEntity
  8
0
100
AcDbLine
 10
349.0071673141731
 20
100.1121640706731
 30
0.0
 11
349.0071673141731
 21
106.2980187493361
 31
0.0
  0
LINE
  5
836
330
2
100
AcDbEntity
  8
0
100
AcDbLine
 10
344.0071363141731
 20
99.72486848922057
 30
0.0
 11
344.0071363141731
 21
105.2980187493361
 31
0.0
  0
LINE
  5
838
330
2
100
AcDbEntity
  8
0
100
AcDbLine
 10
348.0071363141731
 20
99.97287956164928
 30
0.0
 11
348.0071363141731
 21
105.5980067493361
 31
0.0
  0
ARC
  5
839
330
2
100
AcDbEntity
  8
HIDS
100
AcDbCircle
 10
360.0071673141731
 20
88.29801874933616
 30
0.0
 40
3.0
100
AcDbArc
 50
180.0
 51
270.0
  0
LINE
  5
83B
330
2
100
AcDbEntity
  8
HOJO
100
AcDbLine
 10
355.0071673141731
 20
87.79801874933616
 30
0.0
 11
375.007167314173
 21
87.79801874933616
 31
0.0
  0
LINE
  5
83C
330
2
100
AcDbEntity
  8
HOJO
100
AcDbLine
 10
355.0071673141731
 20
95.79801874933616
 30
0.0
 11
375.007167314173
 21
95.79801874933616
 31
0.0
  0
ARC
  5
83D
330
2
100
AcDbEntity
  8
HIDS
100
AcDbCircle
 10
357.0071673141731
 20
93.59629774933614
 30
0.0
 40
3.0
100
AcDbArc
 50
0.0
 51
50.64329900000029
  0
LINE
  5
83E
330
2
100
AcDbEntity
  8
HIDS
100
AcDbLine
 10
357.0071673141731
 20
88.29801874933616
 30
0.0
 11
357.0071673141731
 21
91.90104574933616
 31
0.0
  0
ARC
  5
83F
330
2
100
AcDbEntity
  8
HIDS
100
AcDbCircle
 10
362.0071673141731
 20
89.66488574933615
 30
0.0
 40
2.0
100
AcDbArc
 50
180.0
 51
268.9999999999998
  0
LINE
  5
840
330
2
100
AcDbEntity
  8
HIDS
100
AcDbLine
 10
360.0071673141731
 20
89.66488574933615
 30
0.0
 11
360.0071673141731
 21
93.59629774933614
 31
0.0
  0
LINE
  5
844
330
2
100
AcDbEntity
  8
HOJO
100
AcDbLine
 10
375.007167314173
 20
95.79801874933616
 30
0.0
 11
375.007167314173
 21
87.79801874933616
 31
0.0
  0
LINE
  5
848
330
2
100
AcDbEntity
  8
0
100
AcDbLine
 10
88.95166331417312
 20
155.5469807493361
 30
0.0
 11
162.0071673141731
 21
155.5469807493361
 31
0.0
  0
LINE
  5
849
330
2
100
AcDbEntity
  8
0
100
AcDbLine
 10
88.95166331417312
 20
163.2980187493361
 30
0.0
 11
160.6484183141731
 21
163.2980187493361
 31
0.0
  0
LINE
  5
84A
330
2
100
AcDbEntity
  8
CENTER
100
AcDbLine
 10
269.547938314173
 20
125.2980187493361
 30
0.0
 11
21.93114534593924
 21
125.2980187493361
 31
0.0
  0
LINE
  5
84B
330
2
100
AcDbEntity
  8
0
100
AcDbLine
 10
33.2016753141731
 20
149.2980187493361
 30
0.0
 11
79.45166331417311
 21
149.2980187493361
 31
0.0
  0
LINE
  5
84C
330
2
100
AcDbEntity
  8
0
100
AcDbLine
 10
35.4516753141731
 20
165.2980187493361
 30
0.0
 11
79.45166331417311
 21
165.2980187493361
 31
0.0
  0
ARC
  5
84D
330
2
100
AcDbEntity
  8
0
100
AcDbCircle
 10
35.4516753141731
 20
160.2980187493361
 30
0.0
 40
5.0
100
AcDbArc
 50
90.0
 51
180.0
  0
LINE
  5
852
330
2
100
AcDbEntity
  8
0
100
AcDbLine
 10
79.45166331417311
 20
155.5470117493362
 30
0.0
 11
88.95166331417312
 21
155.5470117493362
 31
0.0
  0
LINE
  5
853
330
2
100
AcDbEntity
  8
0
100
AcDbLine
 10
79.45166331417311
 20
163.2980187493361
 30
0.0
 11
88.95166331417312
 21
163.2980187493361
 31
0.0
  0
CIRCLE
  5
85B
330
2
100
AcDbEntity
  8
HOJO
100
AcDbCircle
 10
255.0071673141731
 20
158.7980187493361
 30
0.0
 40
4.0
  0
CIRCLE
  5
85C
330
2
100
AcDbEntity
  8
0
100
AcDbCircle
 10
255.0071673141731
 20
158.7980187493361
 30
0.0
 40
4.25
  0
CIRCLE
  5
85D
330
2
100
AcDbEntity
  8
0
100
AcDbCircle
 10
255.0071673141731
 20
158.7980187493361
 30
0.0
 40
3.399999999999999
  0
LINE
  5
85F
330
2
100
AcDbEntity
  8
0
100
AcDbLine
 10
260.0071673141731
 20
144.2980187493361
 30
0.0
 11
257.5071673141731
 21
144.2980187493361
 31
0.0
  0
LINE
  5
860
330
2
100
AcDbEntity
  8
0
100
AcDbLine
 10
260.0071673141731
 20
153.2980187493361
 30
0.0
 11
257.5071673141731
 21
153.2980187493361
 31
0.0
  0
LINE
  5
861
330
2
100
AcDbEntity
  8
0
100
AcDbLine
 10
257.5071673141731
 20
146.9980007493361
 30
0.0
 11
259.0071673141731
 21
147.8640287493361
 31
0.0
  0
LINE
  5
862
330
2
100
AcDbEntity
  8
0
100
AcDbLine
 10
257.5071673141731
 20
150.5980067493361
 30
0.0
 11
259.0071673141731
 21
149.7319787493361
 31
0.0
  0
CIRCLE
  5
863
330
2
100
AcDbEntity
  8
0
100
AcDbCircle
 10
257.5071673141731
 20
148.7980187493361
 30
0.0
 40
3.5
  0
CIRCLE
  5
864
330
2
100
AcDbEntity
  8
0
100
AcDbCircle
 10
257.5071673141731
 20
148.7980187493361
 30
0.0
 40
3.799999999999999
  0
ARC
  5
865
330
2
100
AcDbEntity
  8
0
100
AcDbCircle
 10
255.0071673141731
 20
158.7980187493361
 30
0.0
 40
7.0
100
AcDbArc
 50
0.0
 51
132.6359249999996
  0
LINE
  5
867
330
2
100
AcDbEntity
  8
0
100
AcDbLine
 10
231.0071673141731
 20
160.7980187493361
 30
0.0
 11
193.0071673141731
 21
160.7980187493361
 31
0.0
  0
LINE
  5
868
330
2
100
AcDbEntity
  8
0
100
AcDbLine
 10
169.0071673141731
 20
165.7980187493361
 30
0.0
 11
255.0071673141731
 21
165.7980187493361
 31
0.0
  0
ARC
  5
86A
330
2
100
AcDbEntity
  8
0
100
AcDbCircle
 10
166.507167314173
 20
148.7980187493361
 30
0.0
 40
4.5
100
AcDbArc
 50
270.0
 51
90.0
  0
LINE
  5
86B
330
2
100
AcDbEntity
  8
0
100
AcDbLine
 10
165.0071673141731
 20
147.8640287493361
 30
0.0
 11
165.0071673141731
 21
149.7319787493361
 31
0.0
  0
LINE
  5
86C
330
2
100
AcDbEntity
  8
0
100
AcDbLine
 10
168.0071673141731
 20
147.8640287493361
 30
0.0
 11
168.0071673141731
 21
149.7319787493361
 31
0.0
  0
CIRCLE
  5
86D
330
2
100
AcDbEntity
  8
0
100
AcDbCircle
 10
166.507167314173
 20
148.7980187493361
 30
0.0
 40
3.5
  0
CIRCLE
  5
86E
330
2
100
AcDbEntity
  8
0
100
AcDbCircle
 10
166.507167314173
 20
148.7980187493361
 30
0.0
 40
3.799999999999999
  0
LINE
  5
86F
330
2
100
AcDbEntity
  8
0
100
AcDbLine
 10
176.5256763141731
 20
144.4964437493361
 30
0.0
 11
185.525676314173
 21
154.9964437493361
 31
0.0
  0
LINE
  5
870
330
2
100
AcDbEntity
  8
0
100
AcDbLine
 10
175.605815314173
 20
146.4964437493361
 30
0.0
 11
183.525676314173
 21
155.7362817493361
 31
0.0
  0
LINE
  5
871
330
2
100
AcDbEntity
  8
0
100
AcDbLine
 10
162.0071673141731
 20
158.7980187493361
 30
0.0
 11
162.0071673141731
 21
141.6264487493361
 31
0.0
  0
ARC
  5
873
330
2
100
AcDbEntity
  8
0
100
AcDbCircle
 10
164.0071673141731
 20
142.2980187493361
 30
0.0
 40
2.0
100
AcDbArc
 50
90.0
 51
180.0
  0
LINE
  5
874
330
2
100
AcDbEntity
  8
0
100
AcDbLine
 10
165.421382314173
 20
137.3838037493361
 30
0.0
 11
162.5929523141731
 21
140.2122337493361
 31
0.0
  0
LINE
  5
875
330
2
100
AcDbEntity
  8
0
100
AcDbLine
 10
165.421382314173
 20
113.2122337493361
 30
0.0
 11
162.5929523141731
 21
110.3838037493361
 31
0.0
  0
ARC
  5
876
330
2
100
AcDbEntity
  8
0
100
AcDbCircle
 10
164.0071673141731
 20
108.9695887493362
 30
0.0
 40
2.0
100
AcDbArc
 50
134.9999999999994
 51
180.0
  0
ARC
  5
877
330
2
100
AcDbEntity
  8
0
100
AcDbCircle
 10
164.0071673141731
 20
141.6264487493361
 30
0.0
 40
2.0
100
AcDbArc
 50
180.0
 51
225.0000000000006
  0
LINE
  5
878
330
2
100
AcDbEntity
  8
0
100
AcDbLine
 10
171.0071673141731
 20
138.7980187493361
 30
0.0
 11
171.0071673141731
 21
111.7980187493361
 31
0.0
  0
LINE
  5
879
330
2
100
AcDbEntity
  8
0
100
AcDbLine
 10
166.0071673141731
 20
114.6264487493361
 30
0.0
 11
166.0071673141731
 21
135.9695887493362
 31
0.0
  0
ARC
  5
87A
330
2
100
AcDbEntity
  8
0
100
AcDbCircle
 10
164.0071673141731
 20
114.6264487493361
 30
0.0
 40
2.0
100
AcDbArc
 50
314.9999999999994
 51
0.0
  0
LINE
  5
87B
330
2
100
AcDbEntity
  8
0
100
AcDbLine
 10
175.007167314173
 20
106.7980187493361
 30
0.0
 11
173.233440314173
 21
106.7980187493361
 31
0.0
  0
ARC
  5
87C
330
2
100
AcDbEntity
  8
0
100
AcDbCircle
 10
164.0071673141731
 20
135.9695887493362
 30
0.0
 40
2.0
100
AcDbArc
 50
0.0
 51
45.00000000000057
  0
ARC
  5
87D
330
2
100
AcDbEntity
  8
0
100
AcDbCircle
 10
173.6422533141731
 20
143.7980187493361
 30
0.0
 40
2.0
100
AcDbArc
 50
90.0
 51
165.5224909999995
  0
ARC
  5
87E
330
2
100
AcDbEntity
  8
0
100
AcDbCircle
 10
173.233440314173
 20
141.7980187493361
 30
0.0
 40
2.0
100
AcDbArc
 50
90.0
 51
171.3730769999999
  0
LINE
  5
87F
330
2
100
AcDbEntity
  8
0
100
AcDbLine
 10
164.0071673141731
 20
144.2980187493361
 30
0.0
 11
166.507167314173
 21
144.2980187493361
 31
0.0
  0
LINE
  5
880
330
2
100
AcDbEntity
  8
0
100
AcDbLine
 10
166.507167314173
 20
146.9980007493361
 30
0.0
 11
168.0071673141731
 21
147.8640287493361
 31
0.0
  0
LINE
  5
881
330
2
100
AcDbEntity
  8
0
100
AcDbLine
 10
166.507167314173
 20
146.9980007493361
 30
0.0
 11
165.0071673141731
 21
147.8640287493361
 31
0.0
  0
ARC
  5
882
330
2
100
AcDbEntity
  8
0
100
AcDbCircle
 10
193.0071673141731
 20
138.7980187493361
 30
0.0
 40
22.0
100
AcDbArc
 50
165.5224909999995
 51
180.0
  0
LINE
  5
883
330
2
100
AcDbEntity
  8
0
100
AcDbLine
 10
174.0872913141731
 20
145.7980187493361
 30
0.0
 11
173.6422533141731
 21
145.7980187493361
 31
0.0
  0
LINE
  5
884
330
2
100
AcDbEntity
  8
0
100
AcDbLine
 10
175.007167314173
 20
143.7980187493361
 30
0.0
 11
173.233440314173
 21
143.7980187493361
 31
0.0
  0
LINE
  5
885
330
2
100
AcDbEntity
  8
0
100
AcDbLine
 10
175.8428763141731
 20
143.9810017493362
 30
0.0
 11
174.9230153141731
 21
145.9810017493362
 31
0.0
  0
ARC
  5
886
330
2
100
AcDbEntity
  8
0
100
AcDbCircle
 10
175.007167314173
 20
145.7980187493361
 30
0.0
 40
2.0
100
AcDbArc
 50
270.0
 51
319.3987050000003
  0
ARC
  5
887
330
2
100
AcDbEntity
  8
0
100
AcDbCircle
 10
174.0872913141731
 20
147.7980187493361
 30
0.0
 40
2.0
100
AcDbArc
 50
270.0
 51
319.3987050000003
  0
ARC
  5
888
330
2
100
AcDbEntity
  8
0
100
AcDbCircle
 10
164.0071673141731
 20
155.2980187493361
 30
0.0
 40
2.0
100
AcDbArc
 50
180.0
 51
270.0
  0
LINE
  5
889
330
2
100
AcDbEntity
  8
0
100
AcDbLine
 10
161.3435473141731
 20
163.4227137493361
 30
0.0
 11
166.5741843141731
 21
165.3615867493362
 31
0.0
  0
ARC
  5
88A
330
2
100
AcDbEntity
  8
0
100
AcDbCircle
 10
169.0071673141731
 20
158.7980187493361
 30
0.0
 40
7.0
100
AcDbArc
 50
47.3640670000003
 51
180.0
  0
LINE
  5
88C
330
2
100
AcDbEntity
  8
0
100
AcDbLine
 10
161.5071673141731
 20
150.9884787493362
 30
0.0
 11
162.0071673141731
 21
150.9884787493362
 31
0.0
  0
ARC
  5
88D
330
2
100
AcDbEntity
  8
0
100
AcDbCircle
 10
160.6484183141731
 20
165.2980187493361
 30
0.0
 40
2.0
100
AcDbArc
 50
270.0
 51
290.3387299999997
  0
ARC
  5
88E
330
2
100
AcDbEntity
  8
0
100
AcDbCircle
 10
177.812556314173
 20
168.3617697493361
 30
0.0
 40
6.0
100
AcDbArc
 50
227.3640750000003
 51
300.3583030000001
  0
CIRCLE
  5
88F
330
2
100
AcDbEntity
  8
HOJO
100
AcDbCircle
 10
169.0071673141731
 20
158.7980187493361
 30
0.0
 40
4.0
  0
CIRCLE
  5
890
330
2
100
AcDbEntity
  8
0
100
AcDbCircle
 10
169.0071673141731
 20
158.7980187493361
 30
0.0
 40
4.25
  0
CIRCLE
  5
891
330
2
100
AcDbEntity
  8
0
100
AcDbCircle
 10
169.0071673141731
 20
158.7980187493361
 30
0.0
 40
3.399999999999999
  0
LINE
  5
893
330
2
100
AcDbEntity
  8
0
100
AcDbLine
 10
164.0071673141731
 20
153.2980187493361
 30
0.0
 11
166.507167314173
 21
153.2980187493361
 31
0.0
  0
LINE
  5
894
330
2
100
AcDbEntity
  8
0
100
AcDbLine
 10
166.507167314173
 20
150.5980067493361
 30
0.0
 11
165.0071673141731
 21
149.7319787493361
 31
0.0
  0
LINE
  5
895
330
2
100
AcDbEntity
  8
0
100
AcDbLine
 10
166.507167314173
 20
150.5980067493361
 30
0.0
 11
168.0071673141731
 21
149.7319787493361
 31
0.0
  0
ARC
  5
896
330
2
100
AcDbEntity
  8
0
100
AcDbCircle
 10
186.0071673141731
 20
157.5330037493361
 30
0.0
 40
2.0
100
AcDbArc
 50
110.4873119999995
 51
180.0
  0
ARC
  5
897
330
2
100
AcDbEntity
  8
0
100
AcDbCircle
 10
188.0071673141731
 20
158.1629477493361
 30
0.0
 40
2.0
100
AcDbArc
 50
104.4775090000001
 51
180.0
  0
ARC
  5
898
330
2
100
AcDbEntity
  8
0
100
AcDbCircle
 10
193.0071673141731
 20
138.7980187493361
 30
0.0
 40
22.0
100
AcDbArc
 50
90.0
 51
110.4873119999995
  0
LINE
  5
899
330
2
100
AcDbEntity
  8
0
100
AcDbLine
 10
185.8829303141731
 20
155.6041407493361
 30
0.0
 11
183.882930314173
 21
156.3439777493361
 31
0.0
  0
ARC
  5
89A
330
2
100
AcDbEntity
  8
0
100
AcDbCircle
 10
182.0071673141731
 20
157.0378567493361
 30
0.0
 40
2.0
100
AcDbArc
 50
319.3987050000003
 51
0.0
  0
ARC
  5
89B
330
2
100
AcDbEntity
  8
0
100
AcDbCircle
 10
184.007167314173
 20
156.2980187493361
 30
0.0
 40
2.0
100
AcDbArc
 50
319.3987050000003
 51
0.0
  0
LINE
  5
89C
330
2
100
AcDbEntity
  8
0
100
AcDbLine
 10
186.0071673141731
 20
156.2980187493361
 30
0.0
 11
186.0071673141731
 21
158.1629477493361
 31
0.0
  0
LINE
  5
89D
330
2
100
AcDbEntity
  8
0
100
AcDbLine
 10
184.007167314173
 20
157.0378567493361
 30
0.0
 11
184.007167314173
 21
157.5330037493361
 31
0.0
  0
ARC
  5
89E
330
2
100
AcDbEntity
  8
0
100
AcDbCircle
 10
188.4078323141731
 20
155.7980187493361
 30
0.0
 40
10.0
100
AcDbArc
 50
90.0
 51
112.3316420000001
  0
ARC
  5
89F
330
2
100
AcDbEntity
  8
0
100
AcDbCircle
 10
196.0071673141731
 20
137.2980187493361
 30
0.0
 40
30.0
100
AcDbArc
 50
112.3316420000001
 51
120.3582990000005
  0
ARC
  5
8A0
330
2
100
AcDbEntity
  8
0
100
AcDbCircle
 10
257.5071673141731
 20
148.7980187493361
 30
0.0
 40
4.5
100
AcDbArc
 50
90.0
 51
270.0
  0
LINE
  5
8A2
330
2
100
AcDbEntity
  8
0
100
AcDbLine
 10
256.0071673141731
 20
147.8640287493361
 30
0.0
 11
256.0071673141731
 21
149.7319787493361
 31
0.0
  0
LINE
  5
8A3
330
2
100
AcDbEntity
  8
0
100
AcDbLine
 10
247.4886433141731
 20
144.4964437493361
 30
0.0
 11
238.4886583141731
 21
154.9964437493361
 31
0.0
  0
LINE
  5
8A4
330
2
100
AcDbEntity
  8
0
100
AcDbLine
 10
248.408534314173
 20
146.4964437493361
 30
0.0
 11
240.488643314173
 21
155.7362817493361
 31
0.0
  0
ARC
  5
8A5
330
2
100
AcDbEntity
  8
0
100
AcDbCircle
 10
223.007167314173
 20
125.2980187493361
 30
0.0
 40
7.5
100
AcDbArc
 50
19.47122199999956
 51
340.5287780000004
  0
ARC
  5
8A6
330
2
100
AcDbEntity
  8
0
100
AcDbCircle
 10
223.007167314173
 20
125.2980187493361
 30
0.0
 40
8.5
100
AcDbArc
 50
17.1046349999994
 51
342.8953549999997
  0
CIRCLE
  5
8A7
330
2
100
AcDbEntity
  8
0
100
AcDbCircle
 10
223.007167314173
 20
125.2980187493361
 30
0.0
 40
15.0
  0
LINE
  5
8A8
330
2
100
AcDbEntity
  8
0
100
AcDbLine
 10
227.507167314173
 20
127.7980187493361
 30
0.0
 11
227.507167314173
 21
122.7980187493361
 31
0.0
  0
LINE
  5
8A9
330
2
100
AcDbEntity
  8
0
100
AcDbLine
 10
232.5071673141731
 20
127.7980187493361
 30
0.0
 11
232.5071673141731
 21
122.7980187493361
 31
0.0
  0
LINE
  5
8AA
330
2
100
AcDbEntity
  8
0
100
AcDbLine
 10
253.0071673141731
 20
138.7980187493361
 30
0.0
 11
253.0071673141731
 21
111.7980187493361
 31
0.0
  0
LINE
  5
8AB
330
2
100
AcDbEntity
  8
0
100
AcDbLine
 10
227.507167314173
 20
122.7980187493361
 30
0.0
 11
232.5071673141731
 21
122.7980187493361
 31
0.0
  0
LINE
  5
8AC
330
2
100
AcDbEntity
  8
0
100
AcDbLine
 10
249.0071673141731
 20
106.7980187493361
 30
0.0
 11
250.780879314173
 21
106.7980187493361
 31
0.0
  0
LINE
  5
8AD
330
2
100
AcDbEntity
  8
0
100
AcDbLine
 10
227.507167314173
 20
127.7980187493361
 30
0.0
 11
232.5071673141731
 21
127.7980187493361
 31
0.0
  0
LINE
  5
8AE
330
2
100
AcDbEntity
  8
0
100
AcDbLine
 10
249.0071673141731
 20
143.7980187493361
 30
0.0
 11
250.780879314173
 21
143.7980187493361
 31
0.0
  0
ARC
  5
8AF
330
2
100
AcDbEntity
  8
0
100
AcDbCircle
 10
249.927028314173
 20
147.7980187493361
 30
0.0
 40
2.0
100
AcDbArc
 50
220.6012879999994
 51
270.0
  0
LINE
  5
8B0
330
2
100
AcDbEntity
  8
0
100
AcDbLine
 10
248.171443314173
 20
143.9810017493362
 30
0.0
 11
249.091334314173
 21
145.9810017493362
 31
0.0
  0
ARC
  5
8B1
330
2
100
AcDbEntity
  8
0
100
AcDbCircle
 10
249.0071673141731
 20
145.7980187493361
 30
0.0
 40
2.0
100
AcDbArc
 50
220.6012879999994
 51
270.0
  0
LINE
  5
8B2
330
2
100
AcDbEntity
  8
0
100
AcDbLine
 10
257.5071673141731
 20
146.9980007493361
 30
0.0
 11
256.0071673141731
 21
147.8640287493361
 31
0.0
  0
ARC
  5
8B3
330
2
100
AcDbEntity
  8
0
100
AcDbCircle
 10
231.0071673141731
 20
138.7980187493361
 30
0.0
 40
22.0
100
AcDbArc
 50
0.0
 51
14.47751199999975
  0
ARC
  5
8B4
330
2
100
AcDbEntity
  8
0
100
AcDbCircle
 10
250.3720963141731
 20
143.7980187493361
 30
0.0
 40
2.0
100
AcDbArc
 50
14.47751199999975
 51
90.0
  0
ARC
  5
8B5
330
2
100
AcDbEntity
  8
0
100
AcDbCircle
 10
250.780879314173
 20
141.7980187493361
 30
0.0
 40
2.0
100
AcDbArc
 50
8.626927000000565
 51
90.0
  0
LINE
  5
8B6
330
2
100
AcDbEntity
  8
0
100
AcDbLine
 10
249.927028314173
 20
145.7980187493361
 30
0.0
 11
250.3720963141731
 21
145.7980187493361
 31
0.0
  0
ARC
  5
8B7
330
2
100
AcDbEntity
  8
0
100
AcDbCircle
 10
228.0071673141731
 20
137.2980187493361
 30
0.0
 40
30.0
100
AcDbArc
 50
59.64169699999986
 51
67.66835799999981
  0
ARC
  5
8B8
330
2
100
AcDbEntity
  8
0
100
AcDbCircle
 10
238.0071673141731
 20
157.5330037493361
 30
0.0
 40
2.0
100
AcDbArc
 50
0.0
 51
69.51268800000041
  0
ARC
  5
8B9
330
2
100
AcDbEntity
  8
0
100
AcDbCircle
 10
236.0071673141731
 20
158.1629477493361
 30
0.0
 40
2.0
100
AcDbArc
 50
0.0
 51
75.52249099999979
  0
ARC
  5
8BA
330
2
100
AcDbEntity
  8
0
100
AcDbCircle
 10
231.0071673141731
 20
138.7980187493361
 30
0.0
 40
22.0
100
AcDbArc
 50
69.51268800000041
 51
90.0
  0
LINE
  5
8BB
330
2
100
AcDbEntity
  8
0
100
AcDbLine
 10
238.1314043141731
 20
155.6041407493361
 30
0.0
 11
240.131404314173
 21
156.3439777493361
 31
0.0
  0
ARC
  5
8BC
330
2
100
AcDbEntity
  8
0
100
AcDbCircle
 10
242.007167314173
 20
157.0378567493361
 30
0.0
 40
2.0
100
AcDbArc
 50
180.0
 51
220.6012879999994
  0
ARC
  5
8BD
330
2
100
AcDbEntity
  8
0
100
AcDbCircle
 10
240.007167314173
 20
156.2980187493361
 30
0.0
 40
2.0
100
AcDbArc
 50
180.0
 51
220.6012879999994
  0
LINE
  5
8BE
330
2
100
AcDbEntity
  8
0
100
AcDbLine
 10
238.0071673141731
 20
156.2980187493361
 30
0.0
 11
238.0071673141731
 21
158.1629477493361
 31
0.0
  0
LINE
  5
8BF
330
2
100
AcDbEntity
  8
0
100
AcDbLine
 10
240.007167314173
 20
157.0378567493361
 30
0.0
 11
240.007167314173
 21
157.5330037493361
 31
0.0
  0
ARC
  5
8C0
330
2
100
AcDbEntity
  8
0
100
AcDbCircle
 10
235.606502314173
 20
155.7980187493361
 30
0.0
 40
10.0
100
AcDbArc
 50
67.66835799999981
 51
90.0
  0
LINE
  5
8C2
330
2
100
AcDbEntity
  8
0
100
AcDbLine
 10
257.5071673141731
 20
150.5980067493361
 30
0.0
 11
256.0071673141731
 21
149.7319787493361
 31
0.0
  0
ARC
  5
8C3
330
2
100
AcDbEntity
  8
0
100
AcDbCircle
 10
246.2017783141731
 20
168.3617697493361
 30
0.0
 40
6.0
100
AcDbArc
 50
239.6417009999995
 51
312.6359329999997
  0
LINE
  5
8C4
330
2
100
AcDbEntity
  8
0
100
AcDbLine
 10
314.507167314173
 20
122.7980187493361
 30
0.0
 11
336.0071673141731
 21
122.7980187493361
 31
0.0
  0
LINE
  5
8C5
330
2
100
AcDbEntity
  8
0
100
AcDbLine
 10
314.507167314173
 20
127.7980187493361
 30
0.0
 11
336.0071673141731
 21
127.7980187493361
 31
0.0
  0
LINE
  5
8C6
330
2
100
AcDbEntity
  8
0
100
AcDbLine
 10
314.507167314173
 20
117.7980187493361
 30
0.0
 11
341.507167314173
 21
117.7980187493361
 31
0.0
  0
LINE
  5
8C7
330
2
100
AcDbEntity
  8
0
100
AcDbLine
 10
314.507167314173
 20
132.7980187493361
 30
0.0
 11
341.507167314173
 21
132.7980187493361
 31
0.0
  0
LINE
  5
8C8
330
2
100
AcDbEntity
  8
0
100
AcDbLine
 10
259.0071673141731
 20
147.8640287493361
 30
0.0
 11
259.0071673141731
 21
149.7319787493361
 31
0.0
  0
LINE
  5
8C9
330
2
100
AcDbEntity
  8
0
100
AcDbLine
 10
258.0071673141731
 20
114.6264487493361
 30
0.0
 11
258.0071673141731
 21
135.9695887493362
 31
0.0
  0
ARC
  5
8CA
330
2
100
AcDbEntity
  8
0
100
AcDbCircle
 10
260.0071673141731
 20
114.6264487493361
 30
0.0
 40
2.0
100
AcDbArc
 50
180.0
 51
225.0000000000006
  0
ARC
  5
8CB
330
2
100
AcDbEntity
  8
0
100
AcDbCircle
 10
260.0071673141731
 20
108.9695887493362
 30
0.0
 40
2.0
100
AcDbArc
 50
0.0
 51
45.00000000000057
  0
LINE
  5
8CC
330
2
100
AcDbEntity
  8
0
100
AcDbLine
 10
258.592952314173
 20
113.2122337493361
 30
0.0
 11
261.4213823141731
 21
110.3838037493361
 31
0.0
  0
LINE
  5
8CD
330
2
100
AcDbEntity
  8
0
100
AcDbLine
 10
258.592952314173
 20
137.3838037493361
 30
0.0
 11
261.4213823141731
 21
140.2122337493361
 31
0.0
  0
ARC
  5
8CE
330
2
100
AcDbEntity
  8
0
100
AcDbCircle
 10
260.0071673141731
 20
135.9695887493362
 30
0.0
 40
2.0
100
AcDbArc
 50
134.9999999999994
 51
180.0
  0
ARC
  5
8CF
330
2
100
AcDbEntity
  8
0
100
AcDbCircle
 10
260.0071673141731
 20
142.2980187493361
 30
0.0
 40
2.0
100
AcDbArc
 50
0.0
 51
90.0
  0
ARC
  5
8D0
330
2
100
AcDbEntity
  8
0
100
AcDbCircle
 10
260.0071673141731
 20
141.6264487493361
 30
0.0
 40
2.0
100
AcDbArc
 50
314.9999999999994
 51
0.0
  0
LINE
  5
8D1
330
2
100
AcDbEntity
  8
0
100
AcDbLine
 10
314.507167314173
 20
132.7980187493361
 30
0.0
 11
314.507167314173
 21
117.7980187493361
 31
0.0
  0
ARC
  5
8D2
330
2
100
AcDbEntity
  8
0
100
AcDbCircle
 10
260.0071673141731
 20
155.2980187493361
 30
0.0
 40
2.0
100
AcDbArc
 50
270.0
 51
0.0
  0
ARC
  5
8D3
330
2
100
AcDbEntity
  8
HIDS
100
AcDbCircle
 10
348.007167314173
 20
146.8665607493361
 30
0.0
 40
5.0
100
AcDbArc
 50
134.9999999999994
 51
180.0
  0
LINE
  5
8D4
330
2
100
AcDbEntity
  8
0
100
AcDbLine
 10
349.0071673141731
 20
153.2980187493361
 30
0.0
 11
349.0071673141731
 21
144.2980187493361
 31
0.0
  0
LINE
  5
8D5
330
2
100
AcDbEntity
  8
0
100
AcDbLine
 10
344.0071363141731
 20
152.2980187493361
 30
0.0
 11
344.0071363141731
 21
145.2980187493361
 31
0.0
  0
LINE
  5
8D6
330
2
100
AcDbEntity
  8
0
100
AcDbLine
 10
348.0071363141731
 20
152.5980067493361
 30
0.0
 11
348.0071363141731
 21
144.9980307493361
 31
0.0
  0
LINE
  5
8D7
330
2
100
AcDbEntity
  8
0
100
AcDbLine
 10
355.0071673141731
 20
109.7980187493361
 30
0.0
 11
342.5071673141731
 21
109.7980187493361
 31
0.0
  0
LINE
  5
8D8
330
2
100
AcDbEntity
  8
0
100
AcDbLine
 10
355.0071673141731
 20
113.7980187493361
 30
0.0
 11
342.5071673141731
 21
113.7980187493361
 31
0.0
  0
LINE
  5
8D9
330
2
100
AcDbEntity
  8
0
100
AcDbLine
 10
355.0071673141731
 20
136.7980187493361
 30
0.0
 11
342.5071673141731
 21
136.7980187493361
 31
0.0
  0
LINE
  5
8DA
330
2
100
AcDbEntity
  8
0
100
AcDbLine
 10
355.0071673141731
 20
140.7980187493361
 30
0.0
 11
342.5071673141731
 21
140.7980187493361
 31
0.0
  0
LINE
  5
8DB
330
2
100
AcDbEntity
  8
0
100
AcDbLine
 10
341.507167314173
 20
133.1093587493361
 30
0.0
 11
341.507167314173
 21
117.4866787493362
 31
0.0
  0
ARC
  5
8DC
330
2
100
AcDbEntity
  8
0
100
AcDbCircle
 10
336.0071673141731
 20
125.2980187493361
 30
0.0
 40
2.5
100
AcDbArc
 50
270.0
 51
90.0
  0
ARC
  5
8DD
330
2
100
AcDbEntity
  8
0
100
AcDbCircle
 10
342.007167314173
 20
117.4866787493362
 30
0.0
 40
0.5
100
AcDbArc
 50
180.0
 51
239.9999999999998
  0
LINE
  5
8DE
330
2
100
AcDbEntity
  8
0
100
AcDbLine
 10
342.5071673141731
 20
116.7980187493361
 30
0.0
 11
342.2846023141731
 21
116.7980187493361
 31
0.0
  0
LINE
  5
8DF
330
2
100
AcDbEntity
  8
0
100
AcDbLine
 10
341.757167314173
 20
117.0536947493361
 30
0.0
 11
341.909084314173
 21
116.9659567493361
 31
0.0
  0
ARC
  5
8E0
330
2
100
AcDbEntity
  8
0
100
AcDbCircle
 10
342.909084314173
 20
118.6980127493361
 30
0.0
 40
2.0
100
AcDbArc
 50
239.9999999999998
 51
251.8051300000002
  0
LINE
  5
8E1
330
2
100
AcDbEntity
  8
0
100
AcDbLine
 10
342.5071673141731
 20
133.7980187493361
 30
0.0
 11
342.2846023141731
 21
133.7980187493361
 31
0.0
  0
ARC
  5
8E2
330
2
100
AcDbEntity
  8
0
100
AcDbCircle
 10
342.909084314173
 20
131.8980247493361
 30
0.0
 40
2.0
100
AcDbArc
 50
108.1948699999997
 51
120.0000000000001
  0
LINE
  5
8E3
330
2
100
AcDbEntity
  8
0
100
AcDbLine
 10
341.757167314173
 20
133.5423427493361
 30
0.0
 11
341.909084314173
 21
133.6300807493361
 31
0.0
  0
ARC
  5
8E4
330
2
100
AcDbEntity
  8
0
100
AcDbCircle
 10
342.007167314173
 20
133.1093587493361
 30
0.0
 40
0.5
100
AcDbArc
 50
120.0000000000001
 51
180.0
  0
LINE
  5
8E5
330
2
100
AcDbEntity
  8
0
100
AcDbLine
 10
342.5071673141731
 20
144.1278217493361
 30
0.0
 11
349.0071673141731
 21
144.2980187493361
 31
0.0
  0
LINE
  5
8E6
330
2
100
AcDbEntity
  8
CENTER
100
AcDbLine
 10
342.0674703141731
 20
148.7980187493361
 30
0.0
 11
350.052180314173
 21
148.7980187493361
 31
0.0
  0
LINE
  5
8E7
330
2
100
AcDbEntity
  8
0
100
AcDbLine
 10
348.0071363141731
 20
144.9980307493361
 30
0.0
 11
349.0071673141731
 21
144.9980307493361
 31
0.0
  0
LINE
  5
8E8
330
2
100
AcDbEntity
  8
0
100
AcDbLine
 10
344.0071363141731
 20
145.2980187493361
 30
0.0
 11
348.0071363141731
 21
145.2979877493361
 31
0.0
  0
LINE
  5
8E9
330
2
100
AcDbEntity
  8
0
100
AcDbLine
 10
375.674251314173
 20
134.4718777493361
 30
0.0
 11
375.674251314173
 21
116.1241597493361
 31
0.0
  0
LINE
  5
8EA
330
2
100
AcDbEntity
  8
0
100
AcDbLine
 10
378.0071673141731
 20
112.1648707493361
 30
0.0
 11
378.0071673141731
 21
138.4311667493361
 31
0.0
  0
LINE
  5
8EB
330
2
100
AcDbEntity
  8
0
100
AcDbLine
 10
373.709163314173
 20
114.1244657493361
 30
0.0
 11
355.0071673141731
 21
113.7980187493361
 31
0.0
  0
LINE
  5
8EC
330
2
100
AcDbEntity
  8
0
100
AcDbLine
 10
376.0420793141731
 20
110.1651757493361
 30
0.0
 11
355.0071673141731
 21
109.7980187493361
 31
0.0
  0
ARC
  5
8ED
330
2
100
AcDbEntity
  8
0
100
AcDbCircle
 10
373.674251314173
 20
116.1241597493361
 30
0.0
 40
2.0
100
AcDbArc
 50
271.0000000000001
 51
0.0
  0
ARC
  5
8EE
330
2
100
AcDbEntity
  8
0
100
AcDbCircle
 10
376.0071673141731
 20
112.1648707493361
 30
0.0
 40
2.0
100
AcDbArc
 50
271.0000000000001
 51
0.0
  0
LINE
  5
8EF
330
2
100
AcDbEntity
  8
0
100
AcDbLine
 10
377.578303314173
 20
110.9273217493361
 30
0.0
 11
375.2453873141731
 21
114.8866117493361
 31
0.0
  0
LINE
  5
8F0
330
2
100
AcDbEntity
  8
0
100
AcDbLine
 10
373.709163314173
 20
136.4715717493361
 30
0.0
 11
355.0071673141731
 21
136.7980187493361
 31
0.0
  0
LINE
  5
8F1
330
2
100
AcDbEntity
  8
0
100
AcDbLine
 10
376.0420793141731
 20
140.4308617493362
 30
0.0
 11
355.0071673141731
 21
140.7980187493361
 31
0.0
  0
LINE
  5
8F2
330
2
100
AcDbEntity
  8
0
100
AcDbLine
 10
375.2453873141731
 20
135.7094257493361
 30
0.0
 11
377.578303314173
 21
139.6687157493361
 31
0.0
  0
ARC
  5
8F3
330
2
100
AcDbEntity
  8
0
100
AcDbCircle
 10
373.674251314173
 20
134.4718777493361
 30
0.0
 40
2.0
100
AcDbArc
 50
0.0
 51
88.99999999999986
  0
ARC
  5
8F4
330
2
100
AcDbEntity
  8
0
100
AcDbCircle
 10
376.0071673141731
 20
138.4311667493361
 30
0.0
 40
2.0
100
AcDbArc
 50
0.0
 51
88.99999999999986
  0
LINE
  5
8F6
330
2
100
AcDbEntity
  8
HIDS
100
AcDbLine
 10
342.5071673141731
 20
154.5480187493361
 30
0.0
 11
355.0071673141731
 21
154.5480187493361
 31
0.0
  0
LINE
  5
8F7
330
2
100
AcDbEntity
  8
HIDS
100
AcDbLine
 10
342.5071673141731
 20
163.0480187493361
 30
0.0
 11
355.0071673141731
 21
163.0480187493361
 31
0.0
  0
LINE
  5
8F8
330
2
100
AcDbEntity
  8
HIDS
100
AcDbLine
 10
344.471645314173
 20
150.4020837493361
 30
0.0
 11
357.9031023141731
 21
163.8335407493361
 31
0.0
  0
LINE
  5
8FA
330
2
100
AcDbEntity
  8
0
100
AcDbLine
 10
342.5071673141731
 20
153.4682157493362
 30
0.0
 11
349.0071673141731
 21
153.2980187493361
 31
0.0
  0
LINE
  5
8FC
330
2
100
AcDbEntity
  8
0
100
AcDbLine
 10
348.0071363141731
 20
152.5980067493361
 30
0.0
 11
349.0071673141731
 21
152.5980067493361
 31
0.0
  0
LINE
  5
8FD
330
2
100
AcDbEntity
  8
0
100
AcDbLine
 10
344.0071363141731
 20
152.2980187493361
 30
0.0
 11
348.0071363141731
 21
152.2980497493361
 31
0.0
  0
LINE
  5
8FF
330
2
100
AcDbEntity
  8
HIDS
100
AcDbLine
 10
355.0071673141731
 20
154.7980187493361
 30
0.0
 11
375.007167314173
 21
154.7980187493361
 31
0.0
  0
LINE
  5
900
330
2
100
AcDbEntity
  8
HIDS
100
AcDbLine
 10
355.0071673141731
 20
162.7980187493361
 30
0.0
 11
375.007167314173
 21
162.7980187493361
 31
0.0
  0
LINE
  5
901
330
2
100
AcDbEntity
  8
HIDS
100
AcDbLine
 10
360.0071673141731
 20
160.9311667493361
 30
0.0
 11
360.0071673141731
 21
156.9997397493361
 31
0.0
  0
ARC
  5
903
330
2
100
AcDbEntity
  8
HIDS
100
AcDbCircle
 10
357.0071673141731
 20
156.9997397493361
 30
0.0
 40
3.0
100
AcDbArc
 50
309.3567009999997
 51
0.0
  0
ARC
  5
906
330
2
100
AcDbEntity
  8
HIDS
100
AcDbCircle
 10
361.4386253141731
 20
160.2980187493361
 30
0.0
 40
5.0
100
AcDbArc
 50
90.0
 51
134.9999999999994
  0
ARC
  5
907
330
2
100
AcDbEntity
  8
HIDS
100
AcDbCircle
 10
362.0071673141731
 20
160.9311667493361
 30
0.0
 40
2.0
100
AcDbArc
 50
91.00000000000013
 51
180.0
  0
LINE
  5
908
330
2
100
AcDbEntity
  8
HIDS
100
AcDbLine
 10
375.007167314173
 20
162.7980187493361
 30
0.0
 11
375.007167314173
 21
154.7980187493361
 31
0.0
  0
LINE
  5
90C
330
2
100
AcDbEntity
  8
HIDS
100
AcDbLine
 10
423.0071673141731
 20
148.2980187493361
 30
0.0
 11
423.0071673141731
 21
103.7294767493361
 31
0.0
  0
LINE
  5
90D
330
2
100
AcDbEntity
  8
0
100
AcDbLine
 10
775.5626483141731
 20
160.2980187493361
 30
0.0
 11
775.5626483141731
 21
90.29801874933616
 31
0.0
  0
LINE
  5
90E
330
2
100
AcDbEntity
  8
0
100
AcDbLine
 10
726.5626483141731
 20
85.29801874933616
 30
0.0
 11
726.5626483141731
 21
165.2980187493361
 31
0.0
  0
LINE
  5
90F
330
2
100
AcDbEntity
  8
0
100
AcDbLine
 10
717.0626483141731
 20
163.2980187493361
 30
0.0
 11
717.0626483141731
 21
87.29801874933617
 31
0.0
  0
CIRCLE
  5
910
330
2
100
AcDbEntity
  8
0
100
AcDbCircle
 10
583.0071673141731
 20
125.2980187493361
 30
0.0
 40
25.002001
  0
CIRCLE
  5
911
330
2
100
AcDbEntity
  8
0
100
AcDbCircle
 10
583.0071673141731
 20
125.2980187493361
 30
0.0
 40
23.0
  0
CIRCLE
  5
912
330
2
100
AcDbEntity
  8
0
100
AcDbCircle
 10
583.0071673141731
 20
125.2980187493361
 30
0.0
 40
19.0
  0
ARC
  5
913
330
2
100
AcDbEntity
  8
0
100
AcDbCircle
 10
613.007167314173
 20
111.7980187493361
 30
0.0
 40
22.0
100
AcDbArc
 50
345.5224880000002
 51
0.0
  0
ARC
  5
914
330
2
100
AcDbEntity
  8
0
100
AcDbCircle
 10
575.007167314173
 20
111.7980187493361
 30
0.0
 40
22.0
100
AcDbArc
 50
180.0
 51
194.4775090000004
  0
ARC
  5
915
330
2
100
AcDbEntity
  8
0
100
AcDbCircle
 10
632.780910314173
 20
108.7980187493361
 30
0.0
 40
2.0
100
AcDbArc
 50
270.0
 51
351.373077
  0
LINE
  5
916
330
2
100
AcDbEntity
  8
0
100
AcDbLine
 10
630.171474314173
 20
106.6150357493361
 30
0.0
 11
631.0913343141731
 21
104.6150357493361
 31
0.0
  0
ARC
  5
917
330
2
100
AcDbEntity
  8
0
100
AcDbCircle
 10
631.0071673141731
 20
104.7980187493361
 30
0.0
 40
2.0
100
AcDbArc
 50
90.0
 51
139.3987120000005
  0
ARC
  5
918
330
2
100
AcDbEntity
  8
0
100
AcDbCircle
 10
555.2334243141731
 20
108.7980187493361
 30
0.0
 40
2.0
100
AcDbArc
 50
188.626923
 51
270.0
  0
LINE
  5
919
330
2
100
AcDbEntity
  8
0
100
AcDbLine
 10
557.842860314173
 20
106.6150357493361
 30
0.0
 11
556.9230003141731
 21
104.6150357493361
 31
0.0
  0
ARC
  5
91A
330
2
100
AcDbEntity
  8
0
100
AcDbCircle
 10
557.0071673141731
 20
104.7980187493361
 30
0.0
 40
2.0
100
AcDbArc
 50
40.60129499999965
 51
90.0
  0
LINE
  5
91B
330
2
100
AcDbEntity
  8
0
100
AcDbLine
 10
644.0071673141731
 20
108.9695887493362
 30
0.0
 11
644.0071673141731
 21
91.79801874933616
 31
0.0
  0
LINE
  5
91C
330
2
100
AcDbEntity
  8
0
100
AcDbLine
 10
544.0071673141731
 20
91.79801874933616
 30
0.0
 11
544.0071673141731
 21
158.7980187493361
 31
0.0
  0
ARC
  5
91E
330
2
100
AcDbEntity
  8
HIDS
100
AcDbCircle
 10
383.0071673141731
 20
125.2980187493361
 30
0.0
 40
38.0
100
AcDbArc
 50
309.3567009999997
 51
50.64329900000029
  0
LINE
  5
91F
330
2
100
AcDbEntity
  8
0
100
AcDbLine
 10
423.5071673141731
 20
165.0910787493361
 30
0.0
 11
423.5071673141731
 21
85.50494274933617
 31
0.0
  0
LINE
  5
920
330
2
100
AcDbEntity
  8
CENTER
100
AcDbLine
 10
383.0071673141731
 20
215.1855337493361
 30
0.0
 11
383.0071673141731
 21
79.22175574933618
 31
0.0
  0
ARC
  5
921
330
2
100
AcDbEntity
  8
0
100
AcDbCircle
 10
628.2018083141731
 20
82.23428274933619
 30
0.0
 40
6.0
100
AcDbArc
 50
47.3640670000003
 51
120.3582990000005
  0
ARC
  5
922
330
2
100
AcDbEntity
  8
0
100
AcDbCircle
 10
631.9270283141731
 20
102.7980187493361
 30
0.0
 40
2.0
100
AcDbArc
 50
90.0
 51
139.3987120000005
  0
LINE
  5
923
330
2
100
AcDbEntity
  8
0
100
AcDbLine
 10
637.0071673141731
 20
84.79801874933617
 30
0.0
 11
551.007167314173
 21
84.79801874933617
 31
0.0
  0
LINE
  5
926
330
2
100
AcDbEntity
  8
HOJO
100
AcDbLine
 10
391.0071673141731
 20
87.79801874933616
 30
0.0
 11
423.5071673141731
 21
87.79801874933616
 31
0.0
  0
LINE
  5
927
330
2
100
AcDbEntity
  8
HOJO
100
AcDbLine
 10
391.0071673141731
 20
95.79801874933616
 30
0.0
 11
423.5071673141731
 21
95.79801874933616
 31
0.0
  0
LINE
  5
928
330
2
100
AcDbEntity
  8
HIDS
100
AcDbLine
 10
421.542689314173
 20
100.1939537493361
 30
0.0
 11
408.1112323141731
 21
86.76248074933615
 31
0.0
  0
LINE
  5
929
330
2
100
AcDbEntity
  8
0
100
AcDbLine
 10
383.0071673141731
 20
84.79801874933617
 30
0.0
 11
423.5071673141731
 21
85.50494274933617
 31
0.0
  0
ARC
  5
92A
330
2
100
AcDbEntity
  8
HIDS
100
AcDbCircle
 10
404.575709314173
 20
90.29801874933616
 30
0.0
 40
5.0
100
AcDbArc
 50
270.0
 51
314.9999999999994
  0
LINE
  5
92C
330
2
100
AcDbEntity
  8
HIDS
100
AcDbLine
 10
404.0420793141731
 20
87.66519074933617
 30
0.0
 11
383.0071673141731
 21
87.29801874933617
 31
0.0
  0
LINE
  5
92D
330
2
100
AcDbEntity
  8
HOJO
100
AcDbLine
 10
391.0071673141731
 20
95.79801874933616
 30
0.0
 11
391.0071673141731
 21
87.79801874933616
 31
0.0
  0
ARC
  5
930
330
2
100
AcDbEntity
  8
HIDS
100
AcDbCircle
 10
409.007167314173
 20
93.59629774933614
 30
0.0
 40
3.0
100
AcDbArc
 50
129.356705
 51
180.0
  0
ARC
  5
931
330
2
100
AcDbEntity
  8
HIDS
100
AcDbCircle
 10
404.007167314173
 20
89.66488574933615
 30
0.0
 40
2.0
100
AcDbArc
 50
271.0000000000001
 51
0.0
  0
LINE
  5
932
330
2
100
AcDbEntity
  8
HIDS
100
AcDbLine
 10
406.0071673141731
 20
89.66488574933615
 30
0.0
 11
406.0071673141731
 21
93.59629774933614
 31
0.0
  0
ARC
  5
938
330
2
100
AcDbEntity
  8
HIDS
100
AcDbCircle
 10
418.007167314173
 20
103.7294767493361
 30
0.0
 40
5.0
100
AcDbArc
 50
314.9999999999994
 51
0.0
  0
ARC
  5
939
330
2
100
AcDbEntity
  8
0
100
AcDbCircle
 10
570.0071673141731
 20
92.43308974933615
 30
0.0
 40
2.0
100
AcDbArc
 50
180.0
 51
255.5224909999997
  0
ARC
  5
93A
330
2
100
AcDbEntity
  8
0
100
AcDbCircle
 10
575.007167314173
 20
111.7980187493361
 30
0.0
 40
22.0
100
AcDbArc
 50
249.5126880000004
 51
270.0
  0
ARC
  5
93B
330
2
100
AcDbEntity
  8
0
100
AcDbCircle
 10
570.4078023141731
 20
94.79801874933617
 30
0.0
 40
10.0
100
AcDbArc
 50
247.6683499999999
 51
270.0
  0
ARC
  5
93C
330
2
100
AcDbEntity
  8
0
100
AcDbCircle
 10
551.007167314173
 20
91.79801874933616
 30
0.0
 40
7.0
100
AcDbArc
 50
180.0
 51
312.6359249999997
  0
CIRCLE
  5
93E
330
2
100
AcDbEntity
  8
HOJO
100
AcDbCircle
 10
551.007167314173
 20
91.79801874933616
 30
0.0
 40
4.0
  0
CIRCLE
  5
93F
330
2
100
AcDbEntity
  8
0
100
AcDbCircle
 10
551.007167314173
 20
91.79801874933616
 30
0.0
 40
3.399999999999999
  0
ARC
  5
940
330
2
100
AcDbEntity
  8
0
100
AcDbCircle
 10
555.6422383141731
 20
106.7980187493361
 30
0.0
 40
2.0
100
AcDbArc
 50
194.4775090000004
 51
270.0
  0
LINE
  5
942
330
2
100
AcDbEntity
  8
0
100
AcDbLine
 10
558.5256613141731
 20
106.0995937493361
 30
0.0
 11
567.5256613141731
 21
95.59959374933617
 31
0.0
  0
LINE
  5
943
330
2
100
AcDbEntity
  8
0
100
AcDbLine
 10
557.6058003141731
 20
104.0995937493361
 30
0.0
 11
565.5256613141731
 21
94.85975574933616
 31
0.0
  0
ARC
  5
944
330
2
100
AcDbEntity
  8
0
100
AcDbCircle
 10
559.8125263141731
 20
82.23428274933619
 30
0.0
 40
6.0
100
AcDbArc
 50
59.64169699999986
 51
132.6359249999996
  0
ARC
  5
945
330
2
100
AcDbEntity
  8
0
100
AcDbCircle
 10
568.0071673141731
 20
93.06303374933618
 30
0.0
 40
2.0
100
AcDbArc
 50
180.0
 51
249.5126800000003
  0
LINE
  5
946
330
2
100
AcDbEntity
  8
0
100
AcDbLine
 10
567.882960314173
 20
94.99189674933615
 30
0.0
 11
565.882960314173
 21
94.25205974933618
 31
0.0
  0
ARC
  5
947
330
2
100
AcDbEntity
  8
0
100
AcDbCircle
 10
564.0071673141731
 20
93.55818074933621
 30
0.0
 40
2.0
100
AcDbArc
 50
0.0
 51
40.60129499999965
  0
ARC
  5
948
330
2
100
AcDbEntity
  8
0
100
AcDbCircle
 10
566.0071673141731
 20
94.29801874933616
 30
0.0
 40
2.0
100
AcDbArc
 50
0.0
 51
40.60129499999965
  0
LINE
  5
949
330
2
100
AcDbEntity
  8
0
100
AcDbLine
 10
568.0071673141731
 20
94.29801874933616
 30
0.0
 11
568.0071673141731
 21
92.43308974933615
 31
0.0
  0
LINE
  5
94A
330
2
100
AcDbEntity
  8
0
100
AcDbLine
 10
566.0071673141731
 20
93.55818074933621
 30
0.0
 11
566.0071673141731
 21
93.06303374933618
 31
0.0
  0
ARC
  5
94B
330
2
100
AcDbEntity
  8
0
100
AcDbCircle
 10
578.0071673141731
 20
113.2980187493361
 30
0.0
 40
30.0
100
AcDbArc
 50
239.6416929999994
 51
247.6683499999999
  0
LINE
  5
94C
330
2
100
AcDbEntity
  8
0
100
AcDbLine
 10
556.087306314173
 20
104.7980187493361
 30
0.0
 11
555.6422383141731
 21
104.7980187493361
 31
0.0
  0
ARC
  5
94D
330
2
100
AcDbEntity
  8
0
100
AcDbCircle
 10
556.087306314173
 20
102.7980187493361
 30
0.0
 40
2.0
100
AcDbArc
 50
40.60129499999965
 51
90.0
  0
LINE
  5
94E
330
2
100
AcDbEntity
  8
0
100
AcDbLine
 10
575.007167314173
 20
89.79801874933617
 30
0.0
 11
613.007167314173
 21
89.79801874933617
 31
0.0
  0
ARC
  5
94F
330
2
100
AcDbEntity
  8
0
100
AcDbCircle
 10
617.6065323141731
 20
94.79801874933617
 30
0.0
 40
10.0
100
AcDbArc
 50
270.0
 51
292.3316349999993
  0
ARC
  5
950
330
2
100
AcDbEntity
  8
0
100
AcDbCircle
 10
613.007167314173
 20
111.7980187493361
 30
0.0
 40
22.0
100
AcDbArc
 50
270.0
 51
290.4873049999995
  0
LINE
  5
951
330
2
100
AcDbEntity
  8
0
100
AcDbLine
 10
629.488673314173
 20
106.0995937493361
 30
0.0
 11
620.488673314173
 21
95.59959374933617
 31
0.0
  0
LINE
  5
952
330
2
100
AcDbEntity
  8
0
100
AcDbLine
 10
630.408534314173
 20
104.0995937493361
 30
0.0
 11
622.4886733141731
 21
94.85975574933616
 31
0.0
  0
ARC
  5
953
330
2
100
AcDbEntity
  8
0
100
AcDbCircle
 10
610.0071673141731
 20
113.2980187493361
 30
0.0
 40
30.0
100
AcDbArc
 50
292.3316349999993
 51
300.3583070000006
  0
ARC
  5
954
330
2
100
AcDbEntity
  8
0
100
AcDbCircle
 10
620.0071673141731
 20
93.06303374933618
 30
0.0
 40
2.0
100
AcDbArc
 50
290.4873119999995
 51
0.0
  0
ARC
  5
955
330
2
100
AcDbEntity
  8
0
100
AcDbCircle
 10
618.0071673141731
 20
92.43308974933615
 30
0.0
 40
2.0
100
AcDbArc
 50
284.4775090000002
 51
0.0
  0
LINE
  5
956
330
2
100
AcDbEntity
  8
0
100
AcDbLine
 10
620.1313743141732
 20
94.99189674933615
 30
0.0
 11
622.1313743141731
 21
94.25205974933618
 31
0.0
  0
ARC
  5
957
330
2
100
AcDbEntity
  8
0
100
AcDbCircle
 10
624.0071673141731
 20
93.55818074933621
 30
0.0
 40
2.0
100
AcDbArc
 50
139.3987120000005
 51
180.0
  0
ARC
  5
958
330
2
100
AcDbEntity
  8
0
100
AcDbCircle
 10
622.0071673141731
 20
94.29801874933616
 30
0.0
 40
2.0
100
AcDbArc
 50
139.3987120000005
 51
180.0
  0
LINE
  5
959
330
2
100
AcDbEntity
  8
0
100
AcDbLine
 10
620.0071673141731
 20
94.29801874933616
 30
0.0
 11
620.0071673141731
 21
92.43308974933615
 31
0.0
  0
LINE
  5
95A
330
2
100
AcDbEntity
  8
0
100
AcDbLine
 10
622.0071673141731
 20
93.55818074933621
 30
0.0
 11
622.0071673141731
 21
93.06303374933618
 31
0.0
  0
LINE
  5
95B
330
2
100
AcDbEntity
  8
0
100
AcDbLine
 10
772.812648314173
 20
99.29801874933616
 30
0.0
 11
726.5626483141731
 21
99.29801874933616
 31
0.0
  0
LINE
  5
95C
330
2
100
AcDbEntity
  8
0
100
AcDbLine
 10
770.562648314173
 20
85.29801874933616
 30
0.0
 11
726.5626483141731
 21
85.29801874933616
 31
0.0
  0
LINE
  5
95D
330
2
100
AcDbEntity
  8
0
100
AcDbLine
 10
717.0626483141731
 20
95.04905674933615
 30
0.0
 11
644.0071673141731
 21
95.04905674933615
 31
0.0
  0
LINE
  5
95E
330
2
100
AcDbEntity
  8
0
100
AcDbLine
 10
717.0626483141731
 20
87.29801874933617
 30
0.0
 11
645.3659323141732
 21
87.29801874933617
 31
0.0
  0
LINE
  5
95F
330
2
100
AcDbEntity
  8
0
100
AcDbLine
 10
644.6708023141731
 20
87.17332374933613
 30
0.0
 11
639.4401503141731
 21
85.23443574933617
 31
0.0
  0
ARC
  5
960
330
2
100
AcDbEntity
  8
0
100
AcDbCircle
 10
637.0071673141731
 20
91.79801874933616
 30
0.0
 40
7.0
100
AcDbArc
 50
227.3640750000003
 51
0.0
  0
CIRCLE
  5
962
330
2
100
AcDbEntity
  8
HOJO
100
AcDbCircle
 10
637.0071673141731
 20
91.79801874933616
 30
0.0
 40
4.0
  0
CIRCLE
  5
963
330
2
100
AcDbEntity
  8
0
100
AcDbCircle
 10
637.0071673141731
 20
91.79801874933616
 30
0.0
 40
3.399999999999999
  0
ARC
  5
964
330
2
100
AcDbEntity
  8
0
100
AcDbCircle
 10
645.3659323141732
 20
85.29801874933616
 30
0.0
 40
2.0
100
AcDbArc
 50
90.0
 51
110.3387299999997
  0
ARC
  5
965
330
2
100
AcDbEntity
  8
0
100
AcDbCircle
 10
632.372096314173
 20
106.7980187493361
 30
0.0
 40
2.0
100
AcDbArc
 50
270.0
 51
345.5224909999996
  0
LINE
  5
966
330
2
100
AcDbEntity
  8
0
100
AcDbLine
 10
631.9270283141731
 20
104.7980187493361
 30
0.0
 11
632.372096314173
 21
104.7980187493361
 31
0.0
  0
LINE
  5
967
330
2
100
AcDbEntity
  8
0
100
AcDbLine
 10
726.5626483141731
 20
95.04902574933613
 30
0.0
 11
717.0626483141731
 21
95.04902574933613
 31
0.0
  0
LINE
  5
968
330
2
100
AcDbEntity
  8
0
100
AcDbLine
 10
726.5626483141731
 20
87.29801874933617
 30
0.0
 11
717.0626483141731
 21
87.29801874933617
 31
0.0
  0
ARC
  5
969
330
2
100
AcDbEntity
  8
0
100
AcDbCircle
 10
770.562648314173
 20
90.29801874933616
 30
0.0
 40
5.0
100
AcDbArc
 50
270.0
 51
0.0
  0
LINE
  5
96A
330
2
100
AcDbEntity
  8
0
100
AcDbLine
 10
544.7140763141731
 20
372.1485378916403
 30
0.0
 11
643.3002583141731
 21
372.1485378916403
 31
0.0
  0
ARC
  5
96B
330
2
100
AcDbEntity
  8
0
100
AcDbCircle
 10
628.2018083141731
 20
168.3617697493361
 30
0.0
 40
6.0
100
AcDbArc
 50
239.6416929999994
 51
312.6359249999997
  0
ARC
  5
96C
330
2
100
AcDbEntity
  8
0
100
AcDbCircle
 10
628.3491473141731
 20
335.4445278916403
 30
0.0
 40
11.0
100
AcDbArc
 50
248.9246670000001
 51
295.7177279999996
  0
LINE
  5
96D
330
2
100
AcDbEntity
  8
0
100
AcDbLine
 10
619.3746603141731
 20
326.6485378916403
 30
0.0
 11
636.9198873141731
 21
326.6485378916403
 31
0.0
  0
ARC
  5
96E
330
2
100
AcDbEntity
  8
0
100
AcDbCircle
 10
628.3491473141731
 20
327.8525478916403
 30
0.0
 40
11.0
100
AcDbArc
 50
64.28227200000034
 51
111.0753329999998
  0
LINE
  5
96F
330
2
100
AcDbEntity
  8
0
100
AcDbLine
 10
619.3746603141731
 20
336.6485378916403
 30
0.0
 11
636.9198873141731
 21
336.6485378916403
 31
0.0
  0
LINE
  5
970
330
2
100
AcDbEntity
  8
0
100
AcDbLine
 10
645.0071673141731
 20
359.6485378916403
 30
0.0
 11
544.4959373141731
 21
359.6485378916403
 31
0.0
  0
LINE
  5
971
330
2
100
AcDbEntity
  8
0
100
AcDbLine
 10
643.3002583141731
 20
291.1485378916403
 30
0.0
 11
544.7140763141731
 21
291.1485378916403
 31
0.0
  0
LINE
  5
972
330
2
100
AcDbEntity
  8
CENTER
100
AcDbLine
 10
536.4663963141731
 20
331.6485378916403
 30
0.0
 11
784.0831782824069
 21
331.6485378916402
 31
0.0
  0
LINE
  5
973
330
2
100
AcDbEntity
  8
0
100
AcDbLine
 10
631.0071673141731
 20
106.7980187493361
 30
0.0
 11
632.780910314173
 21
106.7980187493361
 31
0.0
  0
LINE
  5
974
330
2
100
AcDbEntity
  8
0
100
AcDbLine
 10
631.0071673141731
 20
143.7980187493361
 30
0.0
 11
632.780910314173
 21
143.7980187493361
 31
0.0
  0
ARC
  5
975
330
2
100
AcDbEntity
  8
0
100
AcDbCircle
 10
631.9270283141731
 20
147.7980187493361
 30
0.0
 40
2.0
100
AcDbArc
 50
220.6012879999994
 51
270.0
  0
LINE
  5
976
330
2
100
AcDbEntity
  8
0
100
AcDbLine
 10
637.0071673141731
 20
165.7980187493361
 30
0.0
 11
551.007167314173
 21
165.7980187493361
 31
0.0
  0
LINE
  5
978
330
2
100
AcDbEntity
  8
CENTER
100
AcDbLine
 10
536.4663963141731
 20
125.2980187493361
 30
0.0
 11
784.0831782824069
 21
125.2980187493361
 31
0.0
  0
LINE
  5
979
330
2
100
AcDbEntity
  8
HIDS
100
AcDbLine
 10
555.007167314173
 20
291.1485378916403
 30
0.0
 11
555.007167314173
 21
323.6485378916403
 31
0.0
  0
LINE
  5
97A
330
2
100
AcDbEntity
  8
HIDS
100
AcDbLine
 10
547.007167314173
 20
291.1485378916403
 30
0.0
 11
547.007167314173
 21
323.6485378916403
 31
0.0
  0
LINE
  5
97B
330
2
100
AcDbEntity
  8
HIDS
100
AcDbLine
 10
554.4071913141731
 20
359.6485378916403
 30
0.0
 11
554.4071913141731
 21
291.1485378916403
 31
0.0
  0
LINE
  5
97C
330
2
100
AcDbEntity
  8
HIDS
100
AcDbLine
 10
547.607143314173
 20
359.6485378916403
 30
0.0
 11
547.607143314173
 21
291.1485378916403
 31
0.0
  0
LINE
  5
97D
330
2
100
AcDbEntity
  8
0
100
AcDbLine
 10
628.3491473141731
 20
324.4445278916403
 30
0.0
 11
628.3491473141731
 21
291.1485378916403
 31
0.0
  0
LINE
  5
97E
330
2
100
AcDbEntity
  8
0
100
AcDbLine
 10
619.3746603141731
 20
326.6485378916403
 30
0.0
 11
619.3746603141731
 21
291.1485378916403
 31
0.0
  0
LINE
  5
97F
330
2
100
AcDbEntity
  8
0
100
AcDbLine
 10
568.6396743141731
 20
326.6485378916403
 30
0.0
 11
568.6396743141731
 21
291.1485378916403
 31
0.0
  0
LINE
  5
980
330
2
100
AcDbEntity
  8
0
100
AcDbLine
 10
559.665187314173
 20
324.4445278916403
 30
0.0
 11
559.665187314173
 21
291.1485378916403
 31
0.0
  0
LINE
  5
981
330
2
100
AcDbEntity
  8
0
100
AcDbLine
 10
544.0071673141731
 20
331.6485378916403
 30
0.0
 11
544.7140763141731
 21
291.1485378916403
 31
0.0
  0
LINE
  5
982
330
2
100
AcDbEntity
  8
CENTER
100
AcDbLine
 10
551.007167314173
 20
287.7896208916403
 30
0.0
 11
551.007167314173
 21
375.4646388916403
 31
0.0
  0
LINE
  5
983
330
2
100
AcDbEntity
  8
CENTER
100
AcDbLine
 10
583.0071673141731
 20
404.5200898916402
 30
0.0
 11
583.0071673141731
 21
258.7769858916403
 31
0.0
  0
LINE
  5
984
330
2
100
AcDbEntity
  8
0
100
AcDbLine
 10
451.5071673141731
 20
122.7980187493361
 30
0.0
 11
430.007167314173
 21
122.7980187493361
 31
0.0
  0
LINE
  5
985
330
2
100
AcDbEntity
  8
0
100
AcDbLine
 10
451.5071673141731
 20
127.7980187493361
 30
0.0
 11
430.007167314173
 21
127.7980187493361
 31
0.0
  0
LINE
  5
986
330
2
100
AcDbEntity
  8
0
100
AcDbLine
 10
451.5071673141731
 20
117.7980187493361
 30
0.0
 11
424.5071673141731
 21
117.7980187493361
 31
0.0
  0
LINE
  5
987
330
2
100
AcDbEntity
  8
0
100
AcDbLine
 10
451.5071673141731
 20
132.7980187493361
 30
0.0
 11
424.5071673141731
 21
132.7980187493361
 31
0.0
  0
ARC
  5
988
330
2
100
AcDbEntity
  8
HIDS
100
AcDbCircle
 10
420.0071673141731
 20
148.2980187493361
 30
0.0
 40
3.0
100
AcDbArc
 50
0.0
 51
90.0
  0
LINE
  5
989
330
2
100
AcDbEntity
  8
0
100
AcDbLine
 10
392.3051713141731
 20
136.2533717493361
 30
0.0
 11
423.5071673141731
 21
136.7980187493361
 31
0.0
  0
LINE
  5
98A
330
2
100
AcDbEntity
  8
0
100
AcDbLine
 10
389.972255314173
 20
140.2126607493361
 30
0.0
 11
423.5071673141731
 21
140.7980187493361
 31
0.0
  0
LINE
  5
98B
330
2
100
AcDbEntity
  8
0
100
AcDbLine
 10
392.3051713141731
 20
114.3426657493361
 30
0.0
 11
423.5071673141731
 21
113.7980187493361
 31
0.0
  0
LINE
  5
98C
330
2
100
AcDbEntity
  8
0
100
AcDbLine
 10
389.972255314173
 20
110.3833767493361
 30
0.0
 11
423.5071673141731
 21
109.7980187493361
 31
0.0
  0
LINE
  5
98D
330
2
100
AcDbEntity
  8
0
100
AcDbLine
 10
390.3400833141731
 20
134.2536767493361
 30
0.0
 11
390.3400833141731
 21
116.3423607493361
 31
0.0
  0
LINE
  5
98E
330
2
100
AcDbEntity
  8
0
100
AcDbLine
 10
388.0071673141731
 20
138.2129667493361
 30
0.0
 11
388.0071673141731
 21
112.3830707493361
 31
0.0
  0
ARC
  5
98F
330
2
100
AcDbEntity
  8
0
100
AcDbCircle
 10
392.3400833141731
 20
116.3423607493361
 30
0.0
 40
2.0
100
AcDbArc
 50
180.0
 51
268.9999999999998
  0
LINE
  5
990
330
2
100
AcDbEntity
  8
0
100
AcDbLine
 10
390.7689473141731
 20
115.1048117493361
 30
0.0
 11
388.4360313141731
 21
111.1455227493361
 31
0.0
  0
ARC
  5
991
330
2
100
AcDbEntity
  8
0
100
AcDbCircle
 10
390.0071673141731
 20
112.3830707493361
 30
0.0
 40
2.0
100
AcDbArc
 50
180.0
 51
268.9999999999998
  0
ARC
  5
992
330
2
100
AcDbEntity
  8
0
100
AcDbCircle
 10
390.0071673141731
 20
138.2129667493361
 30
0.0
 40
2.0
100
AcDbArc
 50
91.00000000000013
 51
180.0
  0
LINE
  5
993
330
2
100
AcDbEntity
  8
0
100
AcDbLine
 10
390.7689473141731
 20
135.4912557493361
 30
0.0
 11
388.4360313141731
 21
139.4505147493361
 31
0.0
  0
ARC
  5
994
330
2
100
AcDbEntity
  8
0
100
AcDbCircle
 10
392.3400833141731
 20
134.2536767493361
 30
0.0
 40
2.0
100
AcDbArc
 50
91.00000000000013
 51
180.0
  0
LINE
  5
995
330
2
100
AcDbEntity
  8
0
100
AcDbLine
 10
424.5071673141731
 20
117.4866787493362
 30
0.0
 11
424.5071673141731
 21
133.1093587493361
 31
0.0
  0
ARC
  5
996
330
2
100
AcDbEntity
  8
0
100
AcDbCircle
 10
430.007167314173
 20
125.2980187493361
 30
0.0
 40
2.5
100
AcDbArc
 50
90.0
 51
270.0
  0
ARC
  5
997
330
2
100
AcDbEntity
  8
0
100
AcDbCircle
 10
424.0071673141731
 20
117.4866787493362
 30
0.0
 40
0.5
100
AcDbArc
 50
299.9999999999997
 51
0.0
  0
LINE
  5
998
330
2
100
AcDbEntity
  8
0
100
AcDbLine
 10
423.7297323141731
 20
116.7980187493361
 30
0.0
 11
423.5071673141731
 21
116.7980187493361
 31
0.0
  0
ARC
  5
999
330
2
100
AcDbEntity
  8
0
100
AcDbCircle
 10
423.105250314173
 20
118.6980127493361
 30
0.0
 40
2.0
100
AcDbArc
 50
288.1948699999997
 51
299.9999999999997
  0
LINE
  5
99A
330
2
100
AcDbEntity
  8
0
100
AcDbLine
 10
424.257167314173
 20
117.0536947493361
 30
0.0
 11
424.1052503141731
 21
116.9659567493361
 31
0.0
  0
LINE
  5
99B
330
2
100
AcDbEntity
  8
0
100
AcDbLine
 10
423.7297323141731
 20
133.7980187493361
 30
0.0
 11
423.5071673141731
 21
133.7980187493361
 31
0.0
  0
ARC
  5
99C
330
2
100
AcDbEntity
  8
0
100
AcDbCircle
 10
423.105250314173
 20
131.8980247493361
 30
0.0
 40
2.0
100
AcDbArc
 50
60.00000000000028
 51
71.8051300000003
  0
ARC
  5
99D
330
2
100
AcDbEntity
  8
0
100
AcDbCircle
 10
424.0071673141731
 20
133.1093587493361
 30
0.0
 40
0.5
100
AcDbArc
 50
0.0
 51
60.00000000000028
  0
LINE
  5
99E
330
2
100
AcDbEntity
  8
0
100
AcDbLine
 10
424.257167314173
 20
133.5423427493361
 30
0.0
 11
424.1052503141731
 21
133.6300807493361
 31
0.0
  0
LINE
  5
9A0
330
2
100
AcDbEntity
  8
HIDS
100
AcDbLine
 10
391.0071673141731
 20
154.7980187493361
 30
0.0
 11
423.5071673141731
 21
154.7980187493361
 31
0.0
  0
LINE
  5
9A1
330
2
100
AcDbEntity
  8
HIDS
100
AcDbLine
 10
391.0071673141731
 20
162.7980187493361
 30
0.0
 11
423.5071673141731
 21
162.7980187493361
 31
0.0
  0
LINE
  5
9A2
330
2
100
AcDbEntity
  8
HIDS
100
AcDbLine
 10
409.007167314173
 20
158.6949917493361
 30
0.0
 11
416.4041403141731
 21
151.2980187493361
 31
0.0
  0
LINE
  5
9A3
330
2
100
AcDbEntity
  8
0
100
AcDbLine
 10
383.0071673141731
 20
165.7980187493361
 30
0.0
 11
423.5071673141731
 21
165.0910787493361
 31
0.0
  0
LINE
  5
9A5
330
2
100
AcDbEntity
  8
HIDS
100
AcDbLine
 10
404.0420793141731
 20
162.9308617493362
 30
0.0
 11
383.0071673141731
 21
163.2980187493361
 31
0.0
  0
LINE
  5
9A6
330
2
100
AcDbEntity
  8
HIDS
100
AcDbLine
 10
391.0071673141731
 20
162.7980187493361
 30
0.0
 11
391.0071673141731
 21
154.7980187493361
 31
0.0
  0
LINE
  5
9A9
330
2
100
AcDbEntity
  8
HIDS
100
AcDbLine
 10
409.007167314173
 20
162.2980187493361
 30
0.0
 11
409.007167314173
 21
158.6949917493361
 31
0.0
  0
LINE
  5
9AA
330
2
100
AcDbEntity
  8
HIDS
100
AcDbLine
 10
406.0071673141731
 20
160.9311667493361
 30
0.0
 11
406.0071673141731
 21
156.9997397493361
 31
0.0
  0
ARC
  5
9AE
330
2
100
AcDbEntity
  8
HIDS
100
AcDbCircle
 10
409.007167314173
 20
156.9997397493361
 30
0.0
 40
3.0
100
AcDbArc
 50
180.0
 51
230.6432949999999
  0
ARC
  5
9AF
330
2
100
AcDbEntity
  8
HIDS
100
AcDbCircle
 10
404.007167314173
 20
160.9311667493361
 30
0.0
 40
2.0
100
AcDbArc
 50
0.0
 51
88.99999999999986
  0
ARC
  5
9B0
330
2
100
AcDbEntity
  8
HIDS
100
AcDbCircle
 10
406.0071673141731
 20
162.2980187493361
 30
0.0
 40
3.0
100
AcDbArc
 50
0.0
 51
90.0
  0
LINE
  5
9B3
330
2
100
AcDbEntity
  8
HIDS
100
AcDbLine
 10
420.0071673141731
 20
151.2980187493361
 30
0.0
 11
416.4041403141731
 21
151.2980187493361
 31
0.0
  0
LINE
  5
9B4
330
2
100
AcDbEntity
  8
0
100
AcDbLine
 10
451.5071673141731
 20
132.7980187493361
 30
0.0
 11
451.5071673141731
 21
117.7980187493361
 31
0.0
  0
CIRCLE
  5
9B5
330
2
100
AcDbEntity
  8
0
100
AcDbCircle
 10
583.0071673141731
 20
125.2980187493361
 30
0.0
 40
15.0
  0
ARC
  5
9B6
330
2
100
AcDbEntity
  8
0
100
AcDbCircle
 10
570.0071673141731
 20
158.1629477493361
 30
0.0
 40
2.0
100
AcDbArc
 50
104.4775090000001
 51
180.0
  0
ARC
  5
9B7
330
2
100
AcDbEntity
  8
0
100
AcDbCircle
 10
575.007167314173
 20
138.7980187493361
 30
0.0
 40
22.0
100
AcDbArc
 50
90.0
 51
110.4873119999995
  0
ARC
  5
9B8
330
2
100
AcDbEntity
  8
0
100
AcDbCircle
 10
570.4078023141731
 20
155.7980187493361
 30
0.0
 40
10.0
100
AcDbArc
 50
90.0
 51
112.3316420000001
  0
LINE
  5
9B9
330
2
100
AcDbEntity
  8
0
100
AcDbLine
 10
558.5256613141731
 20
144.4964437493361
 30
0.0
 11
567.5256613141731
 21
154.9964437493361
 31
0.0
  0
LINE
  5
9BA
330
2
100
AcDbEntity
  8
0
100
AcDbLine
 10
557.6058003141731
 20
146.4964437493361
 30
0.0
 11
565.5256613141731
 21
155.7362817493361
 31
0.0
  0
LINE
  5
9BB
330
2
100
AcDbEntity
  8
0
100
AcDbLine
 10
553.0071673141731
 20
138.7980187493361
 30
0.0
 11
553.0071673141731
 21
111.7980187493361
 31
0.0
  0
LINE
  5
9BC
330
2
100
AcDbEntity
  8
0
100
AcDbLine
 10
548.0071673141731
 20
114.6264487493361
 30
0.0
 11
548.0071673141731
 21
135.9695887493362
 31
0.0
  0
LINE
  5
9BD
330
2
100
AcDbEntity
  8
0
100
AcDbLine
 10
547.421352314173
 20
113.2122337493361
 30
0.0
 11
544.5929823141731
 21
110.3838037493361
 31
0.0
  0
ARC
  5
9BE
330
2
100
AcDbEntity
  8
0
100
AcDbCircle
 10
546.007167314173
 20
108.9695887493362
 30
0.0
 40
2.0
100
AcDbArc
 50
134.9999999999994
 51
180.0
  0
ARC
  5
9BF
330
2
100
AcDbEntity
  8
0
100
AcDbCircle
 10
546.007167314173
 20
114.6264487493361
 30
0.0
 40
2.0
100
AcDbArc
 50
314.9999999999994
 51
0.0
  0
LINE
  5
9C0
330
2
100
AcDbEntity
  8
0
100
AcDbLine
 10
557.0071673141731
 20
106.7980187493361
 30
0.0
 11
555.2334243141731
 21
106.7980187493361
 31
0.0
  0
ARC
  5
9C1
330
2
100
AcDbEntity
  8
0
100
AcDbCircle
 10
555.6422383141731
 20
143.7980187493361
 30
0.0
 40
2.0
100
AcDbArc
 50
90.0
 51
165.5224909999995
  0
ARC
  5
9C2
330
2
100
AcDbEntity
  8
0
100
AcDbCircle
 10
555.2334243141731
 20
141.7980187493361
 30
0.0
 40
2.0
100
AcDbArc
 50
90.0
 51
171.3730769999999
  0
LINE
  5
9C3
330
2
100
AcDbEntity
  8
0
100
AcDbLine
 10
547.421352314173
 20
137.3838037493361
 30
0.0
 11
544.5929823141731
 21
140.2122337493361
 31
0.0
  0
ARC
  5
9C4
330
2
100
AcDbEntity
  8
0
100
AcDbCircle
 10
546.007167314173
 20
135.9695887493362
 30
0.0
 40
2.0
100
AcDbArc
 50
0.0
 51
45.00000000000057
  0
ARC
  5
9C5
330
2
100
AcDbEntity
  8
0
100
AcDbCircle
 10
546.007167314173
 20
141.6264487493361
 30
0.0
 40
2.0
100
AcDbArc
 50
180.0
 51
225.0000000000006
  0
ARC
  5
9C6
330
2
100
AcDbEntity
  8
0
100
AcDbCircle
 10
575.007167314173
 20
138.7980187493361
 30
0.0
 40
22.0
100
AcDbArc
 50
165.5224909999995
 51
180.0
  0
LINE
  5
9C7
330
2
100
AcDbEntity
  8
0
100
AcDbLine
 10
556.087306314173
 20
145.7980187493361
 30
0.0
 11
555.6422383141731
 21
145.7980187493361
 31
0.0
  0
LINE
  5
9C8
330
2
100
AcDbEntity
  8
0
100
AcDbLine
 10
557.0071673141731
 20
143.7980187493361
 30
0.0
 11
555.2334243141731
 21
143.7980187493361
 31
0.0
  0
LINE
  5
9C9
330
2
100
AcDbEntity
  8
0
100
AcDbLine
 10
557.842860314173
 20
143.9810017493362
 30
0.0
 11
556.9230003141731
 21
145.9810017493362
 31
0.0
  0
ARC
  5
9CA
330
2
100
AcDbEntity
  8
0
100
AcDbCircle
 10
557.0071673141731
 20
145.7980187493361
 30
0.0
 40
2.0
100
AcDbArc
 50
270.0
 51
319.3987050000003
  0
ARC
  5
9CB
330
2
100
AcDbEntity
  8
0
100
AcDbCircle
 10
556.087306314173
 20
147.7980187493361
 30
0.0
 40
2.0
100
AcDbArc
 50
270.0
 51
319.3987050000003
  0
CIRCLE
  5
9CC
330
2
100
AcDbEntity
  8
HOJO
100
AcDbCircle
 10
551.007167314173
 20
158.7980187493361
 30
0.0
 40
4.0
  0
CIRCLE
  5
9CD
330
2
100
AcDbEntity
  8
0
100
AcDbCircle
 10
551.007167314173
 20
158.7980187493361
 30
0.0
 40
3.399999999999999
  0
ARC
  5
9CE
330
2
100
AcDbEntity
  8
0
100
AcDbCircle
 10
551.007167314173
 20
158.7980187493361
 30
0.0
 40
7.0
100
AcDbArc
 50
47.3640670000003
 51
180.0
  0
ARC
  5
9D1
330
2
100
AcDbEntity
  8
0
100
AcDbCircle
 10
568.0071673141731
 20
157.5330037493361
 30
0.0
 40
2.0
100
AcDbArc
 50
110.4873119999995
 51
180.0
  0
LINE
  5
9D2
330
2
100
AcDbEntity
  8
0
100
AcDbLine
 10
567.882960314173
 20
155.6041407493361
 30
0.0
 11
565.882960314173
 21
156.3439777493361
 31
0.0
  0
ARC
  5
9D3
330
2
100
AcDbEntity
  8
0
100
AcDbCircle
 10
564.0071673141731
 20
157.0378567493361
 30
0.0
 40
2.0
100
AcDbArc
 50
319.3987050000003
 51
0.0
  0
ARC
  5
9D4
330
2
100
AcDbEntity
  8
0
100
AcDbCircle
 10
566.0071673141731
 20
156.2980187493361
 30
0.0
 40
2.0
100
AcDbArc
 50
319.3987050000003
 51
0.0
  0
LINE
  5
9D5
330
2
100
AcDbEntity
  8
0
100
AcDbLine
 10
568.0071673141731
 20
156.2980187493361
 30
0.0
 11
568.0071673141731
 21
158.1629477493361
 31
0.0
  0
LINE
  5
9D6
330
2
100
AcDbEntity
  8
0
100
AcDbLine
 10
566.0071673141731
 20
157.0378567493361
 30
0.0
 11
566.0071673141731
 21
157.5330037493361
 31
0.0
  0
ARC
  5
9D7
330
2
100
AcDbEntity
  8
0
100
AcDbCircle
 10
559.8125263141731
 20
168.3617697493361
 30
0.0
 40
6.0
100
AcDbArc
 50
227.3640750000003
 51
300.3583070000006
  0
ARC
  5
9D8
330
2
100
AcDbEntity
  8
0
100
AcDbCircle
 10
578.0071673141731
 20
137.2980187493361
 30
0.0
 40
30.0
100
AcDbArc
 50
112.3316420000001
 51
120.3582990000005
  0
LINE
  5
9D9
330
2
100
AcDbEntity
  8
0
100
AcDbLine
 10
629.488673314173
 20
144.4964437493361
 30
0.0
 11
620.488673314173
 21
154.9964437493361
 31
0.0
  0
LINE
  5
9DA
330
2
100
AcDbEntity
  8
0
100
AcDbLine
 10
630.408534314173
 20
146.4964437493361
 30
0.0
 11
622.4886733141731
 21
155.7362817493361
 31
0.0
  0
ARC
  5
9DB
330
2
100
AcDbEntity
  8
0
100
AcDbCircle
 10
583.0071673141731
 20
125.2980187493361
 30
0.0
 40
7.5
100
AcDbArc
 50
199.4712219999995
 51
160.5287780000004
  0
LINE
  5
9DC
330
2
100
AcDbEntity
  8
0
100
AcDbLine
 10
578.5071673141731
 20
127.7980187493361
 30
0.0
 11
578.5071673141731
 21
122.7980187493361
 31
0.0
  0
LINE
  5
9DD
330
2
100
AcDbEntity
  8
0
100
AcDbLine
 10
573.5071673141731
 20
127.7980187493361
 30
0.0
 11
573.5071673141731
 21
122.7980187493361
 31
0.0
  0
ARC
  5
9DE
330
2
100
AcDbEntity
  8
0
100
AcDbCircle
 10
583.0071673141731
 20
125.2980187493361
 30
0.0
 40
8.5
100
AcDbArc
 50
197.1046299999993
 51
162.8953700000006
  0
LINE
  5
9DF
330
2
100
AcDbEntity
  8
0
100
AcDbLine
 10
578.5071673141731
 20
122.7980187493361
 30
0.0
 11
573.5071673141731
 21
122.7980187493361
 31
0.0
  0
LINE
  5
9E0
330
2
100
AcDbEntity
  8
0
100
AcDbLine
 10
578.5071673141731
 20
127.7980187493361
 30
0.0
 11
573.5071673141731
 21
127.7980187493361
 31
0.0
  0
LINE
  5
9E1
330
2
100
AcDbEntity
  8
0
100
AcDbLine
 10
630.171474314173
 20
143.9810017493362
 30
0.0
 11
631.0913343141731
 21
145.9810017493362
 31
0.0
  0
ARC
  5
9E2
330
2
100
AcDbEntity
  8
0
100
AcDbCircle
 10
631.0071673141731
 20
145.7980187493361
 30
0.0
 40
2.0
100
AcDbArc
 50
220.6012879999994
 51
270.0
  0
LINE
  5
9E3
330
2
100
AcDbEntity
  8
0
100
AcDbLine
 10
575.007167314173
 20
160.7980187493361
 30
0.0
 11
613.007167314173
 21
160.7980187493361
 31
0.0
  0
ARC
  5
9E4
330
2
100
AcDbEntity
  8
0
100
AcDbCircle
 10
613.007167314173
 20
138.7980187493361
 30
0.0
 40
22.0
100
AcDbArc
 50
69.51268800000041
 51
90.0
  0
ARC
  5
9E5
330
2
100
AcDbEntity
  8
0
100
AcDbCircle
 10
620.0071673141731
 20
157.5330037493361
 30
0.0
 40
2.0
100
AcDbArc
 50
0.0
 51
69.51268800000041
  0
ARC
  5
9E6
330
2
100
AcDbEntity
  8
0
100
AcDbCircle
 10
618.0071673141731
 20
158.1629477493361
 30
0.0
 40
2.0
100
AcDbArc
 50
0.0
 51
75.52249099999979
  0
LINE
  5
9E7
330
2
100
AcDbEntity
  8
0
100
AcDbLine
 10
620.1313743141732
 20
155.6041407493361
 30
0.0
 11
622.1313743141731
 21
156.3439777493361
 31
0.0
  0
ARC
  5
9E8
330
2
100
AcDbEntity
  8
0
100
AcDbCircle
 10
624.0071673141731
 20
157.0378567493361
 30
0.0
 40
2.0
100
AcDbArc
 50
180.0
 51
220.6012879999994
  0
ARC
  5
9E9
330
2
100
AcDbEntity
  8
0
100
AcDbCircle
 10
622.0071673141731
 20
156.2980187493361
 30
0.0
 40
2.0
100
AcDbArc
 50
180.0
 51
220.6012879999994
  0
LINE
  5
9EA
330
2
100
AcDbEntity
  8
0
100
AcDbLine
 10
620.0071673141731
 20
156.2980187493361
 30
0.0
 11
620.0071673141731
 21
158.1629477493361
 31
0.0
  0
LINE
  5
9EB
330
2
100
AcDbEntity
  8
0
100
AcDbLine
 10
622.0071673141731
 20
157.0378567493361
 30
0.0
 11
622.0071673141731
 21
157.5330037493361
 31
0.0
  0
ARC
  5
9EC
330
2
100
AcDbEntity
  8
0
100
AcDbCircle
 10
610.0071673141731
 20
137.2980187493361
 30
0.0
 40
30.0
100
AcDbArc
 50
59.64169699999986
 51
67.66835799999981
  0
ARC
  5
9ED
330
2
100
AcDbEntity
  8
0
100
AcDbCircle
 10
617.6065323141731
 20
155.7980187493361
 30
0.0
 40
10.0
100
AcDbArc
 50
67.66835799999981
 51
90.0
  0
LINE
  5
9EE
330
2
100
AcDbEntity
  8
0
100
AcDbLine
 10
575.9361223141731
 20
263.1485378916403
 30
0.0
 11
575.9361223141731
 21
284.6485378916403
 31
0.0
  0
LINE
  5
9EF
330
2
100
AcDbEntity
  8
0
100
AcDbLine
 10
573.5071673141731
 20
263.1485378916403
 30
0.0
 11
573.5071673141731
 21
287.1485378916403
 31
0.0
  0
LINE
  5
9F0
330
2
100
AcDbEntity
  8
0
100
AcDbLine
 10
590.5071673141731
 20
290.1485378916403
 30
0.0
 11
590.5071673141731
 21
263.1485378916403
 31
0.0
  0
LINE
  5
9F1
330
2
100
AcDbEntity
  8
0
100
AcDbLine
 10
573.5071673141731
 20
263.1485378916403
 30
0.0
 11
590.5071673141731
 21
263.1485378916403
 31
0.0
  0
LINE
  5
9F2
330
2
100
AcDbEntity
  8
0
100
AcDbLine
 10
575.195827314173
 20
290.1485378916403
 30
0.0
 11
590.8185073141732
 21
290.1485378916403
 31
0.0
  0
LINE
  5
9F3
330
2
100
AcDbEntity
  8
0
100
AcDbLine
 10
574.5071673141731
 20
290.9259728916402
 30
0.0
 11
574.5071673141731
 21
291.1485378916403
 31
0.0
  0
ARC
  5
9F4
330
2
100
AcDbEntity
  8
0
100
AcDbCircle
 10
576.4071913141731
 20
291.5504548916402
 30
0.0
 40
2.0
100
AcDbArc
 50
198.1948700000007
 51
210.0000000000001
  0
ARC
  5
9F5
330
2
100
AcDbEntity
  8
0
100
AcDbCircle
 10
575.195827314173
 20
290.6485378916403
 30
0.0
 40
0.5
100
AcDbArc
 50
210.0000000000001
 51
270.0
  0
LINE
  5
9F6
330
2
100
AcDbEntity
  8
0
100
AcDbLine
 10
574.7628433141731
 20
290.3985378916403
 30
0.0
 11
574.6751363141732
 21
290.5504548916402
 31
0.0
  0
ARC
  5
9F7
330
2
100
AcDbEntity
  8
0
100
AcDbCircle
 10
568.436122314173
 20
284.6485378916403
 30
0.0
 40
7.500003999999999
100
AcDbArc
 50
0.0
 51
19.47121200000053
  0
LINE
  5
9F8
330
2
100
AcDbEntity
  8
0
100
AcDbLine
 10
575.507167314173
 20
287.1485378916403
 30
0.0
 11
575.507167314173
 21
290.1485378916403
 31
0.0
  0
LINE
  5
9F9
330
2
100
AcDbEntity
  8
0
100
AcDbLine
 10
573.5071673141731
 20
287.1485378916403
 30
0.0
 11
575.507167314173
 21
287.1485378916403
 31
0.0
  0
LINE
  5
9FA
330
2
100
AcDbEntity
  8
0
100
AcDbLine
 10
591.507167314173
 20
290.9259728916402
 30
0.0
 11
591.507167314173
 21
291.1485378916403
 31
0.0
  0
ARC
  5
9FB
330
2
100
AcDbEntity
  8
0
100
AcDbCircle
 10
589.607143314173
 20
291.5504548916402
 30
0.0
 40
2.0
100
AcDbArc
 50
329.9999999999998
 51
341.8051279999994
  0
ARC
  5
9FC
330
2
100
AcDbEntity
  8
0
100
AcDbCircle
 10
590.8185073141732
 20
290.6485378916403
 30
0.0
 40
0.5
100
AcDbArc
 50
270.0
 51
329.9999999999998
  0
LINE
  5
9FD
330
2
100
AcDbEntity
  8
0
100
AcDbLine
 10
591.251491314173
 20
290.3985378916403
 30
0.0
 11
591.339198314173
 21
290.5504548916402
 31
0.0
  0
LINE
  5
9FE
330
2
100
AcDbEntity
  8
0
100
AcDbLine
 10
575.9361223141731
 20
400.1485378916403
 30
0.0
 11
575.9361223141731
 21
378.6485378916403
 31
0.0
  0
LINE
  5
9FF
330
2
100
AcDbEntity
  8
0
100
AcDbLine
 10
573.5071673141731
 20
400.1485378916403
 30
0.0
 11
573.5071673141731
 21
376.1485378916403
 31
0.0
  0
LINE
  5
A00
330
2
100
AcDbEntity
  8
0
100
AcDbLine
 10
590.5071673141731
 20
373.1485378916403
 30
0.0
 11
590.5071673141731
 21
400.1485378916403
 31
0.0
  0
LINE
  5
A01
330
2
100
AcDbEntity
  8
HIDS
100
AcDbLine
 10
547.007167314173
 20
359.6485378916403
 30
0.0
 11
547.007167314173
 21
339.6485378916403
 31
0.0
  0
LINE
  5
A02
330
2
100
AcDbEntity
  8
HIDS
100
AcDbLine
 10
555.007167314173
 20
359.6485378916403
 30
0.0
 11
555.007167314173
 21
339.6485378916403
 31
0.0
  0
LINE
  5
A03
330
2
100
AcDbEntity
  8
0
100
AcDbLine
 10
559.665187314173
 20
372.1485378916403
 30
0.0
 11
559.665187314173
 21
338.8525478916402
 31
0.0
  0
LINE
  5
A04
330
2
100
AcDbEntity
  8
0
100
AcDbLine
 10
568.6396743141731
 20
372.1485378916403
 30
0.0
 11
568.6396743141731
 21
336.6485378916403
 31
0.0
  0
LINE
  5
A05
330
2
100
AcDbEntity
  8
0
100
AcDbLine
 10
544.0071673141731
 20
331.6485378916403
 30
0.0
 11
544.7140763141731
 21
372.1485378916403
 31
0.0
  0
LINE
  5
A06
330
2
100
AcDbEntity
  8
HIDS
100
AcDbLine
 10
547.007167314173
 20
323.6485378916403
 30
0.0
 11
555.007167314173
 21
323.6485378916403
 31
0.0
  0
LINE
  5
A07
330
2
100
AcDbEntity
  8
HIDS
100
AcDbLine
 10
547.007167314173
 20
339.6485378916403
 30
0.0
 11
555.007167314173
 21
339.6485378916403
 31
0.0
  0
ARC
  5
A08
330
2
100
AcDbEntity
  8
0
100
AcDbCircle
 10
551.094447314173
 20
320.1485378916403
 30
0.0
 40
6.5
100
AcDbArc
 50
64.28227200000034
 51
90.0
  0
LINE
  5
A09
330
2
100
AcDbEntity
  8
0
100
AcDbLine
 10
568.6396743141731
 20
326.6485378916403
 30
0.0
 11
551.094447314173
 21
326.6485378916403
 31
0.0
  0
ARC
  5
A0A
330
2
100
AcDbEntity
  8
0
100
AcDbCircle
 10
551.094447314173
 20
343.1485378916403
 30
0.0
 40
6.5
100
AcDbArc
 50
270.0
 51
295.7177279999996
  0
LINE
  5
A0B
330
2
100
AcDbEntity
  8
0
100
AcDbLine
 10
568.6396743141731
 20
336.6485378916403
 30
0.0
 11
551.094447314173
 21
336.6485378916403
 31
0.0
  0
ARC
  5
A0C
330
2
100
AcDbEntity
  8
0
100
AcDbCircle
 10
559.665187314173
 20
335.4445278916403
 30
0.0
 40
11.0
100
AcDbArc
 50
244.2822720000002
 51
291.0753169999998
  0
LINE
  5
A0D
330
2
100
AcDbEntity
  8
0
100
AcDbLine
 10
554.891872314173
 20
325.5341578916403
 30
0.0
 11
553.9150653141731
 21
326.0046778916403
 31
0.0
  0
ARC
  5
A0E
330
2
100
AcDbEntity
  8
0
100
AcDbCircle
 10
568.6396743141731
 20
320.1485378916403
 30
0.0
 40
6.5
100
AcDbArc
 50
90.0
 51
111.0753329999998
  0
LINE
  5
A0F
330
2
100
AcDbEntity
  8
0
100
AcDbLine
 10
566.3022723141731
 20
326.2137538916403
 30
0.0
 11
563.6207533141731
 21
325.1803368916403
 31
0.0
  0
ARC
  5
A10
330
2
100
AcDbEntity
  8
0
100
AcDbCircle
 10
559.665187314173
 20
327.8525478916403
 30
0.0
 40
11.0
100
AcDbArc
 50
68.92466700000015
 51
115.7177279999996
  0
LINE
  5
A11
330
2
100
AcDbEntity
  8
0
100
AcDbLine
 10
554.891872314173
 20
337.7629178916403
 30
0.0
 11
553.9150653141731
 21
337.2923978916403
 31
0.0
  0
ARC
  5
A12
330
2
100
AcDbEntity
  8
0
100
AcDbCircle
 10
568.6396743141731
 20
343.1485378916403
 30
0.0
 40
6.5
100
AcDbArc
 50
248.9246670000001
 51
270.0
  0
LINE
  5
A13
330
2
100
AcDbEntity
  8
0
100
AcDbLine
 10
566.3022723141731
 20
337.0833218916402
 30
0.0
 11
563.6207533141731
 21
338.1167388916403
 31
0.0
  0
LINE
  5
A14
330
2
100
AcDbEntity
  8
HIDS
100
AcDbLine
 10
555.2571673141731
 20
359.6485378916403
 30
0.0
 11
555.2571673141731
 21
372.1485378916403
 31
0.0
  0
LINE
  5
A15
330
2
100
AcDbEntity
  8
HIDS
100
AcDbLine
 10
546.7571673141731
 20
359.6485378916403
 30
0.0
 11
546.7571673141731
 21
372.1485378916403
 31
0.0
  0
LINE
  5
A16
330
2
100
AcDbEntity
  8
0
100
AcDbLine
 10
628.3491473141731
 20
372.1485378916403
 30
0.0
 11
628.3491473141731
 21
338.8525478916402
 31
0.0
  0
LINE
  5
A17
330
2
100
AcDbEntity
  8
0
100
AcDbLine
 10
619.3746603141731
 20
372.1485378916403
 30
0.0
 11
619.3746603141731
 21
336.6485378916403
 31
0.0
  0
LINE
  5
A18
330
2
100
AcDbEntity
  8
0
100
AcDbLine
 10
621.712001314173
 20
326.2137538916403
 30
0.0
 11
624.393581314173
 21
325.1803368916403
 31
0.0
  0
ARC
  5
A19
330
2
100
AcDbEntity
  8
0
100
AcDbCircle
 10
619.3746603141731
 20
320.1485378916403
 30
0.0
 40
6.5
100
AcDbArc
 50
68.92466700000015
 51
90.0
  0
LINE
  5
A1A
330
2
100
AcDbEntity
  8
0
100
AcDbLine
 10
621.712001314173
 20
337.0833218916402
 30
0.0
 11
624.393581314173
 21
338.1167388916403
 31
0.0
  0
ARC
  5
A1B
330
2
100
AcDbEntity
  8
0
100
AcDbCircle
 10
619.3746603141731
 20
343.1485378916403
 30
0.0
 40
6.5
100
AcDbArc
 50
270.0
 51
291.0753169999998
  0
LINE
  5
A1C
330
2
100
AcDbEntity
  8
0
100
AcDbLine
 10
590.8185073141732
 20
373.1485378916403
 30
0.0
 11
575.195827314173
 21
373.1485378916403
 31
0.0
  0
ARC
  5
A1D
330
2
100
AcDbEntity
  8
0
100
AcDbCircle
 10
568.436122314173
 20
378.6485378916403
 30
0.0
 40
7.500003999999999
100
AcDbArc
 50
340.5287879999994
 51
0.0
  0
LINE
  5
A1E
330
2
100
AcDbEntity
  8
0
100
AcDbLine
 10
574.5071673141731
 20
372.1485378916403
 30
0.0
 11
574.5071673141731
 21
372.3711028916403
 31
0.0
  0
ARC
  5
A1F
330
2
100
AcDbEntity
  8
0
100
AcDbCircle
 10
575.195827314173
 20
372.6485378916403
 30
0.0
 40
0.5
100
AcDbArc
 50
90.0
 51
149.9999999999998
  0
LINE
  5
A20
330
2
100
AcDbEntity
  8
0
100
AcDbLine
 10
574.7628433141731
 20
372.8985378916403
 30
0.0
 11
574.6751363141732
 21
372.7466208916403
 31
0.0
  0
ARC
  5
A21
330
2
100
AcDbEntity
  8
0
100
AcDbCircle
 10
576.4071913141731
 20
371.7466208916403
 30
0.0
 40
2.0
100
AcDbArc
 50
149.9999999999998
 51
161.8051299999992
  0
LINE
  5
A22
330
2
100
AcDbEntity
  8
0
100
AcDbLine
 10
575.507167314173
 20
376.1485378916403
 30
0.0
 11
575.507167314173
 21
373.1485378916403
 31
0.0
  0
LINE
  5
A23
330
2
100
AcDbEntity
  8
0
100
AcDbLine
 10
573.5071673141731
 20
376.1485378916403
 30
0.0
 11
575.507167314173
 21
376.1485378916403
 31
0.0
  0
LINE
  5
A24
330
2
100
AcDbEntity
  8
0
100
AcDbLine
 10
591.507167314173
 20
372.1485378916403
 30
0.0
 11
591.507167314173
 21
372.3711028916403
 31
0.0
  0
ARC
  5
A25
330
2
100
AcDbEntity
  8
0
100
AcDbCircle
 10
589.607143314173
 20
371.7466208916403
 30
0.0
 40
2.0
100
AcDbArc
 50
18.19487200000065
 51
30.00000000000014
  0
LINE
  5
A26
330
2
100
AcDbEntity
  8
0
100
AcDbLine
 10
591.251491314173
 20
372.8985378916403
 30
0.0
 11
591.339198314173
 21
372.7466208916403
 31
0.0
  0
ARC
  5
A27
330
2
100
AcDbEntity
  8
0
100
AcDbCircle
 10
590.8185073141732
 20
372.6485378916403
 30
0.0
 40
0.5
100
AcDbArc
 50
30.00000000000014
 51
90.0
  0
LINE
  5
A28
330
2
100
AcDbEntity
  8
0
100
AcDbLine
 10
573.5071673141731
 20
400.1485378916403
 30
0.0
 11
590.5071673141731
 21
400.1485378916403
 31
0.0
  0
LINE
  5
A29
330
2
100
AcDbEntity
  8
HIDS
100
AcDbLine
 10
641.0071673141731
 20
291.1485378916403
 30
0.0
 11
641.0071673141731
 21
323.6485378916403
 31
0.0
  0
LINE
  5
A2A
330
2
100
AcDbEntity
  8
HIDS
100
AcDbLine
 10
633.0071673141731
 20
291.1485378916403
 30
0.0
 11
633.0071673141731
 21
323.6485378916403
 31
0.0
  0
LINE
  5
A2B
330
2
100
AcDbEntity
  8
HIDS
100
AcDbLine
 10
640.4071913141731
 20
359.6485378916403
 30
0.0
 11
640.4071913141731
 21
291.1485378916403
 31
0.0
  0
LINE
  5
A2C
330
2
100
AcDbEntity
  8
HIDS
100
AcDbLine
 10
633.607143314173
 20
359.6485378916403
 30
0.0
 11
633.607143314173
 21
291.1485378916403
 31
0.0
  0
LINE
  5
A2D
330
2
100
AcDbEntity
  8
0
100
AcDbLine
 10
775.5626483141731
 20
366.6485378916403
 30
0.0
 11
775.5626483141731
 21
296.6485378916403
 31
0.0
  0
LINE
  5
A2E
330
2
100
AcDbEntity
  8
0
100
AcDbLine
 10
726.5626483141731
 20
371.6485378916403
 30
0.0
 11
726.5626483141731
 21
291.6485378916403
 31
0.0
  0
LINE
  5
A2F
330
2
100
AcDbEntity
  8
0
100
AcDbLine
 10
717.0626483141731
 20
293.6485378916403
 30
0.0
 11
717.0626483141729
 21
306.6485378916402
 31
0.0
  0
LINE
  5
A30
330
2
100
AcDbEntity
  8
0
100
AcDbLine
 10
643.3002583141731
 20
291.1485378916403
 30
0.0
 11
643.6056783141731
 21
308.6485378916403
 31
0.0
  0
LINE
  5
A31
330
2
100
AcDbEntity
  8
CENTER
100
AcDbLine
 10
637.0071673141731
 20
287.7896208916403
 30
0.0
 11
637.0071673141731
 21
375.4646388916403
 31
0.0
  0
LINE
  5
A32
330
2
100
AcDbEntity
  8
0
100
AcDbLine
 10
770.562648314173
 20
291.6485378916403
 30
0.0
 11
726.5626483141731
 21
291.6485378916403
 31
0.0
  0
LINE
  5
A33
330
2
100
AcDbEntity
  8
0
100
AcDbLine
 10
772.812648314173
 20
149.2980187493361
 30
0.0
 11
726.5626483141731
 21
149.2980187493361
 31
0.0
  0
LINE
  5
A34
330
2
100
AcDbEntity
  8
0
100
AcDbLine
 10
770.562648314173
 20
165.2980187493361
 30
0.0
 11
726.5626483141731
 21
165.2980187493361
 31
0.0
  0
LINE
  5
A35
330
2
100
AcDbEntity
  8
0
100
AcDbLine
 10
717.0626483141731
 20
155.5469807493361
 30
0.0
 11
644.0071673141731
 21
155.5469807493361
 31
0.0
  0
LINE
  5
A36
330
2
100
AcDbEntity
  8
0
100
AcDbLine
 10
717.0626483141731
 20
163.2980187493361
 30
0.0
 11
645.3659323141732
 21
163.2980187493361
 31
0.0
  0
LINE
  5
A37
330
2
100
AcDbEntity
  8
0
100
AcDbLine
 10
644.0071673141731
 20
158.7980187493361
 30
0.0
 11
644.0071673141731
 21
141.6264487493361
 31
0.0
  0
LINE
  5
A38
330
2
100
AcDbEntity
  8
0
100
AcDbLine
 10
635.0071673141731
 20
138.7980187493361
 30
0.0
 11
635.0071673141731
 21
111.7980187493361
 31
0.0
  0
LINE
  5
A39
330
2
100
AcDbEntity
  8
0
100
AcDbLine
 10
640.0071673141731
 20
114.6264487493361
 30
0.0
 11
640.0071673141731
 21
135.9695887493362
 31
0.0
  0
ARC
  5
A3A
330
2
100
AcDbEntity
  8
0
100
AcDbCircle
 10
642.007167314173
 20
114.6264487493361
 30
0.0
 40
2.0
100
AcDbArc
 50
180.0
 51
225.0000000000006
  0
ARC
  5
A3B
330
2
100
AcDbEntity
  8
0
100
AcDbCircle
 10
642.007167314173
 20
108.9695887493362
 30
0.0
 40
2.0
100
AcDbArc
 50
0.0
 51
45.00000000000057
  0
LINE
  5
A3C
330
2
100
AcDbEntity
  8
0
100
AcDbLine
 10
640.5929823141731
 20
113.2122337493361
 30
0.0
 11
643.421352314173
 21
110.3838037493361
 31
0.0
  0
LINE
  5
A3D
330
2
100
AcDbEntity
  8
0
100
AcDbLine
 10
640.5929823141731
 20
137.3838037493361
 30
0.0
 11
643.421352314173
 21
140.2122337493361
 31
0.0
  0
ARC
  5
A3E
330
2
100
AcDbEntity
  8
0
100
AcDbCircle
 10
642.007167314173
 20
135.9695887493362
 30
0.0
 40
2.0
100
AcDbArc
 50
134.9999999999994
 51
180.0
  0
ARC
  5
A3F
330
2
100
AcDbEntity
  8
0
100
AcDbCircle
 10
613.007167314173
 20
138.7980187493361
 30
0.0
 40
22.0
100
AcDbArc
 50
0.0
 51
14.47751199999975
  0
ARC
  5
A40
330
2
100
AcDbEntity
  8
0
100
AcDbCircle
 10
632.372096314173
 20
143.7980187493361
 30
0.0
 40
2.0
100
AcDbArc
 50
14.47751199999975
 51
90.0
  0
ARC
  5
A41
330
2
100
AcDbEntity
  8
0
100
AcDbCircle
 10
632.780910314173
 20
141.7980187493361
 30
0.0
 40
2.0
100
AcDbArc
 50
8.626927000000565
 51
90.0
  0
LINE
  5
A42
330
2
100
AcDbEntity
  8
0
100
AcDbLine
 10
631.9270283141731
 20
145.7980187493361
 30
0.0
 11
632.372096314173
 21
145.7980187493361
 31
0.0
  0
ARC
  5
A43
330
2
100
AcDbEntity
  8
0
100
AcDbCircle
 10
642.007167314173
 20
141.6264487493361
 30
0.0
 40
2.0
100
AcDbArc
 50
314.9999999999994
 51
0.0
  0
CIRCLE
  5
A44
330
2
100
AcDbEntity
  8
HOJO
100
AcDbCircle
 10
637.0071673141731
 20
158.7980187493361
 30
0.0
 40
4.0
  0
CIRCLE
  5
A45
330
2
100
AcDbEntity
  8
0
100
AcDbCircle
 10
637.0071673141731
 20
158.7980187493361
 30
0.0
 40
3.399999999999999
  0
ARC
  5
A46
330
2
100
AcDbEntity
  8
0
100
AcDbCircle
 10
637.0071673141731
 20
158.7980187493361
 30
0.0
 40
7.0
100
AcDbArc
 50
0.0
 51
132.6359249999996
  0
LINE
  5
A48
330
2
100
AcDbEntity
  8
0
100
AcDbLine
 10
644.6708023141731
 20
163.4227137493361
 30
0.0
 11
639.4401503141731
 21
165.3615867493362
 31
0.0
  0
ARC
  5
A49
330
2
100
AcDbEntity
  8
0
100
AcDbCircle
 10
645.3659323141732
 20
165.2980187493361
 30
0.0
 40
2.0
100
AcDbArc
 50
249.6612700000003
 51
270.0
  0
LINE
  5
A4A
330
2
100
AcDbEntity
  8
0
100
AcDbLine
 10
726.5626483141731
 20
155.5470117493362
 30
0.0
 11
717.0626483141731
 21
155.5470117493362
 31
0.0
  0
LINE
  5
A4B
330
2
100
AcDbEntity
  8
0
100
AcDbLine
 10
726.5626483141731
 20
163.2980187493361
 30
0.0
 11
717.0626483141731
 21
163.2980187493361
 31
0.0
  0
LINE
  5
A57
330
2
100
AcDbEntity
  8
0
100
AcDbLine
 10
645.3092913141731
 20
293.6485378916403
 30
0.0
 11
717.0626483141731
 21
293.6485378916403
 31
0.0
  0
ARC
  5
A58
330
2
100
AcDbEntity
  8
0
100
AcDbCircle
 10
645.3092913141731
 20
291.6485378916403
 30
0.0
 40
2.0
100
AcDbArc
 50
90.0
 51
178.9999999999998
  0
LINE
  5
A59
330
2
100
AcDbEntity
  8
0
100
AcDbLine
 10
726.5626483141731
 20
293.6485378916403
 30
0.0
 11
717.0626483141731
 21
293.6485378916403
 31
0.0
  0
ARC
  5
A5A
330
2
100
AcDbEntity
  8
0
100
AcDbCircle
 10
770.562648314173
 20
160.2980187493361
 30
0.0
 40
5.0
100
AcDbArc
 50
0.0
 51
90.0
  0
ARC
  5
A5B
330
2
100
AcDbEntity
  8
0
100
AcDbCircle
 10
770.562648314173
 20
296.6485378916403
 30
0.0
 40
5.0
100
AcDbArc
 50
270.0
 51
0.0
  0
LINE
  5
A5C
330
2
100
AcDbEntity
  8
0
100
AcDbLine
 10
773.3126483141731
 20
307.6485378916403
 30
0.0
 11
726.5626483141731
 21
307.6485378916403
 31
0.0
  0
LINE
  5
A5D
330
2
100
AcDbEntity
  8
0
100
AcDbLine
 10
773.3126483141731
 20
355.6485378916403
 30
0.0
 11
726.5626483141731
 21
355.6485378916403
 31
0.0
  0
LINE
  5
A5E
330
2
100
AcDbEntity
  8
0
100
AcDbLine
 10
770.562648314173
 20
371.6485378916403
 30
0.0
 11
726.5626483141731
 21
371.6485378916403
 31
0.0
  0
LINE
  5
A5F
330
2
100
AcDbEntity
  8
0
100
AcDbLine
 10
676.0628393141732
 20
308.6485378916403
 30
0.0
 11
641.0040543141731
 21
308.6485378916403
 31
0.0
  0
LINE
  5
A60
330
2
100
AcDbEntity
  8
0
100
AcDbLine
 10
676.0628393141732
 20
354.6485378916403
 30
0.0
 11
641.0040543141731
 21
354.6485378916403
 31
0.0
  0
LINE
  5
A61
330
2
100
AcDbEntity
  8
0
100
AcDbLine
 10
646.4554703141731
 20
369.6485378916403
 30
0.0
 11
717.0626483141731
 21
369.6485378916403
 31
0.0
  0
LINE
  5
A62
330
2
100
AcDbEntity
  8
HIDS
100
AcDbLine
 10
633.0071673141731
 20
359.6485378916403
 30
0.0
 11
633.0071673141731
 21
339.6485378916403
 31
0.0
  0
LINE
  5
A63
330
2
100
AcDbEntity
  8
HIDS
100
AcDbLine
 10
641.0071673141731
 20
359.6485378916403
 30
0.0
 11
641.0071673141731
 21
339.6485378916403
 31
0.0
  0
LINE
  5
A64
330
2
100
AcDbEntity
  8
0
100
AcDbLine
 10
639.4401503141731
 20
331.6485378916403
 30
0.0
 11
639.0043593141731
 21
356.6136258916403
 31
0.0
  0
LINE
  5
A65
330
2
100
AcDbEntity
  8
0
100
AcDbLine
 10
645.0071673141731
 20
354.6485378916403
 30
0.0
 11
645.0071673141731
 21
308.6485378916403
 31
0.0
  0
LINE
  5
A66
330
2
100
AcDbEntity
  8
0
100
AcDbLine
 10
639.4401503141731
 20
331.6485378916403
 30
0.0
 11
639.0043593141731
 21
306.6834498916403
 31
0.0
  0
ARC
  5
A67
330
2
100
AcDbEntity
  8
0
100
AcDbCircle
 10
641.0040543141731
 20
306.6485378916403
 30
0.0
 40
2.0
100
AcDbArc
 50
90.0
 51
178.9999999999998
  0
LINE
  5
A68
330
2
100
AcDbEntity
  8
HIDS
100
AcDbLine
 10
633.0071673141731
 20
323.6485378916403
 30
0.0
 11
641.0071673141731
 21
323.6485378916403
 31
0.0
  0
LINE
  5
A69
330
2
100
AcDbEntity
  8
0
100
AcDbLine
 10
633.1224623141731
 20
325.5341578916403
 30
0.0
 11
634.099269314173
 21
326.0046778916403
 31
0.0
  0
ARC
  5
A6A
330
2
100
AcDbEntity
  8
0
100
AcDbCircle
 10
636.9198873141731
 20
320.1485378916403
 30
0.0
 40
6.5
100
AcDbArc
 50
90.0
 51
115.7177279999996
  0
LINE
  5
A6B
330
2
100
AcDbEntity
  8
HIDS
100
AcDbLine
 10
633.0071673141731
 20
339.6485378916403
 30
0.0
 11
641.0071673141731
 21
339.6485378916403
 31
0.0
  0
LINE
  5
A6C
330
2
100
AcDbEntity
  8
0
100
AcDbLine
 10
633.1224623141731
 20
337.7629178916403
 30
0.0
 11
634.099269314173
 21
337.2923978916403
 31
0.0
  0
ARC
  5
A6D
330
2
100
AcDbEntity
  8
0
100
AcDbCircle
 10
636.9198873141731
 20
343.1485378916403
 30
0.0
 40
6.5
100
AcDbArc
 50
244.2822720000002
 51
270.0
  0
LINE
  5
A6E
330
2
100
AcDbEntity
  8
HIDS
100
AcDbLine
 10
641.2571673141731
 20
359.6485378916403
 30
0.0
 11
641.2571673141731
 21
372.1485378916403
 31
0.0
  0
LINE
  5
A6F
330
2
100
AcDbEntity
  8
HIDS
100
AcDbLine
 10
632.7571673141731
 20
359.6485378916403
 30
0.0
 11
632.7571673141731
 21
372.1485378916403
 31
0.0
  0
LINE
  5
A70
330
2
100
AcDbEntity
  8
0
100
AcDbLine
 10
643.3002583141731
 20
372.1485378916403
 30
0.0
 11
643.6056783141731
 21
354.6485378916403
 31
0.0
  0
LINE
  5
A71
330
2
100
AcDbEntity
  8
0
100
AcDbLine
 10
645.0071673141731
 20
369.0278098916402
 30
0.0
 11
645.0071673141731
 21
359.6485378916403
 31
0.0
  0
ARC
  5
A72
330
2
100
AcDbEntity
  8
0
100
AcDbCircle
 10
641.0040543141731
 20
356.6485378916403
 30
0.0
 40
2.0
100
AcDbArc
 50
181.0000000000001
 51
270.0
  0
ARC
  5
A73
330
2
100
AcDbEntity
  8
0
100
AcDbCircle
 10
646.4554703141731
 20
367.6485378916403
 30
0.0
 40
2.0
100
AcDbArc
 50
90.0
 51
136.3987580000003
  0
LINE
  5
A74
330
2
100
AcDbEntity
  8
0
100
AcDbLine
 10
717.0626483141729
 20
356.6485378916402
 30
0.0
 11
717.0626483141731
 21
369.6485378916403
 31
0.0
  0
LINE
  5
A75
330
2
100
AcDbEntity
  8
0
100
AcDbLine
 10
726.5626483141731
 20
308.6485378916403
 30
0.0
 11
726.0627483141732
 21
308.6485378916403
 31
0.0
  0
LINE
  5
A82
330
2
100
AcDbEntity
  8
0
100
AcDbLine
 10
726.5626483141731
 20
369.6485378916403
 30
0.0
 11
717.0626483141731
 21
369.6485378916403
 31
0.0
  0
LINE
  5
A83
330
2
100
AcDbEntity
  8
0
100
AcDbLine
 10
726.5626483141731
 20
354.6485378916403
 30
0.0
 11
726.0627483141732
 21
354.6485378916403
 31
0.0
  0
ARC
  5
A84
330
2
100
AcDbEntity
  8
0
100
AcDbCircle
 10
770.562648314173
 20
366.6485688916403
 30
0.0
 40
5.0
100
AcDbArc
 50
0.0
 51
90.0
  0
SPLINE
  5
EAC
330
2
100
AcDbEntity
  8
HOJO
100
AcDbSpline
210
0.0
220
0.0
230
1.0
 70
     8
 71
     3
 72
    27
 73
    23
 74
    21
 42
0.0000000001
 43
0.0000000001
 44
0.0000000001
 40
0.0
 40
0.0
 40
0.0
 40
0.0
 40
3.539268772771754
 40
7.287513562995795
 40
11.09046033223702
 40
14.62599423816976
 40
18.69227008921793
 40
22.26802890950275
 40
26.82672101949673
 40
31.55579532198596
 40
36.28066624743832
 40
40.14414690074357
 40
45.4800328401602
 40
49.44095400921195
 40
54.14226030623293
 40
58.62868909724451
 40
62.78426171223562
 40
66.26314687902698
 40
70.60953379849483
 40
74.30511416613953
 40
78.24621988074818
 40
82.00437648752254
 40
82.00437648752254
 40
82.00437648752254
 40
82.00437648752254
 10
342.5071673141729
 20
99.91603155138342
 30
0.0
 10
343.6862336799222
 20
99.75033252980498
 30
0.0
 10
346.113984349262
 20
99.40915079293951
 30
0.0
 10
349.7698648351728
 20
100.5551060375741
 30
0.0
 10
353.456301929744
 20
99.29553069494376
 30
0.0
 10
357.2087722377395
 20
100.7455117204902
 30
0.0
 10
360.9151256794757
 20
99.18638247505679
 30
0.0
 10
364.9155434955487
 20
100.8129189625973
 30
0.0
 10
369.1964808942037
 20
99.16388237942852
 30
0.0
 10
373.8121748923389
 20
101.0317743701476
 30
0.0
 10
378.2337726088472
 20
99.22369004121017
 30
0.0
 10
382.7893432136781
 20
101.0576447004679
 30
0.0
 10
387.1934439925832
 20
99.24899759337174
 30
0.0
 10
391.7800646225293
 20
101.2880005037815
 30
0.0
 10
396.0947858771277
 20
98.86961088640536
 30
0.0
 10
400.4626132152329
 20
101.4602586480622
 30
0.0
 10
404.4242689796342
 20
98.9149903100963
 30
0.0
 10
408.2698454468135
 20
101.353190207747
 30
0.0
 10
412.0852475798675
 20
99.04485362956039
 30
0.0
 10
415.9903616669665
 20
101.1715442391158
 30
0.0
 10
419.722944838937
 20
99.32538291314376
 30
0.0
 10
422.2659016516367
 20
100.0101558407719
 30
0.0
 10
423.5071673141728
 20
100.3444065513834
 30
0.0
 11
342.5071673141729
 21
99.91603155138342
 31
0.0
 11
346.0383563141729
 21
99.67701755138342
 31
0.0
 11
349.7571673141728
 21
100.1458285513833
 31
0.0
 11
353.5383563141729
 21
99.73960955138341
 31
0.0
 11
357.0383563141729
 21
100.2396095513834
 31
0.0
 11
361.0697593141728
 21
99.70820655138346
 31
0.0
 11
364.6009783141728
 21
100.2708285513833
 31
0.0
 11
369.1321673141728
 21
99.77082855138338
 31
0.0
 11
373.8197593141728
 21
100.3958285513833
 31
0.0
 11
378.5071673141728
 21
99.80201755138342
 31
0.0
 11
382.3197593141728
 21
100.4270175513834
 31
0.0
 11
387.6321673141728
 21
99.92701755138341
 31
0.0
 11
391.5383563141729
 21
100.5832065513834
 31
0.0
 11
396.1633563141729
 21
99.73960955138341
 31
0.0
 11
400.5697593141729
 21
100.5832065513834
 31
0.0
 11
404.6321673141728
 21
99.70820655138346
 31
0.0
 11
408.0071673141729
 21
100.5520175513834
 31
0.0
 11
412.2883563141729
 21
99.80201755138342
 31
0.0
 11
415.9133563141729
 21
100.5208285513833
 31
0.0
 11
419.7883563141728
 21
99.80201755138342
 31
0.0
 11
423.5071673141728
 21
100.3444065513834
 31
0.0
  0
TEXT
  5
EC0
330
2
100
AcDbEntity
  8
TITLE
100
AcDbText
 10
34.86043573091956
 20
51.46045735080122
 30
0.0
 40
5.0
  1
F2FM-15T-10～120-T40WK
100
AcDbText
  0
TEXT
  5
EC1
330
2
100
AcDbEntity
  8
TITLE
100
AcDbText
 10
34.86043573091956
 20
24.46045735080122
 30
0.0
 40
5.0
  1
F2FM-15T-10～120-S40WK
100
AcDbText
  0
TEXT
  5
EC2
330
2
100
AcDbEntity
  8
TITLE
100
AcDbText
 10
34.86043573091956
 20
33.46045735080122
 30
0.0
 40
5.0
  1
F2FM-15T-10～120-S40K
100
AcDbText
  0
TEXT
  5
EC3
330
2
100
AcDbEntity
  8
TITLE
100
AcDbText
 10
34.86043573091956
 20
42.46045735080122
 30
0.0
 40
5.0
  1
F2FM-15T-10～60-T60K
100
AcDbText
  0
LINE
  5
EE4
330
2
100
AcDbEntity
  8
CENTER
100
AcDbLine
 10
262.9858053141731
 20
158.7980187493361
 30
0.0
 11
247.028529314173
 21
158.7980187493361
 31
0.0
  0
LINE
  5
EE5
330
2
100
AcDbEntity
  8
CENTER
100
AcDbLine
 10
251.9348253141731
 20
148.7980187493361
 30
0.0
 11
263.079509314173
 21
148.7980187493361
 31
0.0
  0
LINE
  5
EE6
330
2
100
AcDbEntity
  8
CENTER
100
AcDbLine
 10
251.9348253141731
 20
101.7980187493361
 30
0.0
 11
263.079509314173
 21
101.7980187493361
 31
0.0
  0
LINE
  5
EE7
330
2
100
AcDbEntity
  8
CENTER
100
AcDbLine
 10
262.9858053141731
 20
91.79801874933616
 30
0.0
 11
247.028529314173
 21
91.79801874933616
 31
0.0
  0
LINE
  5
EED
330
2
100
AcDbEntity
  8
CENTER
100
AcDbLine
 10
223.007167314173
 20
95.19114574933615
 30
0.0
 11
223.007167314173
 21
155.4048917493361
 31
0.0
  0
LINE
  5
EF7
330
2
100
AcDbEntity
  8
CENTER
100
AcDbLine
 10
169.0071673141731
 20
99.77665674933616
 30
0.0
 11
169.0071673141731
 21
83.81938074933618
 31
0.0
  0
LINE
  5
EFA
330
2
100
AcDbEntity
  8
CENTER
100
AcDbLine
 10
166.507167314173
 20
96.22567674933618
 30
0.0
 11
166.507167314173
 21
107.3703607493361
 31
0.0
  0
LINE
  5
F01
330
2
100
AcDbEntity
  8
CENTER
100
AcDbLine
 10
176.9858053141731
 20
91.79801874933616
 30
0.0
 11
161.028529314173
 21
91.79801874933616
 31
0.0
  0
LINE
  5
F12
330
2
100
AcDbEntity
  8
CENTER
100
AcDbLine
 10
160.9348253141731
 20
101.7980187493361
 30
0.0
 11
172.079509314173
 21
101.7980187493361
 31
0.0
  0
LINE
  5
F28
330
2
100
AcDbEntity
  8
CENTER
100
AcDbLine
 10
255.0071673141731
 20
99.77665674933616
 30
0.0
 11
255.0071673141731
 21
83.81938074933618
 31
0.0
  0
LINE
  5
F29
330
2
100
AcDbEntity
  8
CENTER
100
AcDbLine
 10
257.5071673141731
 20
96.22567674933618
 30
0.0
 11
257.5071673141731
 21
107.3703607493361
 31
0.0
  0
LINE
  5
F58
330
2
100
AcDbEntity
  8
CENTER
100
AcDbLine
 10
169.0071673141731
 20
166.7766567493361
 30
0.0
 11
169.0071673141731
 21
150.8193807493361
 31
0.0
  0
LINE
  5
F5C
330
2
100
AcDbEntity
  8
CENTER
100
AcDbLine
 10
176.9858053141731
 20
158.7980187493361
 30
0.0
 11
161.028529314173
 21
158.7980187493361
 31
0.0
  0
LINE
  5
F5D
330
2
100
AcDbEntity
  8
CENTER
100
AcDbLine
 10
160.9348253141731
 20
148.7980187493361
 30
0.0
 11
172.079509314173
 21
148.7980187493361
 31
0.0
  0
LINE
  5
F5F
330
2
100
AcDbEntity
  8
CENTER
100
AcDbLine
 10
166.507167314173
 20
143.2256767493361
 30
0.0
 11
166.507167314173
 21
154.3703607493361
 31
0.0
  0
LINE
  5
F89
330
2
100
AcDbEntity
  8
CENTER
100
AcDbLine
 10
255.0071673141731
 20
166.7766567493361
 30
0.0
 11
255.0071673141731
 21
150.8193807493361
 31
0.0
  0
LINE
  5
F8F
330
2
100
AcDbEntity
  8
CENTER
100
AcDbLine
 10
257.5071673141731
 20
143.2256767493361
 30
0.0
 11
257.5071673141731
 21
154.3703607493361
 31
0.0
  0
LINE
  5
103A
330
2
100
AcDbEntity
  8
CENTER
100
AcDbLine
 10
583.0071673141731
 20
95.09150624933624
 30
0.0
 11
583.0071673141731
 21
155.504531249336
 31
0.0
  0
LINE
  5
1046
330
2
100
AcDbEntity
  8
CENTER
100
AcDbLine
 10
551.007167314173
 20
99.77665674933621
 30
0.0
 11
551.007167314173
 21
83.81938074933612
 31
0.0
  0
LINE
  5
104A
330
2
100
AcDbEntity
  8
CENTER
100
AcDbLine
 10
558.9858053141731
 20
91.79801874933616
 30
0.0
 11
543.028529314173
 21
91.79801874933616
 31
0.0
  0
LINE
  5
1067
330
2
100
AcDbEntity
  8
CENTER
100
AcDbLine
 10
637.0071673141731
 20
99.77665674933621
 30
0.0
 11
637.0071673141731
 21
83.81938074933612
 31
0.0
  0
LINE
  5
106C
330
2
100
AcDbEntity
  8
CENTER
100
AcDbLine
 10
644.9858053141731
 20
91.79801874933616
 30
0.0
 11
629.028529314173
 21
91.79801874933616
 31
0.0
  0
LINE
  5
108C
330
2
100
AcDbEntity
  8
CENTER
100
AcDbLine
 10
551.007167314173
 20
166.7766567493362
 30
0.0
 11
551.007167314173
 21
150.8193807493361
 31
0.0
  0
LINE
  5
1090
330
2
100
AcDbEntity
  8
CENTER
100
AcDbLine
 10
558.9858053141731
 20
158.7980187493361
 30
0.0
 11
543.028529314173
 21
158.7980187493361
 31
0.0
  0
LINE
  5
10AA
330
2
100
AcDbEntity
  8
CENTER
100
AcDbLine
 10
637.0071673141731
 20
166.7766567493362
 30
0.0
 11
637.0071673141731
 21
150.8193807493361
 31
0.0
  0
LINE
  5
10B4
330
2
100
AcDbEntity
  8
CENTER
100
AcDbLine
 10
644.9858053141731
 20
158.7980187493361
 30
0.0
 11
629.028529314173
 21
158.7980187493361
 31
0.0
  0
LINE
  5
1DB2
330
2
100
AcDbEntity
  8
0
100
AcDbLine
 10
362.8450761301999
 20
209.7980337493361
 30
0.0
 11
403.1692584981463
 21
209.7980337493361
 31
0.0
  0
LINE
  5
1DB4
330
2
100
AcDbEntity
  8
0
100
AcDbLine
 10
358.0071673141731
 20
176.7980187493361
 30
0.0
 11
408.0071523141731
 21
176.7980187493361
 31
0.0
  0
LINE
  5
1DB5
330
2
100
AcDbEntity
  8
0
100
AcDbLine
 10
358.0071673141731
 20
166.7980187493361
 30
0.0
 11
408.0071523141731
 21
166.7980187493361
 31
0.0
  0
LINE
  5
1DB6
330
2
100
AcDbEntity
  8
0
100
AcDbLine
 10
358.0071673141731
 20
177.7980187493361
 30
0.0
 11
408.0071523141731
 21
177.7980187493361
 31
0.0
  0
LINE
  5
1DB7
330
2
100
AcDbEntity
  8
0
100
AcDbLine
 10
365.5071673141731
 20
208.7980337493361
 30
0.0
 11
400.507167314173
 21
208.7980337493361
 31
0.0
  0
LINE
  5
1DB8
330
2
100
AcDbEntity
  8
CENTER
100
AcDbLine
 10
352.9635603329645
 20
192.7980187493361
 30
0.0
 11
413.0507742953816
 21
192.7980187493361
 31
0.0
  0
LINE
  5
1DE9
330
2
100
AcDbEntity
  8
0
100
AcDbLine
 10
84.78957913019971
 20
209.7980337493361
 30
0.0
 11
125.1137614981467
 21
209.7980337493361
 31
0.0
  0
LINE
  5
1DEA
330
2
100
AcDbEntity
  8
0
100
AcDbLine
 10
81.45166331417312
 20
164.7980187493361
 30
0.0
 11
127.9516703141731
 21
164.7980187493361
 31
0.0
  0
LINE
  5
1DEB
330
2
100
AcDbEntity
  8
0
100
AcDbLine
 10
79.95166331417312
 20
176.7980187493361
 30
0.0
 11
129.9516703141731
 21
176.7980187493361
 31
0.0
  0
LINE
  5
1DEC
330
2
100
AcDbEntity
  8
0
100
AcDbLine
 10
79.95166331417312
 20
166.7980187493361
 30
0.0
 11
129.9516703141731
 21
166.7980187493361
 31
0.0
  0
LINE
  5
1DED
330
2
100
AcDbEntity
  8
0
100
AcDbLine
 10
79.95166331417312
 20
177.7980187493361
 30
0.0
 11
129.9516703141731
 21
177.7980187493361
 31
0.0
  0
LINE
  5
1DEE
330
2
100
AcDbEntity
  8
0
100
AcDbLine
 10
87.45167031417313
 20
208.7980337493362
 30
0.0
 11
122.451670314173
 21
208.7980337493362
 31
0.0
  0
LINE
  5
1DEF
330
2
100
AcDbEntity
  8
CENTER
100
AcDbLine
 10
74.90806333296461
 20
192.7980187493361
 30
0.0
 11
134.9952772953816
 21
192.7980187493361
 31
0.0
  0
LINE
  5
1DF1
330
2
100
AcDbEntity
  8
CENTER
100
AcDbLine
 10
104.9516703141731
 20
158.4085227493362
 30
0.0
 11
104.9516703141731
 21
215.1855337493361
 31
0.0
  0
LINE
  5
1DF2
330
2
100
AcDbEntity
  8
0
100
AcDbLine
 10
79.95166331417312
 20
208.7980337493362
 30
0.0
 11
79.95166331417312
 21
166.7980187493361
 31
0.0
  0
LINE
  5
1DF3
330
2
100
AcDbEntity
  8
0
100
AcDbLine
 10
81.45166331417312
 20
164.7980187493361
 30
0.0
 11
81.45166331417312
 21
163.2980187493361
 31
0.0
  0
LINE
  5
1DF4
330
2
100
AcDbEntity
  8
0
100
AcDbLine
 10
79.95166331417312
 20
166.7980187493361
 30
0.0
 11
81.95166331417311
 21
164.7980187493361
 31
0.0
  0
LINE
  5
1DF6
330
2
100
AcDbEntity
  8
0
100
AcDbLine
 10
79.07666331417312
 20
182.2980187493361
 30
0.0
 11
81.07666331417311
 21
182.2980187493361
 31
0.0
  0
LINE
  5
1DF7
330
2
100
AcDbEntity
  8
0
100
AcDbLine
 10
83.16417031371798
 20
208.3810337493362
 30
0.0
 11
83.73917031462809
 21
208.3810337493362
 31
0.0
  0
LINE
  5
1DF8
330
2
100
AcDbEntity
  8
0
100
AcDbLine
 10
87.45167031417315
 20
207.2980337493361
 30
0.0
 11
79.95167031417313
 21
207.2980337493362
 31
0.0
  0
ARC
  5
1DF9
330
2
100
AcDbEntity
  8
0
100
AcDbCircle
 10
83.45167031417304
 20
200.8980337493362
 30
0.0
 40
9.0
100
AcDbArc
 50
74.11914999171883
 51
105.8808500082811
  0
LINE
  5
1DFA
330
2
100
AcDbEntity
  8
0
100
AcDbLine
 10
80.95167031417313
 20
209.7980337493361
 30
0.0
 11
79.95167031417313
 21
208.7980337493362
 31
0.0
  0
SPLINE
  5
1DFB
330
2
100
AcDbEntity
  8
0
100
AcDbSpline
210
0.0
220
0.0
230
1.0
 70
     8
 71
     3
 72
    11
 73
     7
 74
     0
 42
0.0000000001
 43
0.0000000001
 40
0.0
 40
0.0
 40
0.0
 40
0.0
 40
0.4601364636755307
 40
1.04988694485363
 40
1.713742833862792
 40
2.320347933405154
 40
2.320347933405154
 40
2.320347933405154
 40
2.320347933405179
 10
83.16417031371798
 20
208.3810337493362
 30
0.0
 10
83.14175265661015
 20
208.5360571890161
 30
0.0
 10
83.09060260137687
 20
208.8897720069336
 30
0.0
 10
82.65471743984329
 20
209.3144996785353
 30
0.0
 10
82.04966672483584
 20
209.5336868585011
 30
0.0
 10
81.62448210066003
 20
209.4646955588905
 30
0.0
 10
81.42193049100894
 20
209.4504752867138
 30
0.0
  0
LINE
  5
1DFC
330
2
100
AcDbEntity
  8
0
100
AcDbLine
 10
81.42193049100894
 20
209.4504752867138
 30
0.0
 11
81.40167031417304
 21
209.6614520321754
 31
0.0
  0
ARC
  5
1DFD
330
2
100
AcDbEntity
  8
0
100
AcDbCircle
 10
81.34465956058022
 20
208.3041464735825
 30
0.0
 40
1.3
100
AcDbArc
 50
105.8808500082811
 51
175.0000000000001
  0
LINE
  5
1DFE
330
2
100
AcDbEntity
  8
0
100
AcDbLine
 10
79.95167031417316
 20
207.2980337493362
 30
0.0
 11
80.04960645306097
 21
208.4174489391545
 31
0.0
  0
LINE
  5
1DFF
330
2
100
AcDbEntity
  8
0
100
AcDbLine
 10
82.11376149814659
 20
209.7980337493361
 30
0.0
 11
80.95167031417313
 21
209.7980337493361
 31
0.0
  0
LINE
  5
1E00
330
2
100
AcDbEntity
  8
0
100
AcDbLine
 10
79.07666331417312
 20
203.2980187493361
 30
0.0
 11
81.07666331417311
 21
203.2980187493361
 31
0.0
  0
LINE
  5
1E01
330
2
100
AcDbEntity
  8
0
100
AcDbLine
 10
87.95167031417312
 20
209.7980337493361
 30
0.0
 11
87.45167031417313
 21
209.2980337493361
 31
0.0
  0
LINE
  5
1E02
330
2
100
AcDbEntity
  8
0
100
AcDbLine
 10
87.45167031417315
 20
207.2980337493361
 30
0.0
 11
87.45167031417315
 21
209.2980337493362
 31
0.0
  0
ARC
  5
1E03
330
2
100
AcDbEntity
  8
0
100
AcDbCircle
 10
85.55868106776609
 20
208.3041464735825
 30
0.0
 40
1.3
100
AcDbArc
 50
4.999999999999778
 51
74.11914999171883
  0
LINE
  5
1E04
330
2
100
AcDbEntity
  8
0
100
AcDbLine
 10
85.48141013733715
 20
209.4504752867138
 30
0.0
 11
85.50167031417306
 21
209.6614520321754
 31
0.0
  0
LINE
  5
1E05
330
2
100
AcDbEntity
  8
0
100
AcDbLine
 10
86.95167031417303
 20
207.2980337493362
 30
0.0
 11
86.85373417528523
 21
208.4174489391545
 31
0.0
  0
LINE
  5
1E06
330
2
100
AcDbEntity
  8
0
100
AcDbLine
 10
87.45167031417313
 20
209.2980337493361
 30
0.0
 11
86.39664770379349
 21
209.2980337493361
 31
0.0
  0
SPLINE
  5
1E07
330
2
100
AcDbEntity
  8
0
100
AcDbSpline
210
0.0
220
0.0
230
1.0
 70
     8
 71
     3
 72
    11
 73
     7
 74
     0
 42
0.0000000001
 43
0.0000000001
 40
0.0
 40
0.0
 40
0.0
 40
0.0
 40
0.4601364636755307
 40
1.04988694485363
 40
1.713742833862792
 40
2.320347933405154
 40
2.320347933405154
 40
2.320347933405154
 40
2.320347933405179
 10
83.73917031462809
 20
208.3810337493362
 30
0.0
 10
83.76158797173593
 20
208.5360571890161
 30
0.0
 10
83.81273802696922
 20
208.8897720069336
 30
0.0
 10
84.24862318850278
 20
209.3144996785353
 30
0.0
 10
84.85367390351024
 20
209.5336868585011
 30
0.0
 10
85.27885852768605
 20
209.4646955588905
 30
0.0
 10
85.48141013733715
 20
209.4504752867138
 30
0.0
  0
LINE
  5
1E08
330
2
100
AcDbEntity
  8
0
100
AcDbLine
 10
129.9516703141731
 20
208.7980337493362
 30
0.0
 11
129.9516703141731
 21
166.7980187493361
 31
0.0
  0
LINE
  5
1E09
330
2
100
AcDbEntity
  8
0
100
AcDbLine
 10
127.4516703141731
 20
164.7980187493361
 30
0.0
 11
127.4516703141731
 21
163.2980187493361
 31
0.0
  0
LINE
  5
1E0A
330
2
100
AcDbEntity
  8
0
100
AcDbLine
 10
127.9516703141731
 20
164.7980187493361
 30
0.0
 11
129.9516703141731
 21
166.7980187493361
 31
0.0
  0
ARC
  5
1E0B
330
2
100
AcDbEntity
  8
0
100
AcDbCircle
 10
126.4516703141732
 20
200.8980337493362
 30
0.0
 40
9.0
100
AcDbArc
 50
74.11914999171883
 51
105.8808500082811
  0
SPLINE
  5
1E0C
330
2
100
AcDbEntity
  8
0
100
AcDbSpline
210
0.0
220
0.0
230
1.0
 70
     8
 71
     3
 72
    11
 73
     7
 74
     0
 42
0.0000000001
 43
0.0000000001
 40
0.0
 40
0.0
 40
0.0
 40
0.0
 40
0.4601364636755307
 40
1.04988694485363
 40
1.713742833862792
 40
2.320347933405154
 40
2.320347933405154
 40
2.320347933405154
 40
2.320347933405179
 10
126.1641703137181
 20
208.3810337493362
 30
0.0
 10
126.1417526566103
 20
208.5360571890161
 30
0.0
 10
126.090602601377
 20
208.8897720069336
 30
0.0
 10
125.6547174398434
 20
209.3144996785353
 30
0.0
 10
125.049666724836
 20
209.5336868585011
 30
0.0
 10
124.6244821006601
 20
209.4646955588905
 30
0.0
 10
124.4219304910091
 20
209.4504752867138
 30
0.0
  0
LINE
  5
1E0D
330
2
100
AcDbEntity
  8
0
100
AcDbLine
 10
122.451670314173
 20
207.2980337493361
 30
0.0
 11
129.9516703141731
 21
207.2980337493362
 31
0.0
  0
LINE
  5
1E0E
330
2
100
AcDbEntity
  8
0
100
AcDbLine
 10
122.9516703141732
 20
207.2980337493362
 30
0.0
 11
123.049606453061
 21
208.4174489391545
 31
0.0
  0
LINE
  5
1E0F
330
2
100
AcDbEntity
  8
0
100
AcDbLine
 10
124.4219304910091
 20
209.4504752867138
 30
0.0
 11
124.4016703141731
 21
209.6614520321754
 31
0.0
  0
ARC
  5
1E10
330
2
100
AcDbEntity
  8
0
100
AcDbCircle
 10
124.3446595605801
 20
208.3041464735825
 30
0.0
 40
1.3
100
AcDbArc
 50
105.8808500082811
 51
175.0000000000001
  0
LINE
  5
1E11
330
2
100
AcDbEntity
  8
0
100
AcDbLine
 10
122.4516703141731
 20
209.2980337493361
 30
0.0
 11
123.5066929245527
 21
209.2980337493361
 31
0.0
  0
LINE
  5
1E12
330
2
100
AcDbEntity
  8
0
100
AcDbLine
 10
121.9516703141731
 20
209.7980337493361
 30
0.0
 11
122.4516703141731
 21
209.2980337493361
 31
0.0
  0
LINE
  5
1E13
330
2
100
AcDbEntity
  8
0
100
AcDbLine
 10
122.451670314173
 20
207.2980337493361
 30
0.0
 11
122.451670314173
 21
209.2980337493362
 31
0.0
  0
LINE
  5
1E14
330
2
100
AcDbEntity
  8
0
100
AcDbLine
 10
127.7895791301996
 20
209.7980337493361
 30
0.0
 11
128.9516703141731
 21
209.7980337493361
 31
0.0
  0
LINE
  5
1E15
330
2
100
AcDbEntity
  8
0
100
AcDbLine
 10
129.951670314173
 20
207.2980337493362
 30
0.0
 11
129.8537341752852
 21
208.4174489391545
 31
0.0
  0
ARC
  5
1E16
330
2
100
AcDbEntity
  8
0
100
AcDbCircle
 10
128.558681067766
 20
208.3041464735825
 30
0.0
 40
1.3
100
AcDbArc
 50
4.999999999999778
 51
74.11914999171883
  0
LINE
  5
1E17
330
2
100
AcDbEntity
  8
0
100
AcDbLine
 10
128.4814101373373
 20
209.4504752867138
 30
0.0
 11
128.5016703141732
 21
209.6614520321754
 31
0.0
  0
LINE
  5
1E18
330
2
100
AcDbEntity
  8
0
100
AcDbLine
 10
126.7391703146282
 20
208.3810337493362
 30
0.0
 11
126.1641703137181
 21
208.3810337493362
 31
0.0
  0
SPLINE
  5
1E19
330
2
100
AcDbEntity
  8
0
100
AcDbSpline
210
0.0
220
0.0
230
1.0
 70
     8
 71
     3
 72
    11
 73
     7
 74
     0
 42
0.0000000001
 43
0.0000000001
 40
0.0
 40
0.0
 40
0.0
 40
0.0
 40
0.4601364636755307
 40
1.04988694485363
 40
1.713742833862792
 40
2.320347933405154
 40
2.320347933405154
 40
2.320347933405154
 40
2.320347933405179
 10
126.7391703146282
 20
208.3810337493362
 30
0.0
 10
126.7615879717361
 20
208.5360571890161
 30
0.0
 10
126.8127380269693
 20
208.8897720069336
 30
0.0
 10
127.2486231885029
 20
209.3144996785353
 30
0.0
 10
127.8536739035104
 20
209.5336868585011
 30
0.0
 10
128.2788585276862
 20
209.4646955588905
 30
0.0
 10
128.4814101373373
 20
209.4504752867138
 30
0.0
  0
LINE
  5
1E1A
330
2
100
AcDbEntity
  8
0
100
AcDbLine
 10
128.9516703141731
 20
209.7980337493361
 30
0.0
 11
129.9516703141731
 21
208.7980337493362
 31
0.0
  0
LINE
  5
1E1B
330
2
100
AcDbEntity
  8
0
100
AcDbLine
 10
358.0071673141731
 20
208.7980337493361
 30
0.0
 11
358.0071673141731
 21
166.7980187493361
 31
0.0
  0
LINE
  5
1E1D
330
2
100
AcDbEntity
  8
0
100
AcDbLine
 10
358.0071673141731
 20
166.7980187493361
 30
0.0
 11
359.4189076666476
 21
165.3862783968615
 31
0.0
  0
ARC
  5
1E1E
330
2
100
AcDbEntity
  8
0
100
AcDbCircle
 10
361.5071673141729
 20
200.8980337493362
 30
0.0
 40
9.0
100
AcDbArc
 50
74.11914999171883
 51
105.8808500082811
  0
SPLINE
  5
1E1F
330
2
100
AcDbEntity
  8
0
100
AcDbSpline
210
0.0
220
0.0
230
1.0
 70
     8
 71
     3
 72
    11
 73
     7
 74
     0
 42
0.0000000001
 43
0.0000000001
 40
0.0
 40
0.0
 40
0.0
 40
0.0
 40
0.4601364636755307
 40
1.04988694485363
 40
1.713742833862792
 40
2.320347933405154
 40
2.320347933405154
 40
2.320347933405154
 40
2.320347933405179
 10
361.219667313718
 20
208.3810337493362
 30
0.0
 10
361.19724965661
 20
208.5360571890161
 30
0.0
 10
361.1460996013768
 20
208.8897720069336
 30
0.0
 10
360.7102144398433
 20
209.3144996785353
 30
0.0
 10
360.1051637248358
 20
209.5336868585011
 30
0.0
 10
359.67997910066
 20
209.4646955588905
 30
0.0
 10
359.4774274910089
 20
209.4504752867138
 30
0.0
  0
LINE
  5
1E20
330
2
100
AcDbEntity
  8
0
100
AcDbLine
 10
365.5071673141731
 20
207.2980337493361
 30
0.0
 11
358.0071673141731
 21
207.2980337493362
 31
0.0
  0
LINE
  5
1E21
330
2
100
AcDbEntity
  8
0
100
AcDbLine
 10
360.1692584981465
 20
209.7980337493362
 30
0.0
 11
359.0071673141731
 21
209.7980337493362
 31
0.0
  0
LINE
  5
1E22
330
2
100
AcDbEntity
  8
0
100
AcDbLine
 10
358.0071673141731
 20
207.2980337493362
 30
0.0
 11
358.1051034530609
 21
208.4174489391545
 31
0.0
  0
ARC
  5
1E23
330
2
100
AcDbEntity
  8
0
100
AcDbCircle
 10
359.4001565605801
 20
208.3041464735826
 30
0.0
 40
1.3
100
AcDbArc
 50
105.8808500082811
 51
175.0000000000001
  0
LINE
  5
1E24
330
2
100
AcDbEntity
  8
0
100
AcDbLine
 10
359.4774274910089
 20
209.4504752867138
 30
0.0
 11
359.457167314173
 21
209.6614520321754
 31
0.0
  0
LINE
  5
1E25
330
2
100
AcDbEntity
  8
0
100
AcDbLine
 10
359.0071673141731
 20
209.7980337493362
 30
0.0
 11
358.0071673141731
 21
208.7980337493362
 31
0.0
  0
LINE
  5
1E26
330
2
100
AcDbEntity
  8
0
100
AcDbLine
 10
366.0071673141731
 20
209.7980337493362
 30
0.0
 11
365.5071673141731
 21
209.2980337493361
 31
0.0
  0
LINE
  5
1E27
330
2
100
AcDbEntity
  8
0
100
AcDbLine
 10
365.0071673141729
 20
207.2980337493362
 30
0.0
 11
364.9092311752851
 21
208.4174489391545
 31
0.0
  0
LINE
  5
1E28
330
2
100
AcDbEntity
  8
0
100
AcDbLine
 10
365.5071673141731
 20
207.2980337493361
 30
0.0
 11
365.5071673141731
 21
209.2980337493362
 31
0.0
  0
SPLINE
  5
1E29
330
2
100
AcDbEntity
  8
0
100
AcDbSpline
210
0.0
220
0.0
230
1.0
 70
     8
 71
     3
 72
    11
 73
     7
 74
     0
 42
0.0000000001
 43
0.0000000001
 40
0.0
 40
0.0
 40
0.0
 40
0.0
 40
0.4601364636755307
 40
1.04988694485363
 40
1.713742833862792
 40
2.320347933405154
 40
2.320347933405154
 40
2.320347933405154
 40
2.320347933405179
 10
361.7946673146281
 20
208.3810337493362
 30
0.0
 10
361.8170849717358
 20
208.5360571890161
 30
0.0
 10
361.8682350269691
 20
208.8897720069336
 30
0.0
 10
362.3041201885027
 20
209.3144996785353
 30
0.0
 10
362.9091709035102
 20
209.5336868585011
 30
0.0
 10
363.334355527686
 20
209.4646955588905
 30
0.0
 10
363.5369071373371
 20
209.4504752867138
 30
0.0
  0
LINE
  5
1E2A
330
2
100
AcDbEntity
  8
0
100
AcDbLine
 10
363.5369071373371
 20
209.4504752867138
 30
0.0
 11
363.557167314173
 21
209.6614520321754
 31
0.0
  0
LINE
  5
1E2B
330
2
100
AcDbEntity
  8
0
100
AcDbLine
 10
361.219667313718
 20
208.3810337493362
 30
0.0
 11
361.7946673146281
 21
208.3810337493362
 31
0.0
  0
LINE
  5
1E2C
330
2
100
AcDbEntity
  8
0
100
AcDbLine
 10
365.5071673141731
 20
209.2980337493361
 30
0.0
 11
364.4521447037934
 21
209.2980337493361
 31
0.0
  0
ARC
  5
1E2D
330
2
100
AcDbEntity
  8
0
100
AcDbCircle
 10
363.614178067766
 20
208.3041464735826
 30
0.0
 40
1.3
100
AcDbArc
 50
4.999999999999778
 51
74.11914999171883
  0
LINE
  5
1E33
330
2
100
AcDbEntity
  8
0
100
AcDbLine
 10
408.0071523141731
 20
208.7980337493361
 30
0.0
 11
408.0071523141731
 21
166.7980187493361
 31
0.0
  0
LINE
  5
1E36
330
2
100
AcDbEntity
  8
0
100
AcDbLine
 10
406.5954122190363
 20
165.3862786541993
 30
0.0
 11
408.0071523141731
 21
166.7980187493361
 31
0.0
  0
LINE
  5
1E37
330
2
100
AcDbEntity
  8
0
100
AcDbLine
 10
400.507167314173
 20
207.2980337493361
 30
0.0
 11
408.0071673141731
 21
207.2980337493362
 31
0.0
  0
SPLINE
  5
1E38
330
2
100
AcDbEntity
  8
0
100
AcDbSpline
210
0.0
220
0.0
230
1.0
 70
     8
 71
     3
 72
    11
 73
     7
 74
     0
 42
0.0000000001
 43
0.0000000001
 40
0.0
 40
0.0
 40
0.0
 40
0.0
 40
0.4601364636755307
 40
1.04988694485363
 40
1.713742833862792
 40
2.320347933405154
 40
2.320347933405154
 40
2.320347933405154
 40
2.320347933405179
 10
404.2196673137181
 20
208.3810337493362
 30
0.0
 10
404.1972496566103
 20
208.5360571890161
 30
0.0
 10
404.146099601377
 20
208.8897720069336
 30
0.0
 10
403.7102144398434
 20
209.3144996785353
 30
0.0
 10
403.1051637248359
 20
209.5336868585011
 30
0.0
 10
402.6799791006601
 20
209.4646955588905
 30
0.0
 10
402.477427491009
 20
209.4504752867138
 30
0.0
  0
ARC
  5
1E39
330
2
100
AcDbEntity
  8
0
100
AcDbCircle
 10
404.5071673141732
 20
200.8980337493362
 30
0.0
 40
9.0
100
AcDbArc
 50
74.11914999171883
 51
105.8808500082811
  0
LINE
  5
1E3A
330
2
100
AcDbEntity
  8
0
100
AcDbLine
 10
400.007167314173
 20
209.7980337493362
 30
0.0
 11
400.507167314173
 21
209.2980337493361
 31
0.0
  0
LINE
  5
1E3B
330
2
100
AcDbEntity
  8
0
100
AcDbLine
 10
400.507167314173
 20
207.2980337493361
 30
0.0
 11
400.507167314173
 21
209.2980337493362
 31
0.0
  0
ARC
  5
1E3C
330
2
100
AcDbEntity
  8
0
100
AcDbCircle
 10
402.4001565605801
 20
208.3041464735826
 30
0.0
 40
1.3
100
AcDbArc
 50
105.8808500082811
 51
175.0000000000001
  0
LINE
  5
1E3D
330
2
100
AcDbEntity
  8
0
100
AcDbLine
 10
402.477427491009
 20
209.4504752867138
 30
0.0
 11
402.4571673141731
 21
209.6614520321754
 31
0.0
  0
LINE
  5
1E3E
330
2
100
AcDbEntity
  8
0
100
AcDbLine
 10
401.0071673141732
 20
207.2980337493362
 30
0.0
 11
401.105103453061
 21
208.4174489391545
 31
0.0
  0
LINE
  5
1E3F
330
2
100
AcDbEntity
  8
0
100
AcDbLine
 10
400.507167314173
 20
209.2980337493361
 30
0.0
 11
401.5621899245527
 21
209.2980337493361
 31
0.0
  0
LINE
  5
1E40
330
2
100
AcDbEntity
  8
0
100
AcDbLine
 10
407.0071673141731
 20
209.7980337493362
 30
0.0
 11
408.0071673141731
 21
208.7980337493362
 31
0.0
  0
SPLINE
  5
1E41
330
2
100
AcDbEntity
  8
0
100
AcDbSpline
210
0.0
220
0.0
230
1.0
 70
     8
 71
     3
 72
    11
 73
     7
 74
     0
 42
0.0000000001
 43
0.0000000001
 40
0.0
 40
0.0
 40
0.0
 40
0.0
 40
0.4601364636755307
 40
1.04988694485363
 40
1.713742833862792
 40
2.320347933405154
 40
2.320347933405154
 40
2.320347933405154
 40
2.320347933405179
 10
404.7946673146282
 20
208.3810337493362
 30
0.0
 10
404.8170849717361
 20
208.5360571890161
 30
0.0
 10
404.8682350269693
 20
208.8897720069336
 30
0.0
 10
405.3041201885029
 20
209.3144996785353
 30
0.0
 10
405.9091709035103
 20
209.5336868585011
 30
0.0
 10
406.3343555276861
 20
209.4646955588905
 30
0.0
 10
406.5369071373372
 20
209.4504752867138
 30
0.0
  0
LINE
  5
1E42
330
2
100
AcDbEntity
  8
0
100
AcDbLine
 10
404.7946673146282
 20
208.3810337493362
 30
0.0
 11
404.2196673137181
 21
208.3810337493362
 31
0.0
  0
LINE
  5
1E43
330
2
100
AcDbEntity
  8
0
100
AcDbLine
 10
406.5369071373372
 20
209.4504752867138
 30
0.0
 11
406.5571673141731
 21
209.6614520321754
 31
0.0
  0
ARC
  5
1E44
330
2
100
AcDbEntity
  8
0
100
AcDbCircle
 10
406.614178067766
 20
208.3041464735826
 30
0.0
 40
1.3
100
AcDbArc
 50
4.999999999999778
 51
74.11914999171883
  0
LINE
  5
1E45
330
2
100
AcDbEntity
  8
0
100
AcDbLine
 10
408.0071673141731
 20
207.2980337493362
 30
0.0
 11
407.9092311752853
 21
208.4174489391545
 31
0.0
  0
LINE
  5
1E46
330
2
100
AcDbEntity
  8
0
100
AcDbLine
 10
405.8450761301996
 20
209.7980337493362
 30
0.0
 11
407.0071673141731
 21
209.7980337493362
 31
0.0
  0
LINE
  5
1E48
330
2
100
AcDbEntity
  8
0
100
AcDbLine
 10
718.5626413141731
 20
208.7980337493362
 30
0.0
 11
683.5626413141731
 21
208.7980337493362
 31
0.0
  0
LINE
  5
1E49
330
2
100
AcDbEntity
  8
0
100
AcDbLine
 10
726.0626483141731
 20
177.7980187493361
 30
0.0
 11
676.062641314173
 21
177.7980187493361
 31
0.0
  0
LINE
  5
1E4A
330
2
100
AcDbEntity
  8
0
100
AcDbLine
 10
726.0626483141731
 20
166.7980187493361
 30
0.0
 11
676.062641314173
 21
166.7980187493361
 31
0.0
  0
LINE
  5
1E4B
330
2
100
AcDbEntity
  8
0
100
AcDbLine
 10
726.0626483141731
 20
176.7980187493361
 30
0.0
 11
676.062641314173
 21
176.7980187493361
 31
0.0
  0
LINE
  5
1E4C
330
2
100
AcDbEntity
  8
0
100
AcDbLine
 10
724.562648314173
 20
164.7980187493361
 30
0.0
 11
678.0626413141731
 21
164.7980187493361
 31
0.0
  0
LINE
  5
1E4D
330
2
100
AcDbEntity
  8
0
100
AcDbLine
 10
721.2247324981465
 20
209.7980337493361
 30
0.0
 11
680.9005501301994
 21
209.7980337493361
 31
0.0
  0
LINE
  5
1E4E
330
2
100
AcDbEntity
  8
CENTER
100
AcDbLine
 10
731.1062482953816
 20
192.7980187493361
 30
0.0
 11
671.0190343329645
 21
192.7980187493361
 31
0.0
  0
LINE
  5
1E4F
330
2
100
AcDbEntity
  8
0
100
AcDbLine
 10
676.062641314173
 20
208.7980337493362
 30
0.0
 11
676.062641314173
 21
166.7980187493361
 31
0.0
  0
LINE
  5
1E50
330
2
100
AcDbEntity
  8
CENTER
100
AcDbLine
 10
701.062641314173
 20
158.4085227493362
 30
0.0
 11
701.062641314173
 21
215.1855337493361
 31
0.0
  0
LINE
  5
1E51
330
2
100
AcDbEntity
  8
0
100
AcDbLine
 10
678.5626413141731
 20
164.7980187493361
 30
0.0
 11
678.5626413141731
 21
163.2980187493361
 31
0.0
  0
LINE
  5
1E52
330
2
100
AcDbEntity
  8
0
100
AcDbLine
 10
678.0626413141731
 20
164.7980187493361
 30
0.0
 11
676.062641314173
 21
166.7980187493361
 31
0.0
  0
LINE
  5
1E53
330
2
100
AcDbEntity
  8
0
100
AcDbLine
 10
683.5626413141731
 20
209.2980337493361
 30
0.0
 11
682.5076187037934
 21
209.2980337493361
 31
0.0
  0
LINE
  5
1E54
330
2
100
AcDbEntity
  8
0
100
AcDbLine
 10
683.5626413141731
 20
207.2980337493361
 30
0.0
 11
676.062641314173
 21
207.2980337493362
 31
0.0
  0
SPLINE
  5
1E55
330
2
100
AcDbEntity
  8
0
100
AcDbSpline
210
0.0
220
0.0
230
1.0
 70
     8
 71
     3
 72
    11
 73
     7
 74
     0
 42
0.0000000001
 43
0.0000000001
 40
0.0
 40
0.0
 40
0.0
 40
0.0
 40
0.4601364636755307
 40
1.04988694485363
 40
1.713742833862792
 40
2.320347933405154
 40
2.320347933405154
 40
2.320347933405154
 40
2.320347933405179
 10
679.275141313718
 20
208.3810337493362
 30
0.0
 10
679.2527236566101
 20
208.5360571890161
 30
0.0
 10
679.2015736013768
 20
208.8897720069336
 30
0.0
 10
678.7656884398431
 20
209.3144996785353
 30
0.0
 10
678.1606377248358
 20
209.5336868585011
 30
0.0
 10
677.7354531006599
 20
209.4646955588905
 30
0.0
 10
677.5329014910089
 20
209.4504752867138
 30
0.0
  0
ARC
  5
1E56
330
2
100
AcDbEntity
  8
0
100
AcDbCircle
 10
679.562641314173
 20
200.8980337493362
 30
0.0
 40
9.0
100
AcDbArc
 50
74.11914999171883
 51
105.8808500082811
  0
LINE
  5
1E57
330
2
100
AcDbEntity
  8
0
100
AcDbLine
 10
676.062641314173
 20
207.2980337493362
 30
0.0
 11
676.1605774530608
 21
208.4174489391545
 31
0.0
  0
LINE
  5
1E58
330
2
100
AcDbEntity
  8
0
100
AcDbLine
 10
677.5329014910089
 20
209.4504752867138
 30
0.0
 11
677.5126413141729
 21
209.6614520321754
 31
0.0
  0
LINE
  5
1E59
330
2
100
AcDbEntity
  8
0
100
AcDbLine
 10
678.2247324981465
 20
209.7980337493361
 30
0.0
 11
677.0626413141731
 21
209.7980337493361
 31
0.0
  0
LINE
  5
1E5A
330
2
100
AcDbEntity
  8
0
100
AcDbLine
 10
677.0626413141731
 20
209.7980337493361
 30
0.0
 11
676.062641314173
 21
208.7980337493362
 31
0.0
  0
ARC
  5
1E5B
330
2
100
AcDbEntity
  8
0
100
AcDbCircle
 10
677.4556305605801
 20
208.3041464735825
 30
0.0
 40
1.3
100
AcDbArc
 50
105.8808500082811
 51
175.0000000000001
  0
SPLINE
  5
1E5C
330
2
100
AcDbEntity
  8
0
100
AcDbSpline
210
0.0
220
0.0
230
1.0
 70
     8
 71
     3
 72
    11
 73
     7
 74
     0
 42
0.0000000001
 43
0.0000000001
 40
0.0
 40
0.0
 40
0.0
 40
0.0
 40
0.4601364636755307
 40
1.04988694485363
 40
1.713742833862792
 40
2.320347933405154
 40
2.320347933405154
 40
2.320347933405154
 40
2.320347933405179
 10
679.8501413146279
 20
208.3810337493362
 30
0.0
 10
679.8725589717358
 20
208.5360571890161
 30
0.0
 10
679.9237090269691
 20
208.8897720069336
 30
0.0
 10
680.3595941885028
 20
209.3144996785353
 30
0.0
 10
680.9646449035101
 20
209.5336868585011
 30
0.0
 10
681.389829527686
 20
209.4646955588905
 30
0.0
 10
681.592381137337
 20
209.4504752867138
 30
0.0
  0
LINE
  5
1E5D
330
2
100
AcDbEntity
  8
0
100
AcDbLine
 10
679.275141313718
 20
208.3810337493362
 30
0.0
 11
679.8501413146279
 21
208.3810337493362
 31
0.0
  0
ARC
  5
1E5E
330
2
100
AcDbEntity
  8
0
100
AcDbCircle
 10
681.669652067766
 20
208.3041464735825
 30
0.0
 40
1.3
100
AcDbArc
 50
4.999999999999778
 51
74.11914999171883
  0
LINE
  5
1E5F
330
2
100
AcDbEntity
  8
0
100
AcDbLine
 10
683.062641314173
 20
207.2980337493362
 30
0.0
 11
682.9647051752852
 21
208.4174489391545
 31
0.0
  0
LINE
  5
1E60
330
2
100
AcDbEntity
  8
0
100
AcDbLine
 10
681.592381137337
 20
209.4504752867138
 30
0.0
 11
681.6126413141731
 21
209.6614520321754
 31
0.0
  0
LINE
  5
1E61
330
2
100
AcDbEntity
  8
0
100
AcDbLine
 10
683.5626413141731
 20
207.2980337493361
 30
0.0
 11
683.5626413141731
 21
209.2980337493362
 31
0.0
  0
LINE
  5
1E62
330
2
100
AcDbEntity
  8
0
100
AcDbLine
 10
684.062641314173
 20
209.7980337493361
 30
0.0
 11
683.5626413141731
 21
209.2980337493361
 31
0.0
  0
LINE
  5
1E63
330
2
100
AcDbEntity
  8
0
100
AcDbLine
 10
726.0626483141731
 20
208.7980337493362
 30
0.0
 11
726.0626483141731
 21
166.7980187493361
 31
0.0
  0
LINE
  5
1E65
330
2
100
AcDbEntity
  8
0
100
AcDbLine
 10
724.562648314173
 20
164.7980187493361
 30
0.0
 11
724.562648314173
 21
163.2980187493361
 31
0.0
  0
LINE
  5
1E66
330
2
100
AcDbEntity
  8
0
100
AcDbLine
 10
726.0626483141731
 20
166.7980187493361
 30
0.0
 11
724.062648314173
 21
164.7980187493361
 31
0.0
  0
SPLINE
  5
1E67
330
2
100
AcDbEntity
  8
0
100
AcDbSpline
210
0.0
220
0.0
230
1.0
 70
     8
 71
     3
 72
    11
 73
     7
 74
     0
 42
0.0000000001
 43
0.0000000001
 40
0.0
 40
0.0
 40
0.0
 40
0.0
 40
0.4601364636755307
 40
1.04988694485363
 40
1.713742833862792
 40
2.320347933405154
 40
2.320347933405154
 40
2.320347933405154
 40
2.320347933405179
 10
722.2751413137181
 20
208.3810337493362
 30
0.0
 10
722.2527236566102
 20
208.5360571890161
 30
0.0
 10
722.201573601377
 20
208.8897720069336
 30
0.0
 10
721.7656884398434
 20
209.3144996785353
 30
0.0
 10
721.1606377248359
 20
209.5336868585011
 30
0.0
 10
720.7354531006601
 20
209.4646955588905
 30
0.0
 10
720.532901491009
 20
209.4504752867138
 30
0.0
  0
ARC
  5
1E68
330
2
100
AcDbEntity
  8
0
100
AcDbCircle
 10
722.5626413141731
 20
200.8980337493362
 30
0.0
 40
9.0
100
AcDbArc
 50
74.11914999171883
 51
105.8808500082811
  0
LINE
  5
1E69
330
2
100
AcDbEntity
  8
0
100
AcDbLine
 10
718.5626413141731
 20
207.2980337493361
 30
0.0
 11
726.062641314173
 21
207.2980337493362
 31
0.0
  0
LINE
  5
1E6A
330
2
100
AcDbEntity
  8
0
100
AcDbLine
 10
719.0626413141731
 20
207.2980337493362
 30
0.0
 11
719.160577453061
 21
208.4174489391545
 31
0.0
  0
LINE
  5
1E6B
330
2
100
AcDbEntity
  8
0
100
AcDbLine
 10
718.5626413141731
 20
207.2980337493361
 30
0.0
 11
718.5626413141731
 21
209.2980337493362
 31
0.0
  0
LINE
  5
1E6C
330
2
100
AcDbEntity
  8
0
100
AcDbLine
 10
718.062641314173
 20
209.7980337493361
 30
0.0
 11
718.5626413141731
 21
209.2980337493361
 31
0.0
  0
LINE
  5
1E6D
330
2
100
AcDbEntity
  8
0
100
AcDbLine
 10
720.532901491009
 20
209.4504752867138
 30
0.0
 11
720.5126413141731
 21
209.6614520321754
 31
0.0
  0
LINE
  5
1E6E
330
2
100
AcDbEntity
  8
0
100
AcDbLine
 10
718.5626413141731
 20
209.2980337493361
 30
0.0
 11
719.6176639245527
 21
209.2980337493361
 31
0.0
  0
ARC
  5
1E6F
330
2
100
AcDbEntity
  8
0
100
AcDbCircle
 10
720.4556305605802
 20
208.3041464735825
 30
0.0
 40
1.3
100
AcDbArc
 50
105.8808500082811
 51
175.0000000000001
  0
LINE
  5
1E70
330
2
100
AcDbEntity
  8
0
100
AcDbLine
 10
726.9376483141731
 20
182.2980187493361
 30
0.0
 11
724.937648314173
 21
182.2980187493361
 31
0.0
  0
LINE
  5
1E71
330
2
100
AcDbEntity
  8
0
100
AcDbLine
 10
726.9376483141731
 20
203.2980187493361
 30
0.0
 11
724.937648314173
 21
203.2980187493361
 31
0.0
  0
ARC
  5
1E72
330
2
100
AcDbEntity
  8
0
100
AcDbCircle
 10
724.669652067766
 20
208.3041464735825
 30
0.0
 40
1.3
100
AcDbArc
 50
4.999999999999778
 51
74.11914999171883
  0
LINE
  5
1E73
330
2
100
AcDbEntity
  8
0
100
AcDbLine
 10
725.0626413141731
 20
209.7980337493361
 30
0.0
 11
726.062641314173
 21
208.7980337493362
 31
0.0
  0
LINE
  5
1E74
330
2
100
AcDbEntity
  8
0
100
AcDbLine
 10
722.8501413146282
 20
208.3810337493362
 30
0.0
 11
722.2751413137181
 21
208.3810337493362
 31
0.0
  0
LINE
  5
1E75
330
2
100
AcDbEntity
  8
0
100
AcDbLine
 10
724.5923811373373
 20
209.4504752867138
 30
0.0
 11
724.6126413141731
 21
209.6614520321754
 31
0.0
  0
LINE
  5
1E76
330
2
100
AcDbEntity
  8
0
100
AcDbLine
 10
723.9005501301996
 20
209.7980337493361
 30
0.0
 11
725.0626413141731
 21
209.7980337493361
 31
0.0
  0
SPLINE
  5
1E77
330
2
100
AcDbEntity
  8
0
100
AcDbSpline
210
0.0
220
0.0
230
1.0
 70
     8
 71
     3
 72
    11
 73
     7
 74
     0
 42
0.0000000001
 43
0.0000000001
 40
0.0
 40
0.0
 40
0.0
 40
0.0
 40
0.4601364636755307
 40
1.04988694485363
 40
1.713742833862792
 40
2.320347933405154
 40
2.320347933405154
 40
2.320347933405154
 40
2.320347933405179
 10
722.8501413146282
 20
208.3810337493362
 30
0.0
 10
722.872558971736
 20
208.5360571890161
 30
0.0
 10
722.9237090269694
 20
208.8897720069336
 30
0.0
 10
723.3595941885028
 20
209.3144996785353
 30
0.0
 10
723.9646449035103
 20
209.5336868585011
 30
0.0
 10
724.3898295276862
 20
209.4646955588905
 30
0.0
 10
724.5923811373373
 20
209.4504752867138
 30
0.0
  0
LINE
  5
1E78
330
2
100
AcDbEntity
  8
0
100
AcDbLine
 10
726.062641314173
 20
207.2980337493362
 30
0.0
 11
725.9647051752851
 21
208.4174489391545
 31
0.0
  0
LINE
  5
1E7B
330
2
100
AcDbEntity
  8
0
100
AcDbLine
 10
724.062748314173
 20
306.6485378916402
 30
0.0
 11
678.062839314173
 21
306.6485378916402
 31
0.0
  0
LINE
  5
1E7C
330
2
100
AcDbEntity
  8
0
100
AcDbLine
 10
724.062748314173
 20
356.6485378916402
 30
0.0
 11
678.062839314173
 21
356.6485378916402
 31
0.0
  0
LINE
  5
1E7E
330
2
100
AcDbEntity
  8
0
100
AcDbLine
 10
676.062839314173
 20
354.6485378916402
 30
0.0
 11
676.062839314173
 21
308.6485378916402
 31
0.0
  0
LINE
  5
1E80
330
2
100
AcDbEntity
  8
0
100
AcDbLine
 10
678.062839314173
 20
314.1485378916403
 30
0.0
 11
678.062839314173
 21
349.1485378916402
 31
0.0
  0
LINE
  5
1E81
330
2
100
AcDbEntity
  8
CENTER
100
AcDbLine
 10
701.062641314173
 20
361.6921448728487
 30
0.0
 11
701.062641314173
 21
301.6049309104317
 31
0.0
  0
ARC
  5
1E82
330
2
100
AcDbEntity
  8
0
100
AcDbCircle
 10
679.562641314173
 20
310.1485378916402
 30
0.0
 40
4.0
100
AcDbArc
 50
0.0
 51
90.0
  0
ARC
  5
1E83
330
2
100
AcDbEntity
  8
0
100
AcDbCircle
 10
677.5329413141731
 20
312.1782378916402
 30
0.0
 40
1.742199999999999
100
AcDbArc
 50
269.9986903345035
 51
0.0013096654997424
  0
ARC
  5
1E84
330
2
100
AcDbEntity
  8
0
100
AcDbCircle
 10
677.5329413141731
 20
308.1188378916403
 30
0.0
 40
1.742199999999999
100
AcDbArc
 50
359.9986903345002
 51
90.00130966549974
  0
LINE
  5
1E85
330
2
100
AcDbEntity
  8
0
100
AcDbLine
 10
679.562839314173
 20
314.1485378916403
 30
0.0
 11
676.062839314173
 21
314.1485378916403
 31
0.0
  0
CIRCLE
  5
1E86
330
2
100
AcDbEntity
  8
0
100
AcDbCircle
 10
679.562641314173
 20
310.1485378916402
 30
0.0
 40
3.500000000000028
  0
ARC
  5
1E87
330
2
100
AcDbEntity
  8
0
100
AcDbCircle
 10
679.562641314173
 20
310.1485378916402
 30
0.0
 40
2.049999999999998
100
AcDbArc
 50
180.0
 51
188.0619600839818
  0
ARC
  5
1E88
330
2
100
AcDbEntity
  8
0
100
AcDbCircle
 10
679.562641314173
 20
310.1485378916402
 30
0.0
 40
2.049999999999998
100
AcDbArc
 50
171.9380399160181
 51
180.0
  0
LINE
  5
1E89
330
2
100
AcDbEntity
  8
0
100
AcDbLine
 10
676.062839314173
 20
308.6485378916402
 30
0.0
 11
678.062839314173
 21
306.6485378916402
 31
0.0
  0
LINE
  5
1E8A
330
2
100
AcDbEntity
  8
0
100
AcDbLine
 10
676.062839314173
 20
308.6485378916402
 30
0.0
 11
678.062839314173
 21
306.6485378916402
 31
0.0
  0
LINE
  5
1E8B
330
2
100
AcDbEntity
  8
0
100
AcDbLine
 10
676.062641314173
 20
308.6485378916402
 30
0.0
 11
678.062839314173
 21
306.6485378916402
 31
0.0
  0
ARC
  5
1E8C
330
2
100
AcDbEntity
  8
0
100
AcDbCircle
 10
679.562641314173
 20
310.1485378916402
 30
0.0
 40
2.049999999999998
100
AcDbArc
 50
90.0
 51
98.06196008398211
  0
ARC
  5
1E8D
330
2
100
AcDbEntity
  8
0
100
AcDbCircle
 10
679.562641314173
 20
310.1485378916402
 30
0.0
 40
2.049999999999998
100
AcDbArc
 50
81.93803991601789
 51
90.0
  0
ARC
  5
1E8E
330
2
100
AcDbEntity
  8
0
100
AcDbCircle
 10
679.562641314173
 20
310.1485378916402
 30
0.0
 40
2.049999999999998
100
AcDbArc
 50
261.9380399160178
 51
270.0
  0
ARC
  5
1E8F
330
2
100
AcDbEntity
  8
0
100
AcDbCircle
 10
679.562641314173
 20
310.1485378916402
 30
0.0
 40
2.049999999999998
100
AcDbArc
 50
270.0
 51
278.061960083982
  0
ARC
  5
1E90
330
2
100
AcDbEntity
  8
0
100
AcDbCircle
 10
681.5923413141733
 20
312.1782378916402
 30
0.0
 40
1.742199999999999
100
AcDbArc
 50
179.9986903345002
 51
270.0013096654964
  0
ARC
  5
1E91
330
2
100
AcDbEntity
  8
0
100
AcDbCircle
 10
681.5923413141733
 20
308.1188378916403
 30
0.0
 40
1.742199999999999
100
AcDbArc
 50
89.9986903345035
 51
180.0013096654997
  0
ARC
  5
1E92
330
2
100
AcDbEntity
  8
0
100
AcDbCircle
 10
679.562641314173
 20
310.1485378916402
 30
0.0
 40
2.049999999999998
100
AcDbArc
 50
351.9380399160181
 51
0.0
  0
ARC
  5
1E93
330
2
100
AcDbEntity
  8
0
100
AcDbCircle
 10
679.562641314173
 20
310.1485378916402
 30
0.0
 40
2.049999999999998
100
AcDbArc
 50
0.0
 51
8.061960083981876
  0
LINE
  5
1E94
330
2
100
AcDbEntity
  8
0
100
AcDbLine
 10
683.562839314173
 20
308.6485378916402
 30
0.0
 11
718.562748314173
 21
308.6485378916403
 31
0.0
  0
LINE
  5
1E95
330
2
100
AcDbEntity
  8
0
100
AcDbLine
 10
683.562839314173
 20
310.1485378916402
 30
0.0
 11
683.562839314173
 21
306.6487218916403
 31
0.0
  0
ARC
  5
1E96
330
2
100
AcDbEntity
  8
0
100
AcDbCircle
 10
679.562641314173
 20
353.1486298916402
 30
0.0
 40
4.0
100
AcDbArc
 50
270.0
 51
0.0
  0
CIRCLE
  5
1E97
330
2
100
AcDbEntity
  8
0
100
AcDbCircle
 10
679.562641314173
 20
353.1486298916402
 30
0.0
 40
3.500000000000028
  0
ARC
  5
1E98
330
2
100
AcDbEntity
  8
0
100
AcDbCircle
 10
679.562641314173
 20
353.1486298916402
 30
0.0
 40
2.049999999999998
100
AcDbArc
 50
180.0
 51
188.0619600839818
  0
ARC
  5
1E99
330
2
100
AcDbEntity
  8
0
100
AcDbCircle
 10
679.562641314173
 20
353.1486298916402
 30
0.0
 40
2.049999999999998
100
AcDbArc
 50
351.9380399160181
 51
0.0
  0
ARC
  5
1E9A
330
2
100
AcDbEntity
  8
0
100
AcDbCircle
 10
681.5923413141733
 20
351.1189298916403
 30
0.0
 40
1.742199999999999
100
AcDbArc
 50
89.9986903345035
 51
180.0013096654997
  0
ARC
  5
1E9B
330
2
100
AcDbEntity
  8
0
100
AcDbCircle
 10
677.5329413141731
 20
351.1189298916403
 30
0.0
 40
1.742199999999999
100
AcDbArc
 50
359.9986903345002
 51
90.00130966549974
  0
LINE
  5
1E9D
330
2
100
AcDbEntity
  8
0
100
AcDbLine
 10
679.562839314173
 20
349.1485378916402
 30
0.0
 11
676.062839314173
 21
349.1485378916402
 31
0.0
  0
ARC
  5
1E9E
330
2
100
AcDbEntity
  8
0
100
AcDbCircle
 10
679.562641314173
 20
353.1486298916402
 30
0.0
 40
2.049999999999998
100
AcDbArc
 50
261.9380399160178
 51
270.0
  0
ARC
  5
1E9F
330
2
100
AcDbEntity
  8
0
100
AcDbCircle
 10
679.562641314173
 20
353.1486298916402
 30
0.0
 40
2.049999999999998
100
AcDbArc
 50
270.0
 51
278.061960083982
  0
ARC
  5
1EA0
330
2
100
AcDbEntity
  8
0
100
AcDbCircle
 10
677.5329413141731
 20
355.1783298916402
 30
0.0
 40
1.742199999999999
100
AcDbArc
 50
269.9986903345035
 51
0.0013096654997424
  0
ARC
  5
1EA1
330
2
100
AcDbEntity
  8
0
100
AcDbCircle
 10
679.562641314173
 20
353.1486298916402
 30
0.0
 40
2.049999999999998
100
AcDbArc
 50
171.9380399160181
 51
180.0
  0
LINE
  5
1EA2
330
2
100
AcDbEntity
  8
0
100
AcDbLine
 10
676.062839314173
 20
354.6485378916402
 30
0.0
 11
678.062839314173
 21
356.6485378916402
 31
0.0
  0
LINE
  5
1EA3
330
2
100
AcDbEntity
  8
0
100
AcDbLine
 10
678.062839314173
 20
356.6485378916402
 30
0.0
 11
676.062839314173
 21
354.6485378916402
 31
0.0
  0
ARC
  5
1EA4
330
2
100
AcDbEntity
  8
0
100
AcDbCircle
 10
679.562641314173
 20
353.1486298916402
 30
0.0
 40
2.049999999999998
100
AcDbArc
 50
90.0
 51
98.06196008398211
  0
ARC
  5
1EA5
330
2
100
AcDbEntity
  8
0
100
AcDbCircle
 10
679.562641314173
 20
353.1486298916402
 30
0.0
 40
2.049999999999998
100
AcDbArc
 50
81.93803991601789
 51
90.0
  0
ARC
  5
1EA6
330
2
100
AcDbEntity
  8
0
100
AcDbCircle
 10
681.5923413141733
 20
355.1783298916402
 30
0.0
 40
1.742199999999999
100
AcDbArc
 50
179.9986903345002
 51
270.0013096654964
  0
ARC
  5
1EA7
330
2
100
AcDbEntity
  8
0
100
AcDbCircle
 10
679.562641314173
 20
353.1486298916402
 30
0.0
 40
2.049999999999998
100
AcDbArc
 50
0.0
 51
8.061960083981876
  0
LINE
  5
1EA8
330
2
100
AcDbEntity
  8
0
100
AcDbLine
 10
683.562839314173
 20
354.6485378916402
 30
0.0
 11
718.562748314173
 21
354.6485378916403
 31
0.0
  0
LINE
  5
1EA9
330
2
100
AcDbEntity
  8
0
100
AcDbLine
 10
683.562839314173
 20
353.1486298916402
 30
0.0
 11
683.562839314173
 21
356.6485378916402
 31
0.0
  0
LINE
  5
1EAA
330
2
100
AcDbEntity
  8
0
100
AcDbLine
 10
726.062748314173
 20
354.6485378916402
 30
0.0
 11
726.062748314173
 21
308.6485378916402
 31
0.0
  0
LINE
  5
1EAB
330
2
100
AcDbEntity
  8
0
100
AcDbLine
 10
724.062748314173
 20
314.1485378916403
 30
0.0
 11
724.0627483141729
 21
349.1485378916402
 31
0.0
  0
ARC
  5
1EAC
330
2
100
AcDbEntity
  8
0
100
AcDbCircle
 10
720.5330483141731
 20
312.1782378916402
 30
0.0
 40
1.742199999999999
100
AcDbArc
 50
269.9986903345035
 51
0.0013096654997424
  0
ARC
  5
1EAD
330
2
100
AcDbEntity
  8
0
100
AcDbCircle
 10
720.5330483141731
 20
308.1188378916403
 30
0.0
 40
1.742199999999999
100
AcDbArc
 50
359.9986903345002
 51
90.00130966549974
  0
ARC
  5
1EAE
330
2
100
AcDbEntity
  8
0
100
AcDbCircle
 10
722.562748314173
 20
310.1485378916402
 30
0.0
 40
4.0
100
AcDbArc
 50
90.0
 51
180.0
  0
CIRCLE
  5
1EAF
330
2
100
AcDbEntity
  8
0
100
AcDbCircle
 10
722.562748314173
 20
310.1485378916402
 30
0.0
 40
3.500000000000028
  0
LINE
  5
1EB0
330
2
100
AcDbEntity
  8
0
100
AcDbLine
 10
718.562748314173
 20
310.1485378916402
 30
0.0
 11
718.562748314173
 21
306.6487218916403
 31
0.0
  0
ARC
  5
1EB1
330
2
100
AcDbEntity
  8
0
100
AcDbCircle
 10
722.562748314173
 20
310.1485378916402
 30
0.0
 40
2.049999999999998
100
AcDbArc
 50
180.0
 51
188.0619600839818
  0
ARC
  5
1EB2
330
2
100
AcDbEntity
  8
0
100
AcDbCircle
 10
722.562748314173
 20
310.1485378916402
 30
0.0
 40
2.049999999999998
100
AcDbArc
 50
171.9380399160181
 51
180.0
  0
LINE
  5
1EB3
330
2
100
AcDbEntity
  8
0
100
AcDbLine
 10
726.062748314173
 20
308.6485378916402
 30
0.0
 11
724.062748314173
 21
306.6485378916402
 31
0.0
  0
LINE
  5
1EB4
330
2
100
AcDbEntity
  8
0
100
AcDbLine
 10
726.062748314173
 20
308.6485378916402
 30
0.0
 11
724.062748314173
 21
306.6485378916402
 31
0.0
  0
LINE
  5
1EB5
330
2
100
AcDbEntity
  8
0
100
AcDbLine
 10
722.562748314173
 20
314.1485378916403
 30
0.0
 11
726.062748314173
 21
314.1485378916403
 31
0.0
  0
ARC
  5
1EB6
330
2
100
AcDbEntity
  8
0
100
AcDbCircle
 10
722.562748314173
 20
310.1485378916402
 30
0.0
 40
2.049999999999998
100
AcDbArc
 50
90.0
 51
98.06196008398211
  0
ARC
  5
1EB7
330
2
100
AcDbEntity
  8
0
100
AcDbCircle
 10
722.562748314173
 20
310.1485378916402
 30
0.0
 40
2.049999999999998
100
AcDbArc
 50
81.93803991601789
 51
90.0
  0
ARC
  5
1EB8
330
2
100
AcDbEntity
  8
0
100
AcDbCircle
 10
722.562748314173
 20
310.1485378916402
 30
0.0
 40
2.049999999999998
100
AcDbArc
 50
261.9380399160178
 51
270.0
  0
ARC
  5
1EB9
330
2
100
AcDbEntity
  8
0
100
AcDbCircle
 10
722.562748314173
 20
310.1485378916402
 30
0.0
 40
2.049999999999998
100
AcDbArc
 50
270.0
 51
278.061960083982
  0
ARC
  5
1EBA
330
2
100
AcDbEntity
  8
0
100
AcDbCircle
 10
722.562748314173
 20
310.1485378916402
 30
0.0
 40
2.049999999999998
100
AcDbArc
 50
351.9380399160181
 51
0.0
  0
ARC
  5
1EBB
330
2
100
AcDbEntity
  8
0
100
AcDbCircle
 10
722.562748314173
 20
310.1485378916402
 30
0.0
 40
2.049999999999998
100
AcDbArc
 50
0.0
 51
8.061960083981876
  0
ARC
  5
1EBC
330
2
100
AcDbEntity
  8
0
100
AcDbCircle
 10
724.5924483141732
 20
312.1782378916402
 30
0.0
 40
1.742199999999999
100
AcDbArc
 50
179.9986903345002
 51
270.0013096654964
  0
ARC
  5
1EBD
330
2
100
AcDbEntity
  8
0
100
AcDbCircle
 10
724.5924483141732
 20
308.1188378916403
 30
0.0
 40
1.742199999999999
100
AcDbArc
 50
89.9986903345035
 51
180.0013096654997
  0
ARC
  5
1EBE
330
2
100
AcDbEntity
  8
0
100
AcDbCircle
 10
720.5330483141731
 20
355.1783298916402
 30
0.0
 40
1.742199999999999
100
AcDbArc
 50
269.9986903345035
 51
0.0013096654997424
  0
ARC
  5
1EBF
330
2
100
AcDbEntity
  8
0
100
AcDbCircle
 10
722.562748314173
 20
353.1486298916402
 30
0.0
 40
4.0
100
AcDbArc
 50
180.0
 51
270.0
  0
CIRCLE
  5
1EC0
330
2
100
AcDbEntity
  8
0
100
AcDbCircle
 10
722.562748314173
 20
353.1486298916402
 30
0.0
 40
3.500000000000028
  0
ARC
  5
1EC1
330
2
100
AcDbEntity
  8
0
100
AcDbCircle
 10
720.5330483141731
 20
351.1189298916403
 30
0.0
 40
1.742199999999999
100
AcDbArc
 50
359.9986903345002
 51
90.00130966549974
  0
ARC
  5
1EC2
330
2
100
AcDbEntity
  8
0
100
AcDbCircle
 10
722.562748314173
 20
353.1486298916402
 30
0.0
 40
2.049999999999998
100
AcDbArc
 50
180.0
 51
188.0619600839818
  0
LINE
  5
1EC3
330
2
100
AcDbEntity
  8
0
100
AcDbLine
 10
718.562748314173
 20
353.1486298916402
 30
0.0
 11
718.562748314173
 21
356.6485378916402
 31
0.0
  0
ARC
  5
1EC4
330
2
100
AcDbEntity
  8
0
100
AcDbCircle
 10
722.562748314173
 20
353.1486298916402
 30
0.0
 40
2.049999999999998
100
AcDbArc
 50
171.9380399160181
 51
180.0
  0
ARC
  5
1EC5
330
2
100
AcDbEntity
  8
0
100
AcDbCircle
 10
722.562748314173
 20
353.1486298916402
 30
0.0
 40
2.049999999999998
100
AcDbArc
 50
351.9380399160181
 51
0.0
  0
ARC
  5
1EC6
330
2
100
AcDbEntity
  8
0
100
AcDbCircle
 10
724.5924483141732
 20
351.1189298916403
 30
0.0
 40
1.742199999999999
100
AcDbArc
 50
89.9986903345035
 51
180.0013096654997
  0
LINE
  5
1EC8
330
2
100
AcDbEntity
  8
0
100
AcDbLine
 10
722.562748314173
 20
349.1485378916402
 30
0.0
 11
726.062748314173
 21
349.1485378916402
 31
0.0
  0
ARC
  5
1EC9
330
2
100
AcDbEntity
  8
0
100
AcDbCircle
 10
722.562748314173
 20
353.1486298916402
 30
0.0
 40
2.049999999999998
100
AcDbArc
 50
261.9380399160178
 51
270.0
  0
ARC
  5
1ECA
330
2
100
AcDbEntity
  8
0
100
AcDbCircle
 10
722.562748314173
 20
353.1486298916402
 30
0.0
 40
2.049999999999998
100
AcDbArc
 50
270.0
 51
278.061960083982
  0
LINE
  5
1ECB
330
2
100
AcDbEntity
  8
0
100
AcDbLine
 10
726.062748314173
 20
354.6485378916402
 30
0.0
 11
724.062748314173
 21
356.6485378916402
 31
0.0
  0
ARC
  5
1ECC
330
2
100
AcDbEntity
  8
0
100
AcDbCircle
 10
722.562748314173
 20
353.1486298916402
 30
0.0
 40
2.049999999999998
100
AcDbArc
 50
90.0
 51
98.06196008398211
  0
ARC
  5
1ECD
330
2
100
AcDbEntity
  8
0
100
AcDbCircle
 10
722.562748314173
 20
353.1486298916402
 30
0.0
 40
2.049999999999998
100
AcDbArc
 50
81.93803991601789
 51
90.0
  0
ARC
  5
1ECE
330
2
100
AcDbEntity
  8
0
100
AcDbCircle
 10
722.562748314173
 20
353.1486298916402
 30
0.0
 40
2.049999999999998
100
AcDbArc
 50
0.0
 51
8.061960083981876
  0
ARC
  5
1ECF
330
2
100
AcDbEntity
  8
0
100
AcDbCircle
 10
724.5924483141732
 20
355.1783298916402
 30
0.0
 40
1.742199999999999
100
AcDbArc
 50
179.9986903345002
 51
270.0013096654964
  0
ENDSEC
  0
SECTION
  2
OBJECTS
  0
DICTIONARY
  5
7
330
0
100
AcDbDictionary
  3
ACAD_GROUP
350
75
  3
ACAD_LAYOUT
350
61
  3
ACAD_MLINESTYLE
350
76
  3
ACAD_PLOTSETTINGS
350
77
  3
ACAD_PLOTSTYLENAME
350
6
  3
ACADDIM
350
480
  3
ACDBHEADERROUNDTRIPXREC
350
2030
  3
ACDBVARIABLEDICTIONARY
350
102
  3
DWGPROPS
350
3D2
  0
DICTIONARY
  5
2051
330
2
100
AcDbDictionary
280
     1
  3
ACAD_LAYOUTSELFREF
360
2052
  0
DICTIONARY
  5
2053
330
202A
100
AcDbDictionary
280
     1
  3
ACAD_LAYOUTSELFREF
360
2054
  0
DICTIONARY
  5
75
102
{ACAD_REACTORS
330
7
102
}
330
7
100
AcDbDictionary
  0
DICTIONARY
  5
61
102
{ACAD_REACTORS
330
7
102
}
330
7
100
AcDbDictionary
  0
DICTIONARY
  5
76
102
{ACAD_REACTORS
330
7
102
}
330
7
100
AcDbDictionary
  3
STANDARD
350
78
  0
DICTIONARY
  5
77
102
{ACAD_REACTORS
330
7
102
}
330
7
100
AcDbDictionary
  0
ACDBDICTIONARYWDFLT
  5
6
102
{ACAD_REACTORS
330
7
102
}
330
7
100
AcDbDictionary
281
     1
  3
Normal
350
5
100
AcDbDictionaryWithDefault
340
5
  0
XRECORD
  5
480
102
{ACAD_REACTORS
330
7
102
}
330
7
100
AcDbXrecord
 90
   990106
  3

 60
     0
 61
     0
 62
     1
 63
     3
 64
     1
 65
     0
 66
     0
 67
     3
 68
     1
 69
     0
 70
     0
 71
     0
 72
     0
 40
0.0
170
     2
340
0
  0
DICTIONARY
  5
2030
102
{ACAD_REACTORS
330
7
102
}
330
7
100
AcDbDictionary
  3
CEPSNTYPE
350
203A
  3
DIMSTYLEDATA
350
203E
  3
FINGERPRINTGUID
350
203B
  3
HYPERLINKBASE
350
2033
  3
INSUNITS
350
2039
  3
LAYOUTDICT
350
2035
  3
LWETCUNION
350
2038
  3
PLOTSETDICT
350
2036
  3
PLOTSTYLNAMDICT
350
2037
  3
PSVPSCALE
350
203D
  3
PUCSBASE
350
2041
  3
PUCSORGBACK
350
2047
  3
PUCSORGBOTTOM
350
2043
  3
PUCSORGFRONT
350
2046
  3
PUCSORGLEFT
350
2044
  3
PUCSORGRIGHT
350
2045
  3
PUCSORGTOP
350
2042
  3
PUCSORTHOREF
350
203F
  3
PUCSORTHOVIEW
350
2040
  3
STYLESHEET
350
2034
  3
TSTACKALIGN
350
2031
  3
TSTACKSIZE
350
2032
  3
UCSBASE
350
204A
  3
UCSORGBACK
350
2050
  3
UCSORGBOTTOM
350
204C
  3
UCSORGFRONT
350
204F
  3
UCSORGLEFT
350
204D
  3
UCSORGRIGHT
350
204E
  3
UCSORGTOP
350
204B
  3
UCSORTHOREF
350
2048
  3
UCSORTHOVIEW
350
2049
  3
VERSIONGUID
350
203C
  0
DICTIONARY
  5
102
102
{ACAD_REACTORS
330
7
102
}
330
7
100
AcDbDictionary
  3
DIMASSOC
350
103
  0
XRECORD
  5
3D2
102
{ACAD_REACTORS
330
7
102
}
330
7
100
AcDbXrecord
  1
DWGPROPS COOKIE
  2

  3

  4

  6

  7

  8

  9

300
=
301
=
302
=
303
=
304
=
305
=
306
=
307
=
308
=
309
=
 40
0.5353330671296296
 41
2452052.431989363
 42
2453406.550756377
  1

 90
        0
  0
XRECORD
  5
2052
102
{ACAD_REACTORS
330
2051
102
}
330
2051
100
AcDbXrecord
340
2
  0
XRECORD
  5
2054
102
{ACAD_REACTORS
330
2053
102
}
330
2053
100
AcDbXrecord
340
202A
  0
MLINESTYLE
  5
78
102
{ACAD_REACTORS
330
76
102
}
330
76
100
AcDbMlineStyle
  2
STANDARD
 70
     0
  3

 62
     0
 51
90.0
 52
90.0
 71
     2
 49
0.5
 62
   256
  6
BYLAYER
 49
-0.5
 62
   256
  6
BYLAYER
  0
ACDBPLACEHOLDER
  5
5
102
{ACAD_REACTORS
330
6
102
}
330
6
100
AcDbPlaceHolder
280
     0
  0
XRECORD
  5
203A
102
{ACAD_REACTORS
330
2030
102
}
330
2030
100
AcDbXrecord
 90
        0
  0
XRECORD
  5
203E
102
{ACAD_REACTORS
330
2030
102
}
330
2030
100
AcDbXrecord
1000
DSTYLE
1002
{
1070
   179
 70
     2
1070
   277
 70
     6
1002
}
  0
XRECORD
  5
203B
102
{ACAD_REACTORS
330
2030
102
}
330
2030
100
AcDbXrecord
  1
{6385560B-F4B1-4644-A7C2-A3E32AC3D232}
  0
XRECORD
  5
2033
102
{ACAD_REACTORS
330
2030
102
}
330
2030
100
AcDbXrecord
  1

  0
XRECORD
  5
2039
102
{ACAD_REACTORS
330
2030
102
}
330
2030
100
AcDbXrecord
 90
        0
  0
XRECORD
  5
2035
102
{ACAD_REACTORS
330
2030
102
}
330
2030
100
AcDbXrecord
340
61
  0
XRECORD
  5
2038
102
{ACAD_REACTORS
330
2030
102
}
330
2030
100
AcDbXrecord
 90
    10781
  0
XRECORD
  5
2036
102
{ACAD_REACTORS
330
2030
102
}
330
2030
100
AcDbXrecord
340
77
  0
XRECORD
  5
2037
102
{ACAD_REACTORS
330
2030
102
}
330
2030
100
AcDbXrecord
340
6
  0
XRECORD
  5
203D
102
{ACAD_REACTORS
330
2030
102
}
330
2030
100
AcDbXrecord
 40
0.0
  0
XRECORD
  5
2041
102
{ACAD_REACTORS
330
2030
102
}
330
2030
100
AcDbXrecord
340
0
  0
XRECORD
  5
2047
102
{ACAD_REACTORS
330
2030
102
}
330
2030
100
AcDbXrecord
 10
0.0
 20
0.0
 30
0.0
  0
XRECORD
  5
2043
102
{ACAD_REACTORS
330
2030
102
}
330
2030
100
AcDbXrecord
 10
0.0
 20
0.0
 30
0.0
  0
XRECORD
  5
2046
102
{ACAD_REACTORS
330
2030
102
}
330
2030
100
AcDbXrecord
 10
0.0
 20
0.0
 30
0.0
  0
XRECORD
  5
2044
102
{ACAD_REACTORS
330
2030
102
}
330
2030
100
AcDbXrecord
 10
0.0
 20
0.0
 30
0.0
  0
XRECORD
  5
2045
102
{ACAD_REACTORS
330
2030
102
}
330
2030
100
AcDbXrecord
 10
0.0
 20
0.0
 30
0.0
  0
XRECORD
  5
2042
102
{ACAD_REACTORS
330
2030
102
}
330
2030
100
AcDbXrecord
 10
0.0
 20
0.0
 30
0.0
  0
XRECORD
  5
203F
102
{ACAD_REACTORS
330
2030
102
}
330
2030
100
AcDbXrecord
340
0
  0
XRECORD
  5
2040
102
{ACAD_REACTORS
330
2030
102
}
330
2030
100
AcDbXrecord
 70
     0
  0
XRECORD
  5
2034
102
{ACAD_REACTORS
330
2030
102
}
330
2030
100
AcDbXrecord
  1
Sekkei.ctb
  0
XRECORD
  5
2031
102
{ACAD_REACTORS
330
2030
102
}
330
2030
100
AcDbXrecord
 90
        1
  0
XRECORD
  5
2032
102
{ACAD_REACTORS
330
2030
102
}
330
2030
100
AcDbXrecord
 90
       70
  0
XRECORD
  5
204A
102
{ACAD_REACTORS
330
2030
102
}
330
2030
100
AcDbXrecord
340
0
  0
XRECORD
  5
2050
102
{ACAD_REACTORS
330
2030
102
}
330
2030
100
AcDbXrecord
 10
0.0
 20
0.0
 30
0.0
  0
XRECORD
  5
204C
102
{ACAD_REACTORS
330
2030
102
}
330
2030
100
AcDbXrecord
 10
0.0
 20
0.0
 30
0.0
  0
XRECORD
  5
204F
102
{ACAD_REACTORS
330
2030
102
}
330
2030
100
AcDbXrecord
 10
0.0
 20
0.0
 30
0.0
  0
XRECORD
  5
204D
102
{ACAD_REACTORS
330
2030
102
}
330
2030
100
AcDbXrecord
 10
0.0
 20
0.0
 30
0.0
  0
XRECORD
  5
204E
102
{ACAD_REACTORS
330
2030
102
}
330
2030
100
AcDbXrecord
 10
0.0
 20
0.0
 30
0.0
  0
XRECORD
  5
204B
102
{ACAD_REACTORS
330
2030
102
}
330
2030
100
AcDbXrecord
 10
0.0
 20
0.0
 30
0.0
  0
XRECORD
  5
2048
102
{ACAD_REACTORS
330
2030
102
}
330
2030
100
AcDbXrecord
340
0
  0
XRECORD
  5
2049
102
{ACAD_REACTORS
330
2030
102
}
330
2030
100
AcDbXrecord
 70
     0
  0
XRECORD
  5
203C
102
{ACAD_REACTORS
330
2030
102
}
330
2030
100
AcDbXrecord
  1
{8EE15609-B242-44AF-83F0-33EA87AF6B6A}
  0
DICTIONARYVAR
  5
103
102
{ACAD_REACTORS
330
102
102
}
330
102
100
DictionaryVariables
280
     0
  1
1
  0
ENDSEC
  0
EOF
