  0
SECTION
  2
HEADER
  9
$ACADVER
  1
AC1014
  9
$ACADMAINTVER
 70
     9
  9
$DWGCODEPAGE
  3
ANSI_932
  9
$INSBASE
 10
0.0
 20
0.0
 30
0.0
  9
$EXTMIN
 10
23.4820384756299
 20
23.09367406143832
 30
0.0
  9
$EXTMAX
 10
709.6340834120984
 20
400.8229355609469
 30
0.0
  9
$LIMMIN
 10
0.0
 20
0.0
  9
$LIMMAX
 10
297.0
 20
210.0
  9
$ORTHOMODE
 70
     1
  9
$REGENMODE
 70
     1
  9
$FILLMODE
 70
     1
  9
$QTEXTMODE
 70
     0
  9
$MIRRTEXT
 70
     0
  9
$DRAGMODE
 70
     2
  9
$LTSCALE
 40
2.0
  9
$OSMODE
 70
    37
  9
$ATTMODE
 70
     1
  9
$TEXTSIZE
 40
2.0
  9
$TRACEWID
 40
1.0
  9
$TEXTSTYLE
  7
STANDARD
  9
$CLAYER
  8
0
  9
$CELTYPE
  6
BYLAYER
  9
$CECOLOR
 62
   256
  9
$CELTSCALE
 40
1.0
  9
$DELOBJ
 70
     1
  9
$DISPSILH
 70
     0
  9
$DIMSCALE
 40
2.0
  9
$DIMASZ
 40
1.8
  9
$DIMEXO
 40
0.625
  9
$DIMDLI
 40
3.75
  9
$DIMRND
 40
0.0
  9
$DIMDLE
 40
0.0
  9
$DIMEXE
 40
0.8
  9
$DIMTP
 40
0.0
  9
$DIMTM
 40
0.0
  9
$DIMTXT
 40
1.8
  9
$DIMCEN
 40
2.5
  9
$DIMTSZ
 40
0.0
  9
$DIMTOL
 70
     0
  9
$DIMLIM
 70
     0
  9
$DIMTIH
 70
     0
  9
$DIMTOH
 70
     0
  9
$DIMSE1
 70
     0
  9
$DIMSE2
 70
     0
  9
$DIMTAD
 70
     1
  9
$DIMZIN
 70
     8
  9
$DIMBLK
  1

  9
$DIMASO
 70
     1
  9
$DIMSHO
 70
     1
  9
$DIMPOST
  1

  9
$DIMAPOST
  1

  9
$DIMALT
 70
     0
  9
$DIMALTD
 70
     4
  9
$DIMALTF
 40
0.0394
  9
$DIMLFAC
 40
1.0
  9
$DIMTOFL
 70
     1
  9
$DIMTVP
 40
0.0
  9
$DIMTIX
 70
     0
  9
$DIMSOXD
 70
     0
  9
$DIMSAH
 70
     0
  9
$DIMBLK1
  1

  9
$DIMBLK2
  1

  9
$DIMSTYLE
  2
STANDARD
  9
$DIMCLRD
 70
     0
  9
$DIMCLRE
 70
     0
  9
$DIMCLRT
 70
     0
  9
$DIMTFAC
 40
1.0
  9
$DIMGAP
 40
0.75
  9
$DIMJUST
 70
     0
  9
$DIMSD1
 70
     0
  9
$DIMSD2
 70
     0
  9
$DIMTOLJ
 70
     1
  9
$DIMTZIN
 70
     0
  9
$DIMALTZ
 70
     0
  9
$DIMALTTZ
 70
     0
  9
$DIMFIT
 70
     3
  9
$DIMUPT
 70
     0
  9
$DIMUNIT
 70
     8
  9
$DIMDEC
 70
     2
  9
$DIMTDEC
 70
     2
  9
$DIMALTU
 70
     8
  9
$DIMALTTD
 70
     4
  9
$DIMTXSTY
  7
STANDARD
  9
$DIMAUNIT
 70
     0
  9
$LUNITS
 70
     2
  9
$LUPREC
 70
     3
  9
$SKETCHINC
 40
1.0
  9
$FILLETRAD
 40
10.0
  9
$AUNITS
 70
     0
  9
$AUPREC
 70
     2
  9
$MENU
  1
.
  9
$ELEVATION
 40
0.0
  9
$PELEVATION
 40
0.0
  9
$THICKNESS
 40
0.0
  9
$LIMCHECK
 70
     0
  9
$BLIPMODE
 70
     0
  9
$CHAMFERA
 40
0.0
  9
$CHAMFERB
 40
0.0
  9
$CHAMFERC
 40
20.0
  9
$CHAMFERD
 40
0.0
  9
$SKPOLY
 70
     0
  9
$TDCREATE
 40
2453557.748493009
  9
$TDUPDATE
 40
2453615.573789421
  9
$TDINDWG
 40
0.3037742477
  9
$TDUSRTIMER
 40
0.3037742477
  9
$USRTIMER
 70
     1
  9
$ANGBASE
 50
0.0
  9
$ANGDIR
 70
     0
  9
$PDMODE
 70
     0
  9
$PDSIZE
 40
-10.0
  9
$PLINEWID
 40
0.0
  9
$COORDS
 70
     2
  9
$SPLFRAME
 70
     0
  9
$SPLINETYPE
 70
     6
  9
$SPLINESEGS
 70
     8
  9
$ATTDIA
 70
     0
  9
$ATTREQ
 70
     1
  9
$HANDLING
 70
-16383
  9
$HANDSEED
  5
20EE
  9
$SURFTAB1
 70
     6
  9
$SURFTAB2
 70
     6
  9
$SURFTYPE
 70
     6
  9
$SURFU
 70
     6
  9
$SURFV
 70
     6
  9
$UCSNAME
  2

  9
$UCSORG
 10
0.0
 20
0.0
 30
0.0
  9
$UCSXDIR
 10
1.0
 20
0.0
 30
0.0
  9
$UCSYDIR
 10
0.0
 20
1.0
 30
0.0
  9
$PUCSNAME
  2

  9
$PUCSORG
 10
0.0
 20
0.0
 30
0.0
  9
$PUCSXDIR
 10
1.0
 20
0.0
 30
0.0
  9
$PUCSYDIR
 10
0.0
 20
1.0
 30
0.0
  9
$USERI1
 70
     0
  9
$USERI2
 70
     0
  9
$USERI3
 70
     0
  9
$USERI4
 70
     0
  9
$USERI5
 70
     0
  9
$USERR1
 40
0.0
  9
$USERR2
 40
0.0
  9
$USERR3
 40
0.0
  9
$USERR4
 40
0.0
  9
$USERR5
 40
0.0
  9
$WORLDVIEW
 70
     1
  9
$SHADEDGE
 70
     3
  9
$SHADEDIF
 70
    70
  9
$TILEMODE
 70
     1
  9
$MAXACTVP
 70
    48
  9
$PINSBASE
 10
0.0
 20
0.0
 30
0.0
  9
$PLIMCHECK
 70
     0
  9
$PEXTMIN
 10
3.0
 20
3.999999999999998
 30
0.0
  9
$PEXTMAX
 10
280.0
 20
194.0
 30
0.0
  9
$PLIMMIN
 10
-5.873748779296875
 20
-5.873749732971191
  9
$PLIMMAX
 10
291.05224609375
 20
204.0995779037475
  9
$UNITMODE
 70
     0
  9
$VISRETAIN
 70
     1
  9
$PLINEGEN
 70
     0
  9
$PSLTSCALE
 70
     0
  9
$TREEDEPTH
 70
  3020
  9
$PICKSTYLE
 70
     1
  9
$CMLSTYLE
  2
STANDARD
  9
$CMLJUST
 70
     0
  9
$CMLSCALE
 40
1.0
  9
$PROXYGRAPHICS
 70
     1
  9
$MEASUREMENT
 70
     0
  0
ENDSEC
  0
SECTION
  2
CLASSES
  0
CLASS
  1
DICTIONARYVAR
  2
AcDbDictionaryVar
  3
AutoCAD 2000
 90
        0
280
     0
281
     0
  0
CLASS
  1
ACDBDICTIONARYWDFLT
  2
AcDbDictionaryWithDefault
  3
AutoCAD 2000
 90
        0
280
     0
281
     0
  0
CLASS
  1
ACDBPLACEHOLDER
  2
AcDbPlaceHolder
  3
AutoCAD 2000
 90
        0
280
     0
281
     0
  0
CLASS
  1
LAYOUT
  2
AcDbLayout
  3
AutoCAD 2000
 90
        0
280
     0
281
     0
  0
CLASS
  1
LONG_TRANSACTION
  2
AcDbLongTransaction
  3
AutoCAD 2000
 90
        0
280
     0
281
     0
  0
CLASS
  1
LWPOLYLINE
  2
AcDbPolyline
  3
AutoCAD 2000
 90
        0
280
     0
281
     1
  0
CLASS
  1
HATCH
  2
AcDbHatch
  3
AutoCAD 2000
 90
        0
280
     0
281
     1
  0
CLASS
  1
XRECORD
  2
AcDbXrecord
  3
AutoCAD 2000
 90
        0
280
     0
281
     0
  0
ENDSEC
  0
SECTION
  2
TABLES
  0
TABLE
  2
VPORT
  5
6E
330
0
100
AcDbSymbolTable
 70
     2
  0
VPORT
  5
20BF
330
6E
100
AcDbSymbolTableRecord
100
AcDbViewportTableRecord
  2
*ACTIVE
 70
     0
 10
0.0
 20
0.0
 11
1.0
 21
1.0
 12
371.7785718608991
 22
211.9555558070964
 13
0.0
 23
0.0
 14
10.0
 24
10.0
 15
10.0
 25
10.0
 16
0.0
 26
0.0
 36
1.0
 17
0.0
 27
0.0
 37
0.0
 40
446.8161434059616
 41
1.566970091027308
 42
50.0
 43
0.0
 44
0.0
 50
0.0
 51
0.0
 71
     0
 72
   100
 73
     1
 74
     3
 75
     0
 76
     0
 77
     0
 78
     0
  0
ENDTAB
  0
TABLE
  2
LTYPE
  5
69
330
0
100
AcDbSymbolTable
 70
     3
  0
LTYPE
  5
6A
330
69
100
AcDbSymbolTableRecord
100
AcDbLinetypeTableRecord
  2
BYBLOCK
 70
     0
  3

 72
    65
 73
     0
 40
0.0
  0
LTYPE
  5
6B
330
69
100
AcDbSymbolTableRecord
100
AcDbLinetypeTableRecord
  2
BYLAYER
 70
     0
  3

 72
    65
 73
     0
 40
0.0
  0
LTYPE
  5
8
330
69
100
AcDbSymbolTableRecord
100
AcDbLinetypeTableRecord
  2
CONTINUOUS
 70
     0
  3
Solid line
 72
    65
 73
     0
 40
0.0
  0
LTYPE
  5
27C
330
69
100
AcDbSymbolTableRecord
100
AcDbLinetypeTableRecord
  2
SEKKEI_A2_
 70
     0
  3
center(A2)  ____ _ ____ _ ____ _ ____ _ ____ _ 
 72
    65
 73
     4
 40
14.28749999999999
 49
9.525
 74
     0
 49
-1.587499999999999
 74
     0
 49
1.587499999999999
 74
     0
 49
-1.587499999999999
 74
     0
  0
LTYPE
  5
2B4
330
69
100
AcDbSymbolTableRecord
100
AcDbLinetypeTableRecord
  2
HIDDEN2
 70
     0
  3
Hidden (.5x) _ _ _ _ _ _ _ _ _ _ _ _ _ _ _ _ _
 72
    65
 73
     2
 40
4.762499999999999
 49
3.174999999999999
 74
     0
 49
-1.587499999999999
 74
     0
  0
ENDTAB
  0
TABLE
  2
LAYER
  5
66
330
0
100
AcDbSymbolTable
 70
     9
  0
LAYER
  5
5E
330
66
100
AcDbSymbolTableRecord
100
AcDbLayerTableRecord
  2
0
 70
     0
 62
     7
  6
CONTINUOUS
  0
LAYER
  5
3E
330
66
100
AcDbSymbolTableRecord
100
AcDbLayerTableRecord
  2
CENTER
 70
     0
 62
     3
  6
SEKKEI_A2_
  0
LAYER
  5
4
330
66
100
AcDbSymbolTableRecord
100
AcDbLayerTableRecord
  2
WAKU
 70
     0
 62
     5
  6
CONTINUOUS
  0
LAYER
  5
E4
330
66
100
AcDbSymbolTableRecord
100
AcDbLayerTableRecord
  2
TEXT
 70
     0
 62
     4
  6
CONTINUOUS
  0
LAYER
  5
135
330
66
100
AcDbSymbolTableRecord
100
AcDbLayerTableRecord
  2
DEFPOINTS
 70
     0
 62
     7
  6
CONTINUOUS
  0
LAYER
  5
2B5
330
66
100
AcDbSymbolTableRecord
100
AcDbLayerTableRecord
  2
HIDS
 70
     0
 62
     1
  6
HIDDEN2
  0
LAYER
  5
2BA
330
66
100
AcDbSymbolTableRecord
100
AcDbLayerTableRecord
  2
HOJO
 70
     0
 62
     4
  6
CONTINUOUS
  0
LAYER
  5
3FA
330
66
100
AcDbSymbolTableRecord
100
AcDbLayerTableRecord
  2
TITLE
 70
     0
 62
     4
  6
CONTINUOUS
  0
ENDTAB
  0
TABLE
  2
STYLE
  5
67
330
0
100
AcDbSymbolTable
 70
     1
  0
STYLE
  5
16
330
67
100
AcDbSymbolTableRecord
100
AcDbTextStyleTableRecord
  2
STANDARD
 70
     0
 40
0.0
 41
1.0
 50
0.0
 71
     0
 42
2.0
  3
simplex.shx
  4
extfont.shx
  0
ENDTAB
  0
TABLE
  2
VIEW
  5
6C
330
0
100
AcDbSymbolTable
 70
     0
  0
ENDTAB
  0
TABLE
  2
UCS
  5
6D
330
0
100
AcDbSymbolTable
 70
     0
  0
ENDTAB
  0
TABLE
  2
APPID
  5
70
330
0
100
AcDbSymbolTable
 70
     2
  0
APPID
  5
71
330
70
100
AcDbSymbolTableRecord
100
AcDbRegAppTableRecord
  2
ACAD
 70
     0
  0
APPID
  5
20E3
330
70
100
AcDbSymbolTableRecord
100
AcDbRegAppTableRecord
  2
CONTENTBLOCKICON
 70
     0
  0
ENDTAB
  0
TABLE
  2
DIMSTYLE
  5
72
330
0
100
AcDbSymbolTable
 70
     1
  0
DIMSTYLE
105
73
330
72
100
AcDbSymbolTableRecord
100
AcDbDimStyleTableRecord
  2
STANDARD
 70
     0
  3

  4

  5

  6

  7

 40
2.0
 41
1.8
 42
0.625
 43
3.75
 44
0.8
 45
0.0
 46
0.0
 47
0.0
 48
0.0
140
1.8
141
2.5
142
0.0
143
0.0394
144
1.0
145
0.0
146
1.0
147
0.75
 71
     0
 72
     0
 73
     0
 74
     0
 75
     0
 76
     0
 77
     1
 78
     8
170
     0
171
     4
172
     1
173
     0
174
     0
175
     0
176
     0
177
     0
178
     0
270
     8
271
     2
272
     2
273
     8
274
     4
340
16
275
     0
280
     0
281
     0
282
     0
283
     1
284
     0
285
     0
286
     0
287
     3
288
     0
  0
ENDTAB
  0
TABLE
  2
BLOCK_RECORD
  5
1
330
0
100
AcDbSymbolTable
 70
    57
  0
BLOCK_RECORD
  5
2
102
{ACAD_XDICTIONARY
360
20E1
102
}
330
1
100
AcDbSymbolTableRecord
100
AcDbBlockTableRecord
  2
*MODEL_SPACE
  0
BLOCK_RECORD
  5
1B73
102
{ACAD_XDICTIONARY
360
20E4
102
}
330
1
100
AcDbSymbolTableRecord
100
AcDbBlockTableRecord
  2
*PAPER_SPACE
  0
BLOCK_RECORD
  5
40C
330
1
100
AcDbSymbolTableRecord
100
AcDbBlockTableRecord
  2
外寸枠A4テンプレート
1001
CONTENTBLOCKICON
1071
        0
1004
2800000020000000200000000100080000000000000400000000000000000000000000000000000000000000000080000080000000808000800000008000800080800000C0C0C000C0DCC000F0CAA6000020400000206000002080000020A0000020C0000020E00000400000004020000040400000406000004080000040A0
1004
000040C0000040E00000600000006020000060400000606000006080000060A0000060C0000060E00000800000008020000080400000806000008080000080A0000080C0000080E00000A0000000A0200000A0400000A0600000A0800000A0A00000A0C00000A0E00000C0000000C0200000C0400000C0600000C0800000C0
1004
A00000C0C00000C0E00000E0000000E0200000E0400000E0600000E0800000E0A00000E0C00000E0E00040000000400020004000400040006000400080004000A0004000C0004000E00040200000402020004020400040206000402080004020A0004020C0004020E000404000004040200040404000404060004040800040
1004
40A0004040C0004040E00040600000406020004060400040606000406080004060A0004060C0004060E00040800000408020004080400040806000408080004080A0004080C0004080E00040A0000040A0200040A0400040A0600040A0800040A0A00040A0C00040A0E00040C0000040C0200040C0400040C0600040C08000
1004
40C0A00040C0C00040C0E00040E0000040E0200040E0400040E0600040E0800040E0A00040E0C00040E0E00080000000800020008000400080006000800080008000A0008000C0008000E00080200000802020008020400080206000802080008020A0008020C0008020E00080400000804020008040400080406000804080
1004
008040A0008040C0008040E00080600000806020008060400080606000806080008060A0008060C0008060E00080800000808020008080400080806000808080008080A0008080C0008080E00080A0000080A0200080A0400080A0600080A0800080A0A00080A0C00080A0E00080C0000080C0200080C0400080C0600080C0
1004
800080C0A00080C0C00080C0E00080E0000080E0200080E0400080E0600080E0800080E0A00080E0C00080E0E000C0000000C0002000C0004000C0006000C0008000C000A000C000C000C000E000C0200000C0202000C0204000C0206000C0208000C020A000C020C000C020E000C0400000C0402000C0404000C0406000C0
1004
408000C040A000C040C000C040E000C0600000C0602000C0604000C0606000C0608000C060A000C060C000C060E000C0800000C0802000C0804000C0806000C0808000C080A000C080C000C080E000C0A00000C0A02000C0A04000C0A06000C0A08000C0A0A000C0A0C000C0A0E000C0C00000C0C02000C0C04000C0C06000
1004
C0C08000C0C0A000F0FBFF00A4A0A000808080000000FF0000FF000000FFFF00FF000000FF00FF00FFFF0000FFFFFF0000000000000000000000000000000000000000000000000000000000000000000000000000000000000000000000000000000000000000000000000000000000000000000000000000000000000000
1004
000000000000000000000000000000000000000000000000000000000000000000000000000000000000000000000000000000000000000000000000000000000000000000000000000000000000000000000000000000000000000000000000000000000000000000000000000000000000FCFCFCFCFCFCFCFCFCFCFCFCFC
1004
FCFCFCFCFCFCFCFCFEFEFEFDFDFCFDFDFD0000FC0000000000000000000000000000000000000000FDFDFDFDFDFDFDFDFD0000FC0000000000000000000000000000000000000000FDFDFEFEFEFEFDFDFD0000FC0000000000000000000000000000000000000000FDFCFEFEFEFEFCFCFC0000FC0000000000000000000000
1004
0000000000000000000000000000000000FC0000FC00000000000000000000000000000000000000000000000000000000FC0000FC00000000000000000000000000000000000000000000000000000000FC0000FC00000000000000000000000000000000000000000000000000000000FC0000FC00000000000000000000
1004
000000000000000000000000000000000000FC0000FC00000000000000000000000000000000000000000000000000000000FC0000FC00000000000000000000000000000000000000000000000000000000FC0000FC00000000000000000000000000000000000000000000000000000000FC0000FC000000000000000000
1004
00000000000000000000000000000000000000FC0000FC00000000000000000000000000000000000000000000000000000000FC0000FC00000000000000000000000000000000000000000000000000000000FC0000FC00000000000000000000000000000000000000000000000000000000FC0000FC0000000000000000
1004
0000000000000000000000000000000000000000FC0000FC00000000000000000000000000000000000000000000000000000000FC0000FC00000000000000000000000000000000000000000000FCFCFCFCFCFCFC0000FCFCFCFCFCFCFCFCFCFCFCFCFCFCFCFCFCFCFCFCFCFCFCFCFDFCFCFCFCFC00000000000000000000
1004
00000000000000000000000000000000000000000000000000000000000000000000000000000000000000000000000000000000000000000000000000000000000000000000000000000000000000000000000000000000000000000000000000000000000000000000000000000000000000000000000000000000000000
1004
0000000000000000000000000000000000000000000000000000000000000000000000000000000000000000000000000000000000000000
  0
BLOCK_RECORD
  5
1B34
330
1
100
AcDbSymbolTableRecord
100
AcDbBlockTableRecord
  2
1
  0
BLOCK_RECORD
  5
1C05
330
1
100
AcDbSymbolTableRecord
100
AcDbBlockTableRecord
  2
GSPEC_F2F-15T-10-120
  0
BLOCK_RECORD
  5
1C23
330
1
100
AcDbSymbolTableRecord
100
AcDbBlockTableRecord
  2
GSPEC_F2F-15T-10-240
  0
BLOCK_RECORD
  5
1D09
330
1
100
AcDbSymbolTableRecord
100
AcDbBlockTableRecord
  2
MSPEC_T40-75
  0
BLOCK_RECORD
  5
1D2F
330
1
100
AcDbSymbolTableRecord
100
AcDbBlockTableRecord
  2
MSPEC_S15-75
  0
BLOCK_RECORD
  5
1D55
330
1
100
AcDbSymbolTableRecord
100
AcDbBlockTableRecord
  2
MSPEC_S15W-75
  0
BLOCK_RECORD
  5
1D7B
330
1
100
AcDbSymbolTableRecord
100
AcDbBlockTableRecord
  2
MSPEC_S25-75
  0
BLOCK_RECORD
  5
1DA1
330
1
100
AcDbSymbolTableRecord
100
AcDbBlockTableRecord
  2
MSPEC_S25W-75
  0
ENDTAB
  0
ENDSEC
  0
SECTION
  2
BLOCKS
  0
BLOCK
  5
5D
330
2
100
AcDbEntity
  8
0
100
AcDbBlockBegin
  2
*MODEL_SPACE
 70
     0
 10
0.0
 20
0.0
 30
0.0
  3
*MODEL_SPACE
  1

  0
ENDBLK
  5
5F
330
2
100
AcDbEntity
  8
0
100
AcDbBlockEnd
  0
BLOCK
  5
1B80
330
1B73
100
AcDbEntity
 67
     1
  8
0
100
AcDbBlockBegin
  2
*PAPER_SPACE
 70
     0
 10
0.0
 20
0.0
 30
0.0
  3
*PAPER_SPACE
  1

  0
ENDBLK
  5
1B81
330
1B73
100
AcDbEntity
 67
     1
  8
0
100
AcDbBlockEnd
  0
BLOCK
  5
463
330
40C
100
AcDbEntity
  8
0
100
AcDbBlockBegin
  2
外寸枠A4テンプレート
 70
     2
 10
0.0
 20
0.0
 30
0.0
  3
外寸枠A4テンプレート
  1

  0
LWPOLYLINE
  5
40D
330
40C
100
AcDbEntity
  8
WAKU
100
AcDbPolyline
 90
        4
 70
     1
 43
0.0
 10
3.0
 20
4.0
 10
280.0
 20
4.0
 10
280.0
 20
194.0
 10
3.0
 20
194.0
  0
LWPOLYLINE
  5
40E
330
40C
100
AcDbEntity
  8
WAKU
100
AcDbPolyline
 90
        4
 70
     1
 43
0.0
 10
3.0
 20
4.0
 10
280.0
 20
4.0
 10
280.0
 20
194.0
 10
3.0
 20
194.0
  0
LINE
  5
40F
330
40C
100
AcDbEntity
  8
WAKU
100
AcDbLine
 10
280.0
 20
182.0
 30
0.0
 11
226.4018178786999
 21
182.0
 31
0.0
  0
TEXT
  5
410
330
40C
100
AcDbEntity
  8
WAKU
 62
     6
100
AcDbText
 10
228.3816999999999
 20
190.11095
 30
0.0
 40
2.1213
  1
REVISIONS
 41
0.7
100
AcDbText
  0
LINE
  5
411
330
40C
100
AcDbEntity
  8
WAKU
100
AcDbLine
 10
226.4018178786999
 20
194.0
 30
0.0
 11
226.4018178786999
 21
181.9999999999999
 31
0.0
  0
LINE
  5
412
330
40C
100
AcDbEntity
  8
WAKU
 62
     6
100
AcDbLine
 10
203.6331999999998
 20
29.0030567071
 30
0.0
 11
280.0
 21
29.0030567071
 31
0.0
  0
LINE
  5
413
330
40C
100
AcDbEntity
  8
WAKU
 62
     6
100
AcDbLine
 10
203.6331999999998
 20
24.47761529289999
 30
0.0
 11
280.0
 21
24.47761529289999
 31
0.0
  0
LINE
  5
414
330
40C
100
AcDbEntity
  8
WAKU
 62
     6
100
AcDbLine
 10
203.6331999999998
 20
19.9521752929
 30
0.0
 11
280.0
 21
19.9521752929
 31
0.0
  0
LINE
  5
415
330
40C
100
AcDbEntity
  8
WAKU
 62
     6
100
AcDbLine
 10
203.6331999999998
 20
15.42673599999999
 30
0.0
 11
280.0
 21
15.42673599999999
 31
0.0
  0
LINE
  5
416
330
40C
100
AcDbEntity
  8
WAKU
 62
     6
100
AcDbLine
 10
203.6331999999998
 20
29.0030567071
 30
0.0
 11
280.0
 21
29.0030567071
 31
0.0
  0
LINE
  5
417
330
40C
100
AcDbEntity
  8
WAKU
 62
     6
100
AcDbLine
 10
203.6331999999998
 20
24.47761529289999
 30
0.0
 11
280.0
 21
24.47761529289999
 31
0.0
  0
LINE
  5
418
330
40C
100
AcDbEntity
  8
WAKU
 62
     6
100
AcDbLine
 10
203.6331999999998
 20
19.9521752929
 30
0.0
 11
280.0
 21
19.9521752929
 31
0.0
  0
LINE
  5
419
330
40C
100
AcDbEntity
  8
WAKU
 62
     6
100
AcDbLine
 10
203.6331999999998
 20
15.42673599999999
 30
0.0
 11
280.0
 21
15.42673599999999
 31
0.0
  0
LINE
  5
41A
330
40C
100
AcDbEntity
  8
WAKU
 62
     6
100
AcDbLine
 10
203.6331999999998
 20
29.0030567071
 30
0.0
 11
280.0
 21
29.0030567071
 31
0.0
  0
LINE
  5
41B
330
40C
100
AcDbEntity
  8
WAKU
 62
     6
100
AcDbLine
 10
203.6331999999998
 20
24.47761529289999
 30
0.0
 11
280.0
 21
24.47761529289999
 31
0.0
  0
LINE
  5
41C
330
40C
100
AcDbEntity
  8
WAKU
 62
     6
100
AcDbLine
 10
203.6331999999998
 20
19.9521752929
 30
0.0
 11
280.0
 21
19.9521752929
 31
0.0
  0
LINE
  5
41D
330
40C
100
AcDbEntity
  8
WAKU
 62
     6
100
AcDbLine
 10
203.6331999999998
 20
15.42673599999999
 30
0.0
 11
280.0
 21
15.42673599999999
 31
0.0
  0
LINE
  5
41E
330
40C
100
AcDbEntity
  8
WAKU
100
AcDbLine
 10
203.6331999999998
 20
38.053936
 30
0.0
 11
280.0
 21
38.053936
 31
0.0
  0
LINE
  5
41F
330
40C
100
AcDbEntity
  8
WAKU
100
AcDbLine
 10
203.6331999999998
 20
38.053936
 30
0.0
 11
280.0
 21
38.053936
 31
0.0
  0
LINE
  5
420
330
40C
100
AcDbEntity
  8
WAKU
100
AcDbLine
 10
203.6331999999998
 20
38.053936
 30
0.0
 11
280.0
 21
38.053936
 31
0.0
  0
TEXT
  5
421
330
40C
100
AcDbEntity
  8
WAKU
 62
     6
100
AcDbText
 10
231.4464545235218
 20
12.856420429
 30
0.0
 40
1.76775
  1
SCALE
 41
0.7
100
AcDbText
  0
TEXT
  5
422
330
40C
100
AcDbEntity
  8
TEXT
100
AcDbText
 10
228.8293221750166
 20
29.96641277760619
 30
0.0
 40
2.5
  1
外　形　寸　法　図
100
AcDbText
  0
ATTDEF
  5
423
330
40C
100
AcDbEntity
  8
TEXT
100
AcDbText
 10
241.8165999999999
 20
35.58735183158626
 30
0.0
 40
2.500000000000001
  1

 72
     4
 11
241.8165999999999
 21
35.58735183158626
 31
0.0
100
AcDbAttributeDefinition
  3
タイトル
  2
T　I　T　L　E
 70
     0
  0
LINE
  5
424
330
40C
100
AcDbEntity
  8
WAKU
100
AcDbLine
 10
203.6331999999998
 20
38.053936
 30
0.0
 11
203.6331999999998
 21
3.999999999999998
 31
0.0
  0
LINE
  5
425
330
40C
100
AcDbEntity
  8
WAKU
100
AcDbLine
 10
203.6331999999998
 20
38.053936
 30
0.0
 11
203.6331999999998
 21
3.999999999999998
 31
0.0
  0
LINE
  5
426
330
40C
100
AcDbEntity
  8
WAKU
100
AcDbLine
 10
203.6331999999998
 20
38.053936
 30
0.0
 11
203.6331999999998
 21
3.999999999999998
 31
0.0
  0
TEXT
  5
427
330
40C
100
AcDbEntity
  8
WAKU
 62
     6
100
AcDbText
 10
204.7645642425999
 20
25.805189179
 30
0.0
 40
2.1213
  1
DRAWING  NO.
 41
0.7
100
AcDbText
  0
TEXT
  5
428
330
40C
100
AcDbEntity
  8
WAKU
 62
     6
100
AcDbText
 10
204.7645642425999
 20
16.75430988609998
 30
0.0
 40
2.1213
  1
NOTICE
 41
0.7
100
AcDbText
  0
TEXT
  5
429
330
40C
100
AcDbEntity
  8
WAKU
 62
     6
100
AcDbText
 10
204.8446469479863
 20
12.674695729
 30
0.0
 40
1.8097340625
  1
APPROVE
 41
0.512174
100
AcDbText
  0
TEXT
  5
42A
330
40C
100
AcDbEntity
  8
WAKU
 62
     6
100
AcDbText
 10
204.7645642425999
 20
21.279749179
 30
0.0
 40
2.1213
  1
USER
 41
0.7
100
AcDbText
  0
TEXT
  5
42B
330
40C
100
AcDbEntity
  8
WAKU
 62
     6
100
AcDbText
 10
222.3147516895863
 20
12.6973292929
 30
0.0
 40
1.7832163983
  1
DESIGN
 41
0.5729449999999999
100
AcDbText
  0
LINE
  5
42C
330
40C
100
AcDbEntity
  8
WAKU
 62
     6
100
AcDbLine
 10
212.3823646725999
 20
15.42673599999999
 30
0.0
 11
212.3823646725999
 21
3.999999999999998
 31
0.0
  0
LINE
  5
42D
330
40C
100
AcDbEntity
  8
WAKU
 62
     6
100
AcDbLine
 10
212.3823646725999
 20
15.42673599999999
 30
0.0
 11
212.3823646725999
 21
3.999999999999998
 31
0.0
  0
LINE
  5
42E
330
40C
100
AcDbEntity
  8
WAKU
 62
     6
100
AcDbLine
 10
212.3823646725999
 20
15.42673599999999
 30
0.0
 11
212.3823646725999
 21
3.999999999999998
 31
0.0
  0
LINE
  5
42F
330
40C
100
AcDbEntity
  8
WAKU
 62
     6
100
AcDbLine
 10
221.1033047415999
 20
15.42673599999999
 30
0.0
 11
221.1033047415999
 21
3.999999999999998
 31
0.0
  0
LINE
  5
430
330
40C
100
AcDbEntity
  8
WAKU
 62
     6
100
AcDbLine
 10
221.1033047415999
 20
15.42673599999999
 30
0.0
 11
221.1033047415999
 21
3.999999999999998
 31
0.0
  0
LINE
  5
431
330
40C
100
AcDbEntity
  8
WAKU
 62
     6
100
AcDbLine
 10
221.1033047415999
 20
15.42673599999999
 30
0.0
 11
221.1033047415999
 21
3.999999999999998
 31
0.0
  0
TEXT
  5
432
330
40C
100
AcDbEntity
  8
WAKU
 62
     6
100
AcDbText
 10
213.5938010140863
 20
12.674695729
 30
0.0
 40
1.76775
  1
CHECK
 41
0.7
100
AcDbText
  0
LINE
  5
433
330
40C
100
AcDbEntity
  8
WAKU
 62
     6
100
AcDbLine
 10
229.8241790502999
 20
15.42673599999999
 30
0.0
 11
229.8241790502999
 21
3.999999999999998
 31
0.0
  0
LINE
  5
434
330
40C
100
AcDbEntity
  8
WAKU
 62
     6
100
AcDbLine
 10
229.8241790502999
 20
15.42673599999999
 30
0.0
 11
229.8241790502999
 21
3.999999999999998
 31
0.0
  0
LINE
  5
435
330
40C
100
AcDbEntity
  8
WAKU
 62
     6
100
AcDbLine
 10
229.8241790502999
 20
15.42673599999999
 30
0.0
 11
229.8241790502999
 21
3.999999999999998
 31
0.0
  0
TEXT
  5
436
330
40C
100
AcDbEntity
  8
WAKU
 62
     6
100
AcDbText
 10
204.7645642425999
 20
35.31568488609999
 30
0.0
 40
2.1213
  1
TITLE
 41
0.7
100
AcDbText
  0
ATTDEF
  5
437
330
40C
100
AcDbEntity
  8
TEXT
100
AcDbText
 10
234.056163734276
 20
8.134449518875573
 30
0.0
 40
2.0
  1

 72
     4
 11
234.056163734276
 21
8.134449518875573
 31
0.0
100
AcDbAttributeDefinition
  3
SCALE
  2
FREE
 70
     0
  0
ATTDEF
  5
438
330
40C
100
AcDbEntity
  8
TEXT
100
AcDbText
 10
207.865184683976
 20
8.134449518875573
 30
0.0
 40
2.500000000000004
  1

 72
     4
 11
207.865184683976
 21
8.134449518875573
 31
0.0
100
AcDbAttributeDefinition
  3
承認
  2
海野
 70
     0
  0
ATTDEF
  5
439
330
40C
100
AcDbEntity
  8
TEXT
100
AcDbText
 10
225.335289425576
 20
8.134449518875575
 30
0.0
 40
2.500000000000004
  1

 72
     4
 11
225.335289425576
 21
8.134449518875575
 31
0.0
100
AcDbAttributeDefinition
  3
作成
  2
鳥居
 70
     0
  0
ATTDEF
  5
43A
330
40C
100
AcDbEntity
  8
TEXT
100
AcDbText
 10
216.614349356576
 20
8.134449518875575
 30
0.0
 40
2.500000000000004
  1

 72
     4
 11
216.614349356576
 21
8.134449518875575
 31
0.0
100
AcDbAttributeDefinition
  3
確認
  2
永坂
 70
     0
  0
LINE
  5
43B
330
40C
100
AcDbEntity
  8
WAKU
 62
     6
100
AcDbLine
 10
238.6487948283999
 20
8.638576
 30
0.0
 11
280.0
 21
8.638576
 31
0.0
  0
LINE
  5
43C
330
40C
100
AcDbEntity
  8
WAKU
 62
     6
100
AcDbLine
 10
238.6487948283999
 20
8.638576
 30
0.0
 11
280.0
 21
8.638576
 31
0.0
  0
LINE
  5
43D
330
40C
100
AcDbEntity
  8
WAKU
 62
     6
100
AcDbLine
 10
238.6487948283999
 20
8.638576
 30
0.0
 11
280.0
 21
8.638576
 31
0.0
  0
TEXT
  5
43E
330
40C
100
AcDbEntity
  8
WAKU
 62
     6
100
AcDbText
 10
241.15294501234
 20
5.246258800300003
 30
0.0
 40
2.1213
  1
NISSEI  CORPORATION
100
AcDbText
  0
LINE
  5
43F
330
40C
100
AcDbEntity
  8
WAKU
100
AcDbLine
 10
246.5683127070999
 20
13.02259600000001
 30
0.0
 11
250.5280769496998
 21
14.01253599999999
 31
0.0
  0
LINE
  5
440
330
40C
100
AcDbEntity
  8
WAKU
100
AcDbLine
 10
246.5683127070999
 20
13.02259600000001
 30
0.0
 11
250.5280769496998
 21
14.01253599999999
 31
0.0
  0
LINE
  5
441
330
40C
100
AcDbEntity
  8
WAKU
100
AcDbLine
 10
246.5683127070999
 20
13.02259600000001
 30
0.0
 11
250.5280769496998
 21
14.01253599999999
 31
0.0
  0
LINE
  5
442
330
40C
100
AcDbEntity
  8
WAKU
100
AcDbLine
 10
246.5683127070999
 20
11.0427152929
 30
0.0
 11
250.5280769496998
 21
10.052776
 31
0.0
  0
LINE
  5
443
330
40C
100
AcDbEntity
  8
WAKU
100
AcDbLine
 10
246.5683127070999
 20
11.0427152929
 30
0.0
 11
250.5280769496998
 21
10.052776
 31
0.0
  0
LINE
  5
444
330
40C
100
AcDbEntity
  8
WAKU
100
AcDbLine
 10
246.5683127070999
 20
11.0427152929
 30
0.0
 11
250.5280769496998
 21
10.052776
 31
0.0
  0
LINE
  5
445
330
40C
100
AcDbEntity
  8
CENTER
 62
     6
100
AcDbLine
 10
239.4478107573998
 20
12.0326567071
 30
0.0
 11
251.3624499999998
 21
12.0326567071
 31
0.0
  0
LINE
  5
446
330
40C
100
AcDbEntity
  8
CENTER
 62
     6
100
AcDbLine
 10
239.4478107573998
 20
12.0326567071
 30
0.0
 11
251.3624499999998
 21
12.0326567071
 31
0.0
  0
LINE
  5
447
330
40C
100
AcDbEntity
  8
CENTER
 62
     6
100
AcDbLine
 10
239.4478107573998
 20
12.0326567071
 30
0.0
 11
251.3624499999998
 21
12.0326567071
 31
0.0
  0
LINE
  5
448
330
40C
100
AcDbEntity
  8
WAKU
 62
     6
100
AcDbLine
 10
238.6487948283999
 20
15.42673599999999
 30
0.0
 11
238.6487948283999
 21
3.999999999999998
 31
0.0
  0
LINE
  5
449
330
40C
100
AcDbEntity
  8
WAKU
 62
     6
100
AcDbLine
 10
238.6487948283999
 20
15.42673599999999
 30
0.0
 11
238.6487948283999
 21
3.999999999999998
 31
0.0
  0
LINE
  5
44A
330
40C
100
AcDbEntity
  8
WAKU
 62
     6
100
AcDbLine
 10
238.6487948283999
 20
15.42673599999999
 30
0.0
 11
238.6487948283999
 21
3.999999999999998
 31
0.0
  0
CIRCLE
  5
44B
330
40C
100
AcDbEntity
  8
WAKU
100
AcDbCircle
 10
242.0428769496999
 20
12.0326567071
 30
0.0
 40
0.9899399999999999
  0
CIRCLE
  5
44C
330
40C
100
AcDbEntity
  8
WAKU
100
AcDbCircle
 10
242.0428769496999
 20
12.0326567071
 30
0.0
 40
0.9899399999999999
  0
CIRCLE
  5
44D
330
40C
100
AcDbEntity
  8
WAKU
100
AcDbCircle
 10
242.0428769496999
 20
12.0326567071
 30
0.0
 40
0.9899399999999999
  0
CIRCLE
  5
44E
330
40C
100
AcDbEntity
  8
WAKU
100
AcDbCircle
 10
242.0428769496999
 20
12.0326567071
 30
0.0
 40
1.979879999999999
  0
CIRCLE
  5
44F
330
40C
100
AcDbEntity
  8
WAKU
100
AcDbCircle
 10
242.0428769496999
 20
12.0326567071
 30
0.0
 40
1.979879999999999
  0
CIRCLE
  5
450
330
40C
100
AcDbEntity
  8
WAKU
100
AcDbCircle
 10
242.0428769496999
 20
12.0326567071
 30
0.0
 40
1.979879999999999
  0
LINE
  5
451
330
40C
100
AcDbEntity
  8
WAKU
100
AcDbLine
 10
246.5683127070999
 20
13.02259600000001
 30
0.0
 11
246.5683127070999
 21
11.0427152929
 31
0.0
  0
LINE
  5
452
330
40C
100
AcDbEntity
  8
WAKU
100
AcDbLine
 10
246.5683127070999
 20
13.02259600000001
 30
0.0
 11
246.5683127070999
 21
11.0427152929
 31
0.0
  0
LINE
  5
453
330
40C
100
AcDbEntity
  8
WAKU
100
AcDbLine
 10
246.5683127070999
 20
13.02259600000001
 30
0.0
 11
246.5683127070999
 21
11.0427152929
 31
0.0
  0
LINE
  5
454
330
40C
100
AcDbEntity
  8
CENTER
 62
     6
100
AcDbLine
 10
242.0428769496999
 20
14.96005
 30
0.0
 11
242.0428769496999
 21
9.267895000000009
 31
0.0
  0
LINE
  5
455
330
40C
100
AcDbEntity
  8
CENTER
 62
     6
100
AcDbLine
 10
242.0428769496999
 20
14.96005
 30
0.0
 11
242.0428769496999
 21
9.267895000000009
 31
0.0
  0
LINE
  5
456
330
40C
100
AcDbEntity
  8
CENTER
 62
     6
100
AcDbLine
 10
242.0428769496999
 20
14.96005
 30
0.0
 11
242.0428769496999
 21
9.267895000000009
 31
0.0
  0
TEXT
  5
457
330
40C
100
AcDbEntity
  8
TEXT
100
AcDbText
 10
257.3078171288039
 20
9.492177985111482
 30
0.0
 40
2.0
  1
mm
100
AcDbText
  0
LINE
  5
458
330
40C
100
AcDbEntity
  8
WAKU
 62
     6
100
AcDbLine
 10
252.2251127070999
 20
15.42673599999999
 30
0.0
 11
252.2251127070999
 21
8.638576
 31
0.0
  0
LINE
  5
459
330
40C
100
AcDbEntity
  8
WAKU
 62
     6
100
AcDbLine
 10
252.2251127070999
 20
15.42673599999999
 30
0.0
 11
252.2251127070999
 21
8.638576
 31
0.0
  0
LINE
  5
45A
330
40C
100
AcDbEntity
  8
WAKU
 62
     6
100
AcDbLine
 10
252.2251127070999
 20
15.42673599999999
 30
0.0
 11
252.2251127070999
 21
8.638576
 31
0.0
  0
LINE
  5
45B
330
40C
100
AcDbEntity
  8
WAKU
100
AcDbLine
 10
250.5280769496998
 20
14.01253599999999
 30
0.0
 11
250.5280769496998
 21
10.052776
 31
0.0
  0
LINE
  5
45C
330
40C
100
AcDbEntity
  8
WAKU
100
AcDbLine
 10
250.5280769496998
 20
14.01253599999999
 30
0.0
 11
250.5280769496998
 21
10.052776
 31
0.0
  0
LINE
  5
45D
330
40C
100
AcDbEntity
  8
WAKU
100
AcDbLine
 10
250.5280769496998
 20
14.01253599999999
 30
0.0
 11
250.5280769496998
 21
10.052776
 31
0.0
  0
TEXT
  5
45E
330
40C
100
AcDbEntity
  8
WAKU
 62
     6
100
AcDbText
 10
253.4130357573999
 20
13.0508792929
 30
0.0
 40
1.76775
  1
UNIT
 41
0.7
100
AcDbText
  0
TEXT
  5
45F
330
40C
100
AcDbEntity
  8
WAKU
 62
     6
100
AcDbText
 10
266.9893642426
 20
13.0508792929
 30
0.0
 40
1.76775
  1
DATE
 41
0.7
100
AcDbText
  0
LINE
  5
460
330
40C
100
AcDbEntity
  8
WAKU
 62
     6
100
AcDbLine
 10
265.7448611715999
 20
15.42673599999999
 30
0.0
 11
265.7448611715999
 21
8.638576
 31
0.0
  0
LINE
  5
461
330
40C
100
AcDbEntity
  8
WAKU
 62
     6
100
AcDbLine
 10
265.7448611715999
 20
15.42673599999999
 30
0.0
 11
265.7448611715999
 21
8.638576
 31
0.0
  0
LINE
  5
462
330
40C
100
AcDbEntity
  8
WAKU
 62
     6
100
AcDbLine
 10
265.7448611715999
 20
15.42673599999999
 30
0.0
 11
265.7448611715999
 21
8.638576
 31
0.0
  0
ENDBLK
  5
464
330
40C
100
AcDbEntity
  8
0
100
AcDbBlockEnd
  0
BLOCK
  5
1B36
330
1B34
100
AcDbEntity
  8
0
100
AcDbBlockBegin
  2
1
 70
     0
 10
0.0
 20
0.0
 30
0.0
  3
1
  1

  0
TEXT
  5
1B35
330
1B34
100
AcDbEntity
  8
0
100
AcDbText
 10
0.0
 20
0.0
 30
0.0
 40
2.0
  1
注。出力軸キーは JIS B 1301-1976平行キーに依ります。
100
AcDbText
  0
ENDBLK
  5
1B37
330
1B34
100
AcDbEntity
  8
0
100
AcDbBlockEnd
  0
BLOCK
  5
1C20
330
1C05
100
AcDbEntity
  8
0
100
AcDbBlockBegin
  2
GSPEC_F2F-15T-10-120
 70
     0
 10
0.0
 20
0.0
 30
0.0
  3
GSPEC_F2F-15T-10-120
  1

  0
LINE
  5
1C06
330
1C05
100
AcDbEntity
  8
0
100
AcDbLine
 10
131.0
 20
16.78699999999992
 30
0.0
 11
183.0
 21
16.78699999999992
 31
0.0
  0
LINE
  5
1C07
330
1C05
100
AcDbEntity
  8
0
100
AcDbLine
 10
131.0
 20
13.25149999999993
 30
0.0
 11
183.0
 21
13.25149999999993
 31
0.0
  0
LINE
  5
1C08
330
1C05
100
AcDbEntity
  8
0
100
AcDbLine
 10
131.0
 20
20.3224999999999
 30
0.0
 11
183.0
 21
20.3224999999999
 31
0.0
  0
LINE
  5
1C09
330
1C05
100
AcDbEntity
  8
0
100
AcDbLine
 10
131.0
 20
34.46450000000001
 30
0.0
 11
183.0
 21
34.46450000000001
 31
0.0
  0
LINE
  5
1C0A
330
1C05
100
AcDbEntity
  8
0
100
AcDbLine
 10
131.0
 20
30.929
 30
0.0
 11
183.0
 21
30.92899999999997
 31
0.0
  0
LINE
  5
1C0B
330
1C05
100
AcDbEntity
  8
0
100
AcDbLine
 10
131.0
 20
38.0
 30
0.0
 11
183.0
 21
38.0
 31
0.0
  0
LINE
  5
1C0C
330
1C05
100
AcDbEntity
  8
0
100
AcDbLine
 10
131.0
 20
13.25149999999993
 30
0.0
 11
131.0
 21
38.0
 31
0.0
  0
TEXT
  5
1C0D
330
1C05
100
AcDbEntity
  8
0
100
AcDbText
 10
131.6780944417463
 20
17.49409999999991
 30
0.0
 40
2.0
  1
潤滑
100
AcDbText
  0
TEXT
  5
1C0E
330
1C05
100
AcDbEntity
  8
0
100
AcDbText
 10
131.6780944417462
 20
13.86504220928046
 30
0.0
 40
2.0
  1
塗色
100
AcDbText
  0
TEXT
  5
1C0F
330
1C05
100
AcDbEntity
  8
0
100
AcDbText
 10
131.6780944417462
 20
24.60966832202135
 30
0.0
 40
2.0
  1
減速比
100
AcDbText
  0
TEXT
  5
1C10
330
1C05
100
AcDbEntity
  8
0
100
AcDbText
 10
131.6780944417462
 20
31.6361
 30
0.0
 40
2.0
  1
枠番
100
AcDbText
  0
TEXT
  5
1C11
330
1C05
100
AcDbEntity
  8
0
100
AcDbText
 10
131.6780944417462
 20
35.17159999999998
 30
0.0
 40
2.0
  1
名称
100
AcDbText
  0
LINE
  5
1C12
330
1C05
100
AcDbEntity
  8
0
100
AcDbLine
 10
183.0
 20
13.25149999999993
 30
0.0
 11
183.0
 21
38.0
 31
0.0
  0
LINE
  5
1C13
330
1C05
100
AcDbEntity
  8
0
100
AcDbLine
 10
142.5
 20
13.25149999999993
 30
0.0
 11
142.5
 21
38.0
 31
0.0
  0
TEXT
  5
1C14
330
1C05
100
AcDbEntity
  8
0
100
AcDbText
 10
143.3531994322572
 20
28.10060000000001
 30
0.0
 40
2.0
  1
1/10 1/15 1/20 1/25
100
AcDbText
  0
TEXT
  5
1C15
330
1C05
100
AcDbEntity
  8
0
100
AcDbText
 10
143.3531994322572
 20
24.56510000000003
 30
0.0
 40
2.0
  1
1/30 1/40 1/50 1/60
100
AcDbText
  0
TEXT
  5
1C16
330
1C05
100
AcDbEntity
  8
0
100
AcDbText
 10
143.3531994322572
 20
13.9585999999999
 30
0.0
 40
2.0
  1
グレー（マンセル値 9B6/0.5）
100
AcDbText
  0
LINE
  5
1C17
330
1C05
100
AcDbEntity
  8
0
100
AcDbLine
 10
142.5
 20
27.39349999999999
 30
0.0
 11
183.0
 21
27.39349999999999
 31
0.0
  0
TEXT
  5
1C18
330
1C05
100
AcDbEntity
  8
0
100
AcDbText
 10
143.3531994322572
 20
17.49409999999991
 30
0.0
 40
2.0
  1
グリース
100
AcDbText
  0
LINE
  5
1C19
330
1C05
100
AcDbEntity
  8
0
100
AcDbLine
 10
150.4725366217368
 20
39.41419999999999
 30
0.0
 11
163.5274633782631
 21
39.41419999999999
 31
0.0
  0
LINE
  5
1C1A
330
1C05
100
AcDbEntity
  8
0
100
AcDbLine
 10
150.4725366217368
 20
40.12129999999999
 30
0.0
 11
163.5274633782631
 21
40.12129999999999
 31
0.0
  0
TEXT
  5
1C1B
330
1C05
100
AcDbEntity
  8
0
100
AcDbText
 10
151.1299348544099
 20
40.47485
 30
0.0
 40
2.0
  1
減速機仕様
100
AcDbText
  0
TEXT
  5
1C1C
330
1C05
100
AcDbEntity
  8
0
100
AcDbText
 10
143.3531994322572
 20
31.6361
 30
0.0
 40
2.0
  1
15T
100
AcDbText
  0
TEXT
  5
1C1D
330
1C05
100
AcDbEntity
  8
0
100
AcDbText
 10
143.3531994322572
 20
35.17159999999998
 30
0.0
 40
2.0
  1
GTR
100
AcDbText
  0
TEXT
  5
1C1E
330
1C05
100
AcDbEntity
  8
0
100
AcDbText
 10
143.3531994322572
 20
21.02960000000004
 30
0.0
 40
2.0
  1
1/80 1/100 1/120
100
AcDbText
  0
LINE
  5
1C1F
330
1C05
100
AcDbEntity
  8
0
100
AcDbLine
 10
142.5
 20
23.85799999999995
 30
0.0
 11
183.0
 21
23.85799999999994
 31
0.0
  0
ENDBLK
  5
1C21
330
1C05
100
AcDbEntity
  8
0
100
AcDbBlockEnd
  0
BLOCK
  5
1C40
330
1C23
100
AcDbEntity
  8
0
100
AcDbBlockBegin
  2
GSPEC_F2F-15T-10-240
 70
     0
 10
0.0
 20
0.0
 30
0.0
  3
GSPEC_F2F-15T-10-240
  1

  0
LINE
  5
1C24
330
1C23
100
AcDbEntity
  8
0
100
AcDbLine
 10
131.0
 20
13.25149999999988
 30
0.0
 11
183.0
 21
13.25149999999988
 31
0.0
  0
LINE
  5
1C25
330
1C23
100
AcDbEntity
  8
0
100
AcDbLine
 10
131.0
 20
9.715999999999894
 30
0.0
 11
183.0
 21
9.715999999999894
 31
0.0
  0
LINE
  5
1C26
330
1C23
100
AcDbEntity
  8
0
100
AcDbLine
 10
131.0
 20
16.78699999999986
 30
0.0
 11
183.0
 21
16.78699999999986
 31
0.0
  0
LINE
  5
1C27
330
1C23
100
AcDbEntity
  8
0
100
AcDbLine
 10
131.0
 20
34.46450000000001
 30
0.0
 11
183.0
 21
34.46450000000001
 31
0.0
  0
LINE
  5
1C28
330
1C23
100
AcDbEntity
  8
0
100
AcDbLine
 10
131.0
 20
30.929
 30
0.0
 11
183.0
 21
30.92899999999997
 31
0.0
  0
LINE
  5
1C29
330
1C23
100
AcDbEntity
  8
0
100
AcDbLine
 10
131.0
 20
38.0
 30
0.0
 11
183.0
 21
38.0
 31
0.0
  0
LINE
  5
1C2A
330
1C23
100
AcDbEntity
  8
0
100
AcDbLine
 10
131.0
 20
9.715999999999894
 30
0.0
 11
131.0
 21
38.0
 31
0.0
  0
TEXT
  5
1C2B
330
1C23
100
AcDbEntity
  8
0
100
AcDbText
 10
131.6780944417463
 20
13.95859999999987
 30
0.0
 40
2.0
  1
潤滑
100
AcDbText
  0
TEXT
  5
1C2C
330
1C23
100
AcDbEntity
  8
0
100
AcDbText
 10
131.6780944417462
 20
10.32954220928042
 30
0.0
 40
2.0
  1
塗色
100
AcDbText
  0
TEXT
  5
1C2D
330
1C23
100
AcDbEntity
  8
0
100
AcDbText
 10
131.6780944417462
 20
22.84191832202132
 30
0.0
 40
2.0
  1
減速比
100
AcDbText
  0
TEXT
  5
1C2E
330
1C23
100
AcDbEntity
  8
0
100
AcDbText
 10
131.6780944417462
 20
31.6361
 30
0.0
 40
2.0
  1
枠番
100
AcDbText
  0
TEXT
  5
1C2F
330
1C23
100
AcDbEntity
  8
0
100
AcDbText
 10
131.6780944417462
 20
35.17159999999998
 30
0.0
 40
2.0
  1
名称
100
AcDbText
  0
LINE
  5
1C30
330
1C23
100
AcDbEntity
  8
0
100
AcDbLine
 10
183.0
 20
9.715999999999894
 30
0.0
 11
183.0
 21
38.0
 31
0.0
  0
LINE
  5
1C31
330
1C23
100
AcDbEntity
  8
0
100
AcDbLine
 10
142.5
 20
9.715999999999894
 30
0.0
 11
142.5
 21
38.0
 31
0.0
  0
TEXT
  5
1C32
330
1C23
100
AcDbEntity
  8
0
100
AcDbText
 10
143.3531994322572
 20
28.10060000000001
 30
0.0
 40
2.0
  1
1/10 1/15 1/20 1/25
100
AcDbText
  0
TEXT
  5
1C33
330
1C23
100
AcDbEntity
  8
0
100
AcDbText
 10
143.3531994322572
 20
24.56510000000003
 30
0.0
 40
2.0
  1
1/30 1/40 1/50 1/60
100
AcDbText
  0
TEXT
  5
1C34
330
1C23
100
AcDbEntity
  8
0
100
AcDbText
 10
143.3531994322572
 20
10.42309999999986
 30
0.0
 40
2.0
  1
グレー（マンセル値 9B6/0.5）
100
AcDbText
  0
LINE
  5
1C35
330
1C23
100
AcDbEntity
  8
0
100
AcDbLine
 10
142.5
 20
27.39349999999999
 30
0.0
 11
183.0
 21
27.39349999999999
 31
0.0
  0
TEXT
  5
1C36
330
1C23
100
AcDbEntity
  8
0
100
AcDbText
 10
143.3531994322572
 20
13.95859999999987
 30
0.0
 40
2.0
  1
グリース
100
AcDbText
  0
LINE
  5
1C37
330
1C23
100
AcDbEntity
  8
0
100
AcDbLine
 10
150.4725366217368
 20
39.41419999999999
 30
0.0
 11
163.5274633782631
 21
39.41419999999999
 31
0.0
  0
LINE
  5
1C38
330
1C23
100
AcDbEntity
  8
0
100
AcDbLine
 10
150.4725366217368
 20
40.12129999999999
 30
0.0
 11
163.5274633782631
 21
40.12129999999999
 31
0.0
  0
TEXT
  5
1C39
330
1C23
100
AcDbEntity
  8
0
100
AcDbText
 10
151.1299348544099
 20
40.47485
 30
0.0
 40
2.0
  1
減速機仕様
100
AcDbText
  0
TEXT
  5
1C3A
330
1C23
100
AcDbEntity
  8
0
100
AcDbText
 10
143.3531994322572
 20
31.6361
 30
0.0
 40
2.0
  1
15T
100
AcDbText
  0
TEXT
  5
1C3B
330
1C23
100
AcDbEntity
  8
0
100
AcDbText
 10
143.3531994322572
 20
35.17159999999998
 30
0.0
 40
2.0
  1
GTR
100
AcDbText
  0
TEXT
  5
1C3C
330
1C23
100
AcDbEntity
  8
0
100
AcDbText
 10
143.3531994322572
 20
21.02960000000004
 30
0.0
 40
2.0
  1
1/80 1/100 1/120
100
AcDbText
  0
LINE
  5
1C3D
330
1C23
100
AcDbEntity
  8
0
100
AcDbLine
 10
142.5
 20
23.85799999999995
 30
0.0
 11
183.0
 21
23.85799999999994
 31
0.0
  0
LINE
  5
1C3E
330
1C23
100
AcDbEntity
  8
0
100
AcDbLine
 10
142.5
 20
20.32249999999991
 30
0.0
 11
183.0
 21
20.3224999999999
 31
0.0
  0
TEXT
  5
1C3F
330
1C23
100
AcDbEntity
  8
0
100
AcDbText
 10
143.3531994322572
 20
17.4941
 30
0.0
 40
2.0
  1
1/160 1/200 1/240
100
AcDbText
  0
ENDBLK
  5
1C41
330
1C23
100
AcDbEntity
  8
0
100
AcDbBlockEnd
  0
BLOCK
  5
1D2C
330
1D09
100
AcDbEntity
  8
0
100
AcDbBlockBegin
  2
MSPEC_T40-75
 70
     0
 10
0.0
 20
0.0
 30
0.0
  3
MSPEC_T40-75
  1

  0
LINE
  5
1D0A
330
1D09
100
AcDbEntity
  8
0
100
AcDbLine
 10
126.0
 20
6.180499999999994
 30
0.0
 11
126.0
 21
37.99999999999997
 31
0.0
  0
TEXT
  5
1D0B
330
1D09
100
AcDbEntity
  8
0
100
AcDbText
 10
86.35319943225727
 20
28.10060000000001
 30
0.0
 40
2.0
  1
40 W
100
AcDbText
  0
TEXT
  5
1D0C
330
1D09
100
AcDbEntity
  8
0
100
AcDbText
 10
74.67809444174623
 20
28.10059999999998
 30
0.0
 40
2.0
  1
出力
100
AcDbText
  0
LINE
  5
1D0D
330
1D09
100
AcDbEntity
  8
0
100
AcDbLine
 10
85.5
 20
6.180499999999994
 30
0.0
 11
85.5
 21
38.0
 31
0.0
  0
LINE
  5
1D0E
330
1D09
100
AcDbEntity
  8
0
100
AcDbLine
 10
73.99999999999998
 20
6.180500000000023
 30
0.0
 11
74.0
 21
38.0
 31
0.0
  0
TEXT
  5
1D0F
330
1D09
100
AcDbEntity
  8
0
100
AcDbText
 10
86.35319943225727
 20
13.95859999999993
 30
0.0
 40
2.0
  1
1500/1800/1800 rpm
100
AcDbText
  0
LINE
  5
1D10
330
1D09
100
AcDbEntity
  8
0
100
AcDbLine
 10
74.0
 20
6.180500000000023
 30
0.0
 11
126.0
 21
6.180499999999994
 31
0.0
  0
LINE
  5
1D11
330
1D09
100
AcDbEntity
  8
0
100
AcDbLine
 10
74.0
 20
9.716000000000008
 30
0.0
 11
126.0
 21
9.715999999999979
 31
0.0
  0
LINE
  5
1D12
330
1D09
100
AcDbEntity
  8
0
100
AcDbLine
 10
74.0
 20
13.25149999999999
 30
0.0
 11
126.0
 21
13.25149999999996
 31
0.0
  0
LINE
  5
1D13
330
1D09
100
AcDbEntity
  8
0
100
AcDbLine
 10
74.0
 20
23.85799999999994
 30
0.0
 11
126.0
 21
23.85799999999992
 31
0.0
  0
LINE
  5
1D14
330
1D09
100
AcDbEntity
  8
0
100
AcDbLine
 10
74.0
 20
16.78699999999997
 30
0.0
 11
126.0
 21
16.78699999999994
 31
0.0
  0
LINE
  5
1D15
330
1D09
100
AcDbEntity
  8
0
100
AcDbLine
 10
74.0
 20
20.32249999999996
 30
0.0
 11
126.0
 21
20.32249999999993
 31
0.0
  0
LINE
  5
1D16
330
1D09
100
AcDbEntity
  8
0
100
AcDbLine
 10
74.0
 20
27.39349999999999
 30
0.0
 11
126.0
 21
27.39349999999996
 31
0.0
  0
TEXT
  5
1D17
330
1D09
100
AcDbEntity
  8
0
100
AcDbText
 10
86.35319943225727
 20
24.56510000000003
 30
0.0
 40
2.0
  1
200/200/220 V
100
AcDbText
  0
TEXT
  5
1D18
330
1D09
100
AcDbEntity
  8
0
100
AcDbText
 10
86.35319943225727
 20
21.02959999999995
 30
0.0
 40
2.0
  1
50/60/60 Hz
100
AcDbText
  0
TEXT
  5
1D19
330
1D09
100
AcDbEntity
  8
0
100
AcDbText
 10
74.67809444174623
 20
10.3295422092805
 30
0.0
 40
2.0
  1
定格
100
AcDbText
  0
TEXT
  5
1D1A
330
1D09
100
AcDbEntity
  8
0
100
AcDbText
 10
74.67809444174623
 20
6.794042209280519
 30
0.0
 40
2.0
  1
絶縁
100
AcDbText
  0
TEXT
  5
1D1B
330
1D09
100
AcDbEntity
  8
0
100
AcDbText
 10
86.35319943225727
 20
10.42309999999994
 30
0.0
 40
2.0
  1
連続
100
AcDbText
  0
TEXT
  5
1D1C
330
1D09
100
AcDbEntity
  8
0
100
AcDbText
 10
86.35319943225727
 20
6.887599999999963
 30
0.0
 40
2.0
  1
E種
100
AcDbText
  0
TEXT
  5
1D1D
330
1D09
100
AcDbEntity
  8
0
100
AcDbText
 10
74.67809444174623
 20
13.86504220928048
 30
0.0
 40
2.0
  1
回転速度
100
AcDbText
  0
TEXT
  5
1D1E
330
1D09
100
AcDbEntity
  8
0
100
AcDbText
 10
74.67809444174633
 20
21.02959999999995
 30
0.0
 40
2.0
  1
周波数
100
AcDbText
  0
TEXT
  5
1D1F
330
1D09
100
AcDbEntity
  8
0
100
AcDbText
 10
74.67809444174623
 20
17.4005422092805
 30
0.0
 40
2.0
  1
極数
100
AcDbText
  0
TEXT
  5
1D20
330
1D09
100
AcDbEntity
  8
0
100
AcDbText
 10
74.67809444174623
 20
24.56509999999997
 30
0.0
 40
2.0
  1
電圧
100
AcDbText
  0
TEXT
  5
1D21
330
1D09
100
AcDbEntity
  8
0
100
AcDbText
 10
86.35319943225727
 20
17.49409999999994
 30
0.0
 40
2.0
  1
4
100
AcDbText
  0
TEXT
  5
1D22
330
1D09
100
AcDbEntity
  8
0
100
AcDbText
 10
86.35319943225727
 20
31.6361
 30
0.0
 40
2.0
  1
全閉形　DT-75
100
AcDbText
  0
LINE
  5
1D23
330
1D09
100
AcDbEntity
  8
0
100
AcDbLine
 10
74.0
 20
38.0
 30
0.0
 11
126.0
 21
37.99999999999997
 31
0.0
  0
LINE
  5
1D24
330
1D09
100
AcDbEntity
  8
0
100
AcDbLine
 10
74.0
 20
30.929
 30
0.0
 11
126.0
 21
30.92899999999994
 31
0.0
  0
LINE
  5
1D25
330
1D09
100
AcDbEntity
  8
0
100
AcDbLine
 10
74.0
 20
34.46450000000001
 30
0.0
 11
126.0
 21
34.46449999999998
 31
0.0
  0
TEXT
  5
1D26
330
1D09
100
AcDbEntity
  8
0
100
AcDbText
 10
86.35319943225727
 20
35.17159999999998
 30
0.0
 40
2.0
  1
三相誘導電動機
100
AcDbText
  0
TEXT
  5
1D27
330
1D09
100
AcDbEntity
  8
0
100
AcDbText
 10
74.67809444174623
 20
31.6361
 30
0.0
 40
2.0
  1
型式
100
AcDbText
  0
TEXT
  5
1D28
330
1D09
100
AcDbEntity
  8
0
100
AcDbText
 10
74.67809444174623
 20
35.17159999999998
 30
0.0
 40
2.0
  1
名称
100
AcDbText
  0
LINE
  5
1D29
330
1D09
100
AcDbEntity
  8
0
100
AcDbLine
 10
93.80123573807338
 20
40.12129999999999
 30
0.0
 11
106.1987642619266
 21
40.12129999999999
 31
0.0
  0
LINE
  5
1D2A
330
1D09
100
AcDbEntity
  8
0
100
AcDbLine
 10
93.80123573807338
 20
39.41419999999999
 30
0.0
 11
106.1987642619266
 21
39.41419999999999
 31
0.0
  0
TEXT
  5
1D2B
330
1D09
100
AcDbEntity
  8
0
100
AcDbText
 10
93.99902987649658
 20
40.47485
 30
0.0
 40
2.0
  1
モータ仕様
100
AcDbText
  0
ENDBLK
  5
1D2D
330
1D09
100
AcDbEntity
  8
0
100
AcDbBlockEnd
  0
BLOCK
  5
1D52
330
1D2F
100
AcDbEntity
  8
0
100
AcDbBlockBegin
  2
MSPEC_S15-75
 70
     0
 10
0.0
 20
0.0
 30
0.0
  3
MSPEC_S15-75
  1

  0
LINE
  5
1D30
330
1D2F
100
AcDbEntity
  8
0
100
AcDbLine
 10
126.0
 20
6.180499999999994
 30
0.0
 11
126.0
 21
37.99999999999997
 31
0.0
  0
TEXT
  5
1D31
330
1D2F
100
AcDbEntity
  8
0
100
AcDbText
 10
86.35319943225727
 20
28.10060000000001
 30
0.0
 40
2.0
  1
15 W
100
AcDbText
  0
TEXT
  5
1D32
330
1D2F
100
AcDbEntity
  8
0
100
AcDbText
 10
74.67809444174623
 20
28.10059999999998
 30
0.0
 40
2.0
  1
出力
100
AcDbText
  0
LINE
  5
1D33
330
1D2F
100
AcDbEntity
  8
0
100
AcDbLine
 10
85.5
 20
6.180499999999994
 30
0.0
 11
85.5
 21
38.0
 31
0.0
  0
LINE
  5
1D34
330
1D2F
100
AcDbEntity
  8
0
100
AcDbLine
 10
73.99999999999998
 20
6.180500000000023
 30
0.0
 11
74.0
 21
38.0
 31
0.0
  0
TEXT
  5
1D35
330
1D2F
100
AcDbEntity
  8
0
100
AcDbText
 10
86.35319943225727
 20
13.95859999999993
 30
0.0
 40
2.0
  1
1500/1800 rpm
100
AcDbText
  0
LINE
  5
1D36
330
1D2F
100
AcDbEntity
  8
0
100
AcDbLine
 10
74.0
 20
6.180500000000023
 30
0.0
 11
126.0
 21
6.180499999999994
 31
0.0
  0
LINE
  5
1D37
330
1D2F
100
AcDbEntity
  8
0
100
AcDbLine
 10
74.0
 20
9.716000000000008
 30
0.0
 11
126.0
 21
9.715999999999979
 31
0.0
  0
LINE
  5
1D38
330
1D2F
100
AcDbEntity
  8
0
100
AcDbLine
 10
74.0
 20
13.25149999999999
 30
0.0
 11
126.0
 21
13.25149999999996
 31
0.0
  0
LINE
  5
1D39
330
1D2F
100
AcDbEntity
  8
0
100
AcDbLine
 10
74.0
 20
23.85799999999994
 30
0.0
 11
126.0
 21
23.85799999999992
 31
0.0
  0
LINE
  5
1D3A
330
1D2F
100
AcDbEntity
  8
0
100
AcDbLine
 10
74.0
 20
16.78699999999997
 30
0.0
 11
126.0
 21
16.78699999999994
 31
0.0
  0
LINE
  5
1D3B
330
1D2F
100
AcDbEntity
  8
0
100
AcDbLine
 10
74.0
 20
20.32249999999996
 30
0.0
 11
126.0
 21
20.32249999999993
 31
0.0
  0
LINE
  5
1D3C
330
1D2F
100
AcDbEntity
  8
0
100
AcDbLine
 10
74.0
 20
27.39349999999999
 30
0.0
 11
126.0
 21
27.39349999999996
 31
0.0
  0
TEXT
  5
1D3D
330
1D2F
100
AcDbEntity
  8
0
100
AcDbText
 10
86.35319943225727
 20
24.56510000000003
 30
0.0
 40
2.0
  1
100 V
100
AcDbText
  0
TEXT
  5
1D3E
330
1D2F
100
AcDbEntity
  8
0
100
AcDbText
 10
86.35319943225727
 20
21.02959999999995
 30
0.0
 40
2.0
  1
50/60 Hz
100
AcDbText
  0
TEXT
  5
1D3F
330
1D2F
100
AcDbEntity
  8
0
100
AcDbText
 10
74.67809444174623
 20
10.3295422092805
 30
0.0
 40
2.0
  1
定格
100
AcDbText
  0
TEXT
  5
1D40
330
1D2F
100
AcDbEntity
  8
0
100
AcDbText
 10
74.67809444174623
 20
6.794042209280519
 30
0.0
 40
2.0
  1
絶縁
100
AcDbText
  0
TEXT
  5
1D41
330
1D2F
100
AcDbEntity
  8
0
100
AcDbText
 10
86.35319943225727
 20
10.42309999999994
 30
0.0
 40
2.0
  1
連続
100
AcDbText
  0
TEXT
  5
1D42
330
1D2F
100
AcDbEntity
  8
0
100
AcDbText
 10
86.35319943225727
 20
6.887599999999963
 30
0.0
 40
2.0
  1
E種
100
AcDbText
  0
TEXT
  5
1D43
330
1D2F
100
AcDbEntity
  8
0
100
AcDbText
 10
74.67809444174623
 20
13.86504220928048
 30
0.0
 40
2.0
  1
回転速度
100
AcDbText
  0
TEXT
  5
1D44
330
1D2F
100
AcDbEntity
  8
0
100
AcDbText
 10
74.67809444174633
 20
21.02959999999995
 30
0.0
 40
2.0
  1
周波数
100
AcDbText
  0
TEXT
  5
1D45
330
1D2F
100
AcDbEntity
  8
0
100
AcDbText
 10
74.67809444174623
 20
17.4005422092805
 30
0.0
 40
2.0
  1
極数
100
AcDbText
  0
TEXT
  5
1D46
330
1D2F
100
AcDbEntity
  8
0
100
AcDbText
 10
74.67809444174623
 20
24.56509999999997
 30
0.0
 40
2.0
  1
電圧
100
AcDbText
  0
TEXT
  5
1D47
330
1D2F
100
AcDbEntity
  8
0
100
AcDbText
 10
86.35319943225727
 20
17.49409999999994
 30
0.0
 40
2.0
  1
4
100
AcDbText
  0
TEXT
  5
1D48
330
1D2F
100
AcDbEntity
  8
0
100
AcDbText
 10
86.35319943225727
 20
31.6361
 30
0.0
 40
2.0
  1
全閉形（コンデンサラン）DS-75
 41
0.95
100
AcDbText
  0
LINE
  5
1D49
330
1D2F
100
AcDbEntity
  8
0
100
AcDbLine
 10
74.0
 20
38.0
 30
0.0
 11
126.0
 21
37.99999999999997
 31
0.0
  0
LINE
  5
1D4A
330
1D2F
100
AcDbEntity
  8
0
100
AcDbLine
 10
74.0
 20
30.929
 30
0.0
 11
126.0
 21
30.92899999999994
 31
0.0
  0
LINE
  5
1D4B
330
1D2F
100
AcDbEntity
  8
0
100
AcDbLine
 10
74.0
 20
34.46450000000001
 30
0.0
 11
126.0
 21
34.46449999999998
 31
0.0
  0
TEXT
  5
1D4C
330
1D2F
100
AcDbEntity
  8
0
100
AcDbText
 10
86.35319943225727
 20
35.17159999999998
 30
0.0
 40
2.0
  1
単相誘導電動機
100
AcDbText
  0
TEXT
  5
1D4D
330
1D2F
100
AcDbEntity
  8
0
100
AcDbText
 10
74.67809444174623
 20
31.6361
 30
0.0
 40
2.0
  1
型式
100
AcDbText
  0
TEXT
  5
1D4E
330
1D2F
100
AcDbEntity
  8
0
100
AcDbText
 10
74.67809444174623
 20
35.17159999999998
 30
0.0
 40
2.0
  1
名称
100
AcDbText
  0
LINE
  5
1D4F
330
1D2F
100
AcDbEntity
  8
0
100
AcDbLine
 10
93.80123573807338
 20
40.12129999999999
 30
0.0
 11
106.1987642619266
 21
40.12129999999999
 31
0.0
  0
LINE
  5
1D50
330
1D2F
100
AcDbEntity
  8
0
100
AcDbLine
 10
93.80123573807338
 20
39.41419999999999
 30
0.0
 11
106.1987642619266
 21
39.41419999999999
 31
0.0
  0
TEXT
  5
1D51
330
1D2F
100
AcDbEntity
  8
0
100
AcDbText
 10
93.99902987649658
 20
40.47485
 30
0.0
 40
2.0
  1
モータ仕様
100
AcDbText
  0
ENDBLK
  5
1D53
330
1D2F
100
AcDbEntity
  8
0
100
AcDbBlockEnd
  0
BLOCK
  5
1D78
330
1D55
100
AcDbEntity
  8
0
100
AcDbBlockBegin
  2
MSPEC_S15W-75
 70
     0
 10
0.0
 20
0.0
 30
0.0
  3
MSPEC_S15W-75
  1

  0
LINE
  5
1D56
330
1D55
100
AcDbEntity
  8
0
100
AcDbLine
 10
126.0
 20
6.180499999999994
 30
0.0
 11
126.0
 21
37.99999999999997
 31
0.0
  0
TEXT
  5
1D57
330
1D55
100
AcDbEntity
  8
0
100
AcDbText
 10
86.35319943225727
 20
28.10060000000001
 30
0.0
 40
2.0
  1
15 W
100
AcDbText
  0
TEXT
  5
1D58
330
1D55
100
AcDbEntity
  8
0
100
AcDbText
 10
74.67809444174623
 20
28.10059999999998
 30
0.0
 40
2.0
  1
出力
100
AcDbText
  0
LINE
  5
1D59
330
1D55
100
AcDbEntity
  8
0
100
AcDbLine
 10
85.5
 20
6.180499999999994
 30
0.0
 11
85.5
 21
38.0
 31
0.0
  0
LINE
  5
1D5A
330
1D55
100
AcDbEntity
  8
0
100
AcDbLine
 10
73.99999999999998
 20
6.180500000000023
 30
0.0
 11
74.0
 21
38.0
 31
0.0
  0
TEXT
  5
1D5B
330
1D55
100
AcDbEntity
  8
0
100
AcDbText
 10
86.35319943225727
 20
13.95859999999993
 30
0.0
 40
2.0
  1
1500/1800 rpm
100
AcDbText
  0
LINE
  5
1D5C
330
1D55
100
AcDbEntity
  8
0
100
AcDbLine
 10
74.0
 20
6.180500000000023
 30
0.0
 11
126.0
 21
6.180499999999994
 31
0.0
  0
LINE
  5
1D5D
330
1D55
100
AcDbEntity
  8
0
100
AcDbLine
 10
74.0
 20
9.716000000000008
 30
0.0
 11
126.0
 21
9.715999999999979
 31
0.0
  0
LINE
  5
1D5E
330
1D55
100
AcDbEntity
  8
0
100
AcDbLine
 10
74.0
 20
13.25149999999999
 30
0.0
 11
126.0
 21
13.25149999999996
 31
0.0
  0
LINE
  5
1D5F
330
1D55
100
AcDbEntity
  8
0
100
AcDbLine
 10
74.0
 20
23.85799999999994
 30
0.0
 11
126.0
 21
23.85799999999992
 31
0.0
  0
LINE
  5
1D60
330
1D55
100
AcDbEntity
  8
0
100
AcDbLine
 10
74.0
 20
16.78699999999997
 30
0.0
 11
126.0
 21
16.78699999999994
 31
0.0
  0
LINE
  5
1D61
330
1D55
100
AcDbEntity
  8
0
100
AcDbLine
 10
74.0
 20
20.32249999999996
 30
0.0
 11
126.0
 21
20.32249999999993
 31
0.0
  0
LINE
  5
1D62
330
1D55
100
AcDbEntity
  8
0
100
AcDbLine
 10
74.0
 20
27.39349999999999
 30
0.0
 11
126.0
 21
27.39349999999996
 31
0.0
  0
TEXT
  5
1D63
330
1D55
100
AcDbEntity
  8
0
100
AcDbText
 10
86.35319943225727
 20
24.56510000000003
 30
0.0
 40
2.0
  1
200 V
100
AcDbText
  0
TEXT
  5
1D64
330
1D55
100
AcDbEntity
  8
0
100
AcDbText
 10
86.35319943225727
 20
21.02959999999995
 30
0.0
 40
2.0
  1
50/60 Hz
100
AcDbText
  0
TEXT
  5
1D65
330
1D55
100
AcDbEntity
  8
0
100
AcDbText
 10
74.67809444174623
 20
10.3295422092805
 30
0.0
 40
2.0
  1
定格
100
AcDbText
  0
TEXT
  5
1D66
330
1D55
100
AcDbEntity
  8
0
100
AcDbText
 10
74.67809444174623
 20
6.794042209280519
 30
0.0
 40
2.0
  1
絶縁
100
AcDbText
  0
TEXT
  5
1D67
330
1D55
100
AcDbEntity
  8
0
100
AcDbText
 10
86.35319943225727
 20
10.42309999999994
 30
0.0
 40
2.0
  1
連続
100
AcDbText
  0
TEXT
  5
1D68
330
1D55
100
AcDbEntity
  8
0
100
AcDbText
 10
86.35319943225727
 20
6.887599999999963
 30
0.0
 40
2.0
  1
E種
100
AcDbText
  0
TEXT
  5
1D69
330
1D55
100
AcDbEntity
  8
0
100
AcDbText
 10
74.67809444174623
 20
13.86504220928048
 30
0.0
 40
2.0
  1
回転速度
100
AcDbText
  0
TEXT
  5
1D6A
330
1D55
100
AcDbEntity
  8
0
100
AcDbText
 10
74.67809444174633
 20
21.02959999999995
 30
0.0
 40
2.0
  1
周波数
100
AcDbText
  0
TEXT
  5
1D6B
330
1D55
100
AcDbEntity
  8
0
100
AcDbText
 10
74.67809444174623
 20
17.4005422092805
 30
0.0
 40
2.0
  1
極数
100
AcDbText
  0
TEXT
  5
1D6C
330
1D55
100
AcDbEntity
  8
0
100
AcDbText
 10
74.67809444174623
 20
24.56509999999997
 30
0.0
 40
2.0
  1
電圧
100
AcDbText
  0
TEXT
  5
1D6D
330
1D55
100
AcDbEntity
  8
0
100
AcDbText
 10
86.35319943225727
 20
17.49409999999994
 30
0.0
 40
2.0
  1
4
100
AcDbText
  0
TEXT
  5
1D6E
330
1D55
100
AcDbEntity
  8
0
100
AcDbText
 10
86.35319943225727
 20
31.6361
 30
0.0
 40
2.0
  1
全閉形（コンデンサラン）DS-75
 41
0.95
100
AcDbText
  0
LINE
  5
1D6F
330
1D55
100
AcDbEntity
  8
0
100
AcDbLine
 10
74.0
 20
38.0
 30
0.0
 11
126.0
 21
37.99999999999997
 31
0.0
  0
LINE
  5
1D70
330
1D55
100
AcDbEntity
  8
0
100
AcDbLine
 10
74.0
 20
30.929
 30
0.0
 11
126.0
 21
30.92899999999994
 31
0.0
  0
LINE
  5
1D71
330
1D55
100
AcDbEntity
  8
0
100
AcDbLine
 10
74.0
 20
34.46450000000001
 30
0.0
 11
126.0
 21
34.46449999999998
 31
0.0
  0
TEXT
  5
1D72
330
1D55
100
AcDbEntity
  8
0
100
AcDbText
 10
86.35319943225727
 20
35.17159999999998
 30
0.0
 40
2.0
  1
単相誘導電動機
100
AcDbText
  0
TEXT
  5
1D73
330
1D55
100
AcDbEntity
  8
0
100
AcDbText
 10
74.67809444174623
 20
31.6361
 30
0.0
 40
2.0
  1
型式
100
AcDbText
  0
TEXT
  5
1D74
330
1D55
100
AcDbEntity
  8
0
100
AcDbText
 10
74.67809444174623
 20
35.17159999999998
 30
0.0
 40
2.0
  1
名称
100
AcDbText
  0
LINE
  5
1D75
330
1D55
100
AcDbEntity
  8
0
100
AcDbLine
 10
93.80123573807338
 20
40.12129999999999
 30
0.0
 11
106.1987642619266
 21
40.12129999999999
 31
0.0
  0
LINE
  5
1D76
330
1D55
100
AcDbEntity
  8
0
100
AcDbLine
 10
93.80123573807338
 20
39.41419999999999
 30
0.0
 11
106.1987642619266
 21
39.41419999999999
 31
0.0
  0
TEXT
  5
1D77
330
1D55
100
AcDbEntity
  8
0
100
AcDbText
 10
93.99902987649658
 20
40.47485
 30
0.0
 40
2.0
  1
モータ仕様
100
AcDbText
  0
ENDBLK
  5
1D79
330
1D55
100
AcDbEntity
  8
0
100
AcDbBlockEnd
  0
BLOCK
  5
1D9E
330
1D7B
100
AcDbEntity
  8
0
100
AcDbBlockBegin
  2
MSPEC_S25-75
 70
     0
 10
0.0
 20
0.0
 30
0.0
  3
MSPEC_S25-75
  1

  0
LINE
  5
1D7C
330
1D7B
100
AcDbEntity
  8
0
100
AcDbLine
 10
126.0
 20
6.180499999999994
 30
0.0
 11
126.0
 21
37.99999999999997
 31
0.0
  0
TEXT
  5
1D7D
330
1D7B
100
AcDbEntity
  8
0
100
AcDbText
 10
86.35319943225727
 20
28.10060000000001
 30
0.0
 40
2.0
  1
25 W
100
AcDbText
  0
TEXT
  5
1D7E
330
1D7B
100
AcDbEntity
  8
0
100
AcDbText
 10
74.67809444174623
 20
28.10059999999998
 30
0.0
 40
2.0
  1
出力
100
AcDbText
  0
LINE
  5
1D7F
330
1D7B
100
AcDbEntity
  8
0
100
AcDbLine
 10
85.5
 20
6.180499999999994
 30
0.0
 11
85.5
 21
38.0
 31
0.0
  0
LINE
  5
1D80
330
1D7B
100
AcDbEntity
  8
0
100
AcDbLine
 10
73.99999999999998
 20
6.180500000000023
 30
0.0
 11
74.0
 21
38.0
 31
0.0
  0
TEXT
  5
1D81
330
1D7B
100
AcDbEntity
  8
0
100
AcDbText
 10
86.35319943225727
 20
13.95859999999993
 30
0.0
 40
2.0
  1
1500/1800 rpm
100
AcDbText
  0
LINE
  5
1D82
330
1D7B
100
AcDbEntity
  8
0
100
AcDbLine
 10
74.0
 20
6.180500000000023
 30
0.0
 11
126.0
 21
6.180499999999994
 31
0.0
  0
LINE
  5
1D83
330
1D7B
100
AcDbEntity
  8
0
100
AcDbLine
 10
74.0
 20
9.716000000000008
 30
0.0
 11
126.0
 21
9.715999999999979
 31
0.0
  0
LINE
  5
1D84
330
1D7B
100
AcDbEntity
  8
0
100
AcDbLine
 10
74.0
 20
13.25149999999999
 30
0.0
 11
126.0
 21
13.25149999999996
 31
0.0
  0
LINE
  5
1D85
330
1D7B
100
AcDbEntity
  8
0
100
AcDbLine
 10
74.0
 20
23.85799999999994
 30
0.0
 11
126.0
 21
23.85799999999992
 31
0.0
  0
LINE
  5
1D86
330
1D7B
100
AcDbEntity
  8
0
100
AcDbLine
 10
74.0
 20
16.78699999999997
 30
0.0
 11
126.0
 21
16.78699999999994
 31
0.0
  0
LINE
  5
1D87
330
1D7B
100
AcDbEntity
  8
0
100
AcDbLine
 10
74.0
 20
20.32249999999996
 30
0.0
 11
126.0
 21
20.32249999999993
 31
0.0
  0
LINE
  5
1D88
330
1D7B
100
AcDbEntity
  8
0
100
AcDbLine
 10
74.0
 20
27.39349999999999
 30
0.0
 11
126.0
 21
27.39349999999996
 31
0.0
  0
TEXT
  5
1D89
330
1D7B
100
AcDbEntity
  8
0
100
AcDbText
 10
86.35319943225727
 20
24.56510000000003
 30
0.0
 40
2.0
  1
100 V
100
AcDbText
  0
TEXT
  5
1D8A
330
1D7B
100
AcDbEntity
  8
0
100
AcDbText
 10
86.35319943225727
 20
21.02959999999995
 30
0.0
 40
2.0
  1
50/60 Hz
100
AcDbText
  0
TEXT
  5
1D8B
330
1D7B
100
AcDbEntity
  8
0
100
AcDbText
 10
74.67809444174623
 20
10.3295422092805
 30
0.0
 40
2.0
  1
定格
100
AcDbText
  0
TEXT
  5
1D8C
330
1D7B
100
AcDbEntity
  8
0
100
AcDbText
 10
74.67809444174623
 20
6.794042209280519
 30
0.0
 40
2.0
  1
絶縁
100
AcDbText
  0
TEXT
  5
1D8D
330
1D7B
100
AcDbEntity
  8
0
100
AcDbText
 10
86.35319943225727
 20
10.42309999999994
 30
0.0
 40
2.0
  1
連続
100
AcDbText
  0
TEXT
  5
1D8E
330
1D7B
100
AcDbEntity
  8
0
100
AcDbText
 10
86.35319943225727
 20
6.887599999999963
 30
0.0
 40
2.0
  1
E種
100
AcDbText
  0
TEXT
  5
1D8F
330
1D7B
100
AcDbEntity
  8
0
100
AcDbText
 10
74.67809444174623
 20
13.86504220928048
 30
0.0
 40
2.0
  1
回転速度
100
AcDbText
  0
TEXT
  5
1D90
330
1D7B
100
AcDbEntity
  8
0
100
AcDbText
 10
74.67809444174633
 20
21.02959999999995
 30
0.0
 40
2.0
  1
周波数
100
AcDbText
  0
TEXT
  5
1D91
330
1D7B
100
AcDbEntity
  8
0
100
AcDbText
 10
74.67809444174623
 20
17.4005422092805
 30
0.0
 40
2.0
  1
極数
100
AcDbText
  0
TEXT
  5
1D92
330
1D7B
100
AcDbEntity
  8
0
100
AcDbText
 10
74.67809444174623
 20
24.56509999999997
 30
0.0
 40
2.0
  1
電圧
100
AcDbText
  0
TEXT
  5
1D93
330
1D7B
100
AcDbEntity
  8
0
100
AcDbText
 10
86.35319943225727
 20
17.49409999999994
 30
0.0
 40
2.0
  1
4
100
AcDbText
  0
TEXT
  5
1D94
330
1D7B
100
AcDbEntity
  8
0
100
AcDbText
 10
86.35319943225727
 20
31.6361
 30
0.0
 40
2.0
  1
全閉形（コンデンサラン）DS-75
 41
0.95
100
AcDbText
  0
LINE
  5
1D95
330
1D7B
100
AcDbEntity
  8
0
100
AcDbLine
 10
74.0
 20
38.0
 30
0.0
 11
126.0
 21
37.99999999999997
 31
0.0
  0
LINE
  5
1D96
330
1D7B
100
AcDbEntity
  8
0
100
AcDbLine
 10
74.0
 20
30.929
 30
0.0
 11
126.0
 21
30.92899999999994
 31
0.0
  0
LINE
  5
1D97
330
1D7B
100
AcDbEntity
  8
0
100
AcDbLine
 10
74.0
 20
34.46450000000001
 30
0.0
 11
126.0
 21
34.46449999999998
 31
0.0
  0
TEXT
  5
1D98
330
1D7B
100
AcDbEntity
  8
0
100
AcDbText
 10
86.35319943225727
 20
35.17159999999998
 30
0.0
 40
2.0
  1
単相誘導電動機
100
AcDbText
  0
TEXT
  5
1D99
330
1D7B
100
AcDbEntity
  8
0
100
AcDbText
 10
74.67809444174623
 20
31.6361
 30
0.0
 40
2.0
  1
型式
100
AcDbText
  0
TEXT
  5
1D9A
330
1D7B
100
AcDbEntity
  8
0
100
AcDbText
 10
74.67809444174623
 20
35.17159999999998
 30
0.0
 40
2.0
  1
名称
100
AcDbText
  0
LINE
  5
1D9B
330
1D7B
100
AcDbEntity
  8
0
100
AcDbLine
 10
93.80123573807338
 20
40.12129999999999
 30
0.0
 11
106.1987642619266
 21
40.12129999999999
 31
0.0
  0
LINE
  5
1D9C
330
1D7B
100
AcDbEntity
  8
0
100
AcDbLine
 10
93.80123573807338
 20
39.41419999999999
 30
0.0
 11
106.1987642619266
 21
39.41419999999999
 31
0.0
  0
TEXT
  5
1D9D
330
1D7B
100
AcDbEntity
  8
0
100
AcDbText
 10
93.99902987649658
 20
40.47485
 30
0.0
 40
2.0
  1
モータ仕様
100
AcDbText
  0
ENDBLK
  5
1D9F
330
1D7B
100
AcDbEntity
  8
0
100
AcDbBlockEnd
  0
BLOCK
  5
1DC4
330
1DA1
100
AcDbEntity
  8
0
100
AcDbBlockBegin
  2
MSPEC_S25W-75
 70
     0
 10
0.0
 20
0.0
 30
0.0
  3
MSPEC_S25W-75
  1

  0
LINE
  5
1DA2
330
1DA1
100
AcDbEntity
  8
0
100
AcDbLine
 10
126.0
 20
6.180499999999994
 30
0.0
 11
126.0
 21
37.99999999999997
 31
0.0
  0
TEXT
  5
1DA3
330
1DA1
100
AcDbEntity
  8
0
100
AcDbText
 10
86.35319943225727
 20
28.10060000000001
 30
0.0
 40
2.0
  1
25 W
100
AcDbText
  0
TEXT
  5
1DA4
330
1DA1
100
AcDbEntity
  8
0
100
AcDbText
 10
74.67809444174623
 20
28.10059999999998
 30
0.0
 40
2.0
  1
出力
100
AcDbText
  0
LINE
  5
1DA5
330
1DA1
100
AcDbEntity
  8
0
100
AcDbLine
 10
85.5
 20
6.180499999999994
 30
0.0
 11
85.5
 21
38.0
 31
0.0
  0
LINE
  5
1DA6
330
1DA1
100
AcDbEntity
  8
0
100
AcDbLine
 10
73.99999999999998
 20
6.180500000000023
 30
0.0
 11
74.0
 21
38.0
 31
0.0
  0
TEXT
  5
1DA7
330
1DA1
100
AcDbEntity
  8
0
100
AcDbText
 10
86.35319943225727
 20
13.95859999999993
 30
0.0
 40
2.0
  1
1500/1800 rpm
100
AcDbText
  0
LINE
  5
1DA8
330
1DA1
100
AcDbEntity
  8
0
100
AcDbLine
 10
74.0
 20
6.180500000000023
 30
0.0
 11
126.0
 21
6.180499999999994
 31
0.0
  0
LINE
  5
1DA9
330
1DA1
100
AcDbEntity
  8
0
100
AcDbLine
 10
74.0
 20
9.716000000000008
 30
0.0
 11
126.0
 21
9.715999999999979
 31
0.0
  0
LINE
  5
1DAA
330
1DA1
100
AcDbEntity
  8
0
100
AcDbLine
 10
74.0
 20
13.25149999999999
 30
0.0
 11
126.0
 21
13.25149999999996
 31
0.0
  0
LINE
  5
1DAB
330
1DA1
100
AcDbEntity
  8
0
100
AcDbLine
 10
74.0
 20
23.85799999999994
 30
0.0
 11
126.0
 21
23.85799999999992
 31
0.0
  0
LINE
  5
1DAC
330
1DA1
100
AcDbEntity
  8
0
100
AcDbLine
 10
74.0
 20
16.78699999999997
 30
0.0
 11
126.0
 21
16.78699999999994
 31
0.0
  0
LINE
  5
1DAD
330
1DA1
100
AcDbEntity
  8
0
100
AcDbLine
 10
74.0
 20
20.32249999999996
 30
0.0
 11
126.0
 21
20.32249999999993
 31
0.0
  0
LINE
  5
1DAE
330
1DA1
100
AcDbEntity
  8
0
100
AcDbLine
 10
74.0
 20
27.39349999999999
 30
0.0
 11
126.0
 21
27.39349999999996
 31
0.0
  0
TEXT
  5
1DAF
330
1DA1
100
AcDbEntity
  8
0
100
AcDbText
 10
86.35319943225727
 20
24.56510000000003
 30
0.0
 40
2.0
  1
200 V
100
AcDbText
  0
TEXT
  5
1DB0
330
1DA1
100
AcDbEntity
  8
0
100
AcDbText
 10
86.35319943225727
 20
21.02959999999995
 30
0.0
 40
2.0
  1
50/60 Hz
100
AcDbText
  0
TEXT
  5
1DB1
330
1DA1
100
AcDbEntity
  8
0
100
AcDbText
 10
74.67809444174623
 20
10.3295422092805
 30
0.0
 40
2.0
  1
定格
100
AcDbText
  0
TEXT
  5
1DB2
330
1DA1
100
AcDbEntity
  8
0
100
AcDbText
 10
74.67809444174623
 20
6.794042209280519
 30
0.0
 40
2.0
  1
絶縁
100
AcDbText
  0
TEXT
  5
1DB3
330
1DA1
100
AcDbEntity
  8
0
100
AcDbText
 10
86.35319943225727
 20
10.42309999999994
 30
0.0
 40
2.0
  1
連続
100
AcDbText
  0
TEXT
  5
1DB4
330
1DA1
100
AcDbEntity
  8
0
100
AcDbText
 10
86.35319943225727
 20
6.887599999999963
 30
0.0
 40
2.0
  1
E種
100
AcDbText
  0
TEXT
  5
1DB5
330
1DA1
100
AcDbEntity
  8
0
100
AcDbText
 10
74.67809444174623
 20
13.86504220928048
 30
0.0
 40
2.0
  1
回転速度
100
AcDbText
  0
TEXT
  5
1DB6
330
1DA1
100
AcDbEntity
  8
0
100
AcDbText
 10
74.67809444174633
 20
21.02959999999995
 30
0.0
 40
2.0
  1
周波数
100
AcDbText
  0
TEXT
  5
1DB7
330
1DA1
100
AcDbEntity
  8
0
100
AcDbText
 10
74.67809444174623
 20
17.4005422092805
 30
0.0
 40
2.0
  1
極数
100
AcDbText
  0
TEXT
  5
1DB8
330
1DA1
100
AcDbEntity
  8
0
100
AcDbText
 10
74.67809444174623
 20
24.56509999999997
 30
0.0
 40
2.0
  1
電圧
100
AcDbText
  0
TEXT
  5
1DB9
330
1DA1
100
AcDbEntity
  8
0
100
AcDbText
 10
86.35319943225727
 20
17.49409999999994
 30
0.0
 40
2.0
  1
4
100
AcDbText
  0
TEXT
  5
1DBA
330
1DA1
100
AcDbEntity
  8
0
100
AcDbText
 10
86.35319943225727
 20
31.6361
 30
0.0
 40
2.0
  1
全閉形（コンデンサラン）DS-75
 41
0.95
100
AcDbText
  0
LINE
  5
1DBB
330
1DA1
100
AcDbEntity
  8
0
100
AcDbLine
 10
74.0
 20
38.0
 30
0.0
 11
126.0
 21
37.99999999999997
 31
0.0
  0
LINE
  5
1DBC
330
1DA1
100
AcDbEntity
  8
0
100
AcDbLine
 10
74.0
 20
30.929
 30
0.0
 11
126.0
 21
30.92899999999994
 31
0.0
  0
LINE
  5
1DBD
330
1DA1
100
AcDbEntity
  8
0
100
AcDbLine
 10
74.0
 20
34.46450000000001
 30
0.0
 11
126.0
 21
34.46449999999998
 31
0.0
  0
TEXT
  5
1DBE
330
1DA1
100
AcDbEntity
  8
0
100
AcDbText
 10
86.35319943225727
 20
35.17159999999998
 30
0.0
 40
2.0
  1
単相誘導電動機
100
AcDbText
  0
TEXT
  5
1DBF
330
1DA1
100
AcDbEntity
  8
0
100
AcDbText
 10
74.67809444174623
 20
31.6361
 30
0.0
 40
2.0
  1
型式
100
AcDbText
  0
TEXT
  5
1DC0
330
1DA1
100
AcDbEntity
  8
0
100
AcDbText
 10
74.67809444174623
 20
35.17159999999998
 30
0.0
 40
2.0
  1
名称
100
AcDbText
  0
LINE
  5
1DC1
330
1DA1
100
AcDbEntity
  8
0
100
AcDbLine
 10
93.80123573807338
 20
40.12129999999999
 30
0.0
 11
106.1987642619266
 21
40.12129999999999
 31
0.0
  0
LINE
  5
1DC2
330
1DA1
100
AcDbEntity
  8
0
100
AcDbLine
 10
93.80123573807338
 20
39.41419999999999
 30
0.0
 11
106.1987642619266
 21
39.41419999999999
 31
0.0
  0
TEXT
  5
1DC3
330
1DA1
100
AcDbEntity
  8
0
100
AcDbText
 10
93.99902987649658
 20
40.47485
 30
0.0
 40
2.0
  1
モータ仕様
100
AcDbText
  0
ENDBLK
  5
1DC5
330
1DA1
100
AcDbEntity
  8
0
100
AcDbBlockEnd
  0
ENDSEC
  0
SECTION
  2
ENTITIES
  0
LINE
  5
799
330
2
100
AcDbEntity
  8
HIDS
100
AcDbLine
 10
318.5580724438642
 20
160.4312354599732
 30
0.0
 11
338.5580724438641
 21
160.4312354599732
 31
0.0
  0
LINE
  5
79A
330
2
100
AcDbEntity
  8
HIDS
100
AcDbLine
 10
318.5580724438642
 20
168.4312354599732
 30
0.0
 11
338.5580724438641
 21
168.4312354599732
 31
0.0
  0
LINE
  5
79B
330
2
100
AcDbEntity
  8
HOJO
100
AcDbLine
 10
318.5580724438642
 20
93.43123545997327
 30
0.0
 11
338.5580724438641
 21
93.43123545997327
 31
0.0
  0
LINE
  5
79C
330
2
100
AcDbEntity
  8
HOJO
100
AcDbLine
 10
318.5580724438642
 20
101.4312354599732
 30
0.0
 11
338.5580724438641
 21
101.4312354599732
 31
0.0
  0
LINE
  5
79D
330
2
100
AcDbEntity
  8
0
100
AcDbLine
 10
337.2600684438642
 20
119.7576824599732
 30
0.0
 11
318.5580724438642
 21
119.4312354599732
 31
0.0
  0
LINE
  5
79E
330
2
100
AcDbEntity
  8
0
100
AcDbLine
 10
337.2600684438642
 20
142.1047884599732
 30
0.0
 11
318.5580724438642
 21
142.4312354599732
 31
0.0
  0
LINE
  5
79F
330
2
100
AcDbEntity
  8
0
100
AcDbLine
 10
339.5929844438642
 20
146.0640784599733
 30
0.0
 11
318.5580724438642
 21
146.4312354599732
 31
0.0
  0
LINE
  5
7A0
330
2
100
AcDbEntity
  8
0
100
AcDbLine
 10
339.5929844438642
 20
115.7983924599732
 30
0.0
 11
318.5580724438642
 21
115.4312354599732
 31
0.0
  0
LINE
  5
7A1
330
2
100
AcDbEntity
  8
0
100
AcDbLine
 10
318.5580724438642
 20
100.8312294599732
 30
0.0
 11
387.0580724438642
 21
100.8312294599732
 31
0.0
  0
LINE
  5
7A2
330
2
100
AcDbEntity
  8
0
100
AcDbLine
 10
318.5580724438642
 20
94.03124145997328
 30
0.0
 11
387.0580724438642
 21
94.03124145997328
 31
0.0
  0
LINE
  5
7A3
330
2
100
AcDbEntity
  8
HIDS
100
AcDbLine
 10
318.5580724438642
 20
161.0312414599732
 30
0.0
 11
387.0580724438642
 21
161.0312414599732
 31
0.0
  0
LINE
  5
7A4
330
2
100
AcDbEntity
  8
HIDS
100
AcDbLine
 10
318.5580724438642
 20
167.8312294599732
 30
0.0
 11
387.0580724438642
 21
167.8312294599732
 31
0.0
  0
LINE
  5
7A5
330
2
100
AcDbEntity
  8
CENTER
100
AcDbLine
 10
303.5530984438642
 20
164.4312354599732
 30
0.0
 11
390.6018344438642
 21
164.4312354599732
 31
0.0
  0
LINE
  5
7A6
330
2
100
AcDbEntity
  8
CENTER
100
AcDbLine
 10
303.5530984438642
 20
97.43123545997327
 30
0.0
 11
390.6018344438642
 21
97.43123545997327
 31
0.0
  0
LINE
  5
7A7
330
2
100
AcDbEntity
  8
HIDS
100
AcDbLine
 10
325.5231604438642
 20
93.29840745997328
 30
0.0
 11
346.5580724438642
 21
92.93123545997326
 31
0.0
  0
LINE
  5
7A8
330
2
100
AcDbEntity
  8
HIDS
100
AcDbLine
 10
325.5231604438642
 20
168.5640784599732
 30
0.0
 11
346.5580724438642
 21
168.9312354599732
 31
0.0
  0
LINE
  5
7A9
330
2
100
AcDbEntity
  8
0
100
AcDbLine
 10
346.5580724438642
 20
90.43123545997326
 30
0.0
 11
306.0580724438642
 21
91.13815945997329
 31
0.0
  0
LINE
  5
7AA
330
2
100
AcDbEntity
  8
0
100
AcDbLine
 10
346.5580724438642
 20
171.4312354599732
 30
0.0
 11
306.0580724438642
 21
170.7242954599732
 31
0.0
  0
LINE
  5
7AB
330
2
100
AcDbEntity
  8
CENTER
100
AcDbLine
 10
273.6865204438641
 20
130.9312354599732
 30
0.0
 11
419.4296244438642
 21
130.9312354599732
 31
0.0
  0
LINE
  5
7AC
330
2
100
AcDbEntity
  8
0
100
AcDbLine
 10
32.50256844386422
 20
165.9312354599732
 30
0.0
 11
32.50256844386422
 21
95.93123545997327
 31
0.0
  0
LINE
  5
7AD
330
2
100
AcDbEntity
  8
0
100
AcDbLine
 10
32.00256844386422
 20
162.9312354599732
 30
0.0
 11
32.00256844386422
 21
98.93123545997326
 31
0.0
  0
LINE
  5
7AE
330
2
100
AcDbEntity
  8
0
100
AcDbLine
 10
52.50256844386422
 20
168.9312354599732
 30
0.0
 11
52.50256844386422
 21
92.93123545997326
 31
0.0
  0
CIRCLE
  5
7AF
330
2
100
AcDbEntity
  8
0
100
AcDbCircle
 10
186.5580724438641
 20
130.9312354599732
 30
0.0
 40
25.002001
  0
CIRCLE
  5
7B0
330
2
100
AcDbEntity
  8
0
100
AcDbCircle
 10
186.5580724438641
 20
130.9312354599732
 30
0.0
 40
23.0
  0
CIRCLE
  5
7B1
330
2
100
AcDbEntity
  8
0
100
AcDbCircle
 10
186.5580724438641
 20
130.9312354599732
 30
0.0
 40
19.0
  0
ARC
  5
7B2
330
2
100
AcDbEntity
  8
0
100
AcDbCircle
 10
127.5580724438642
 20
113.9312354599732
 30
0.0
 40
2.0
100
AcDbArc
 50
180.0
 51
270.0
  0
ARC
  5
7B4
330
2
100
AcDbEntity
  8
0
100
AcDbCircle
 10
223.5580724438642
 20
113.9312354599732
 30
0.0
 40
2.0
100
AcDbArc
 50
270.0
 51
0.0
  0
ARC
  5
7B6
330
2
100
AcDbEntity
  8
0
100
AcDbCircle
 10
156.5580724438642
 20
117.4312354599732
 30
0.0
 40
22.0
100
AcDbArc
 50
180.0
 51
194.4775090000004
  0
ARC
  5
7B7
330
2
100
AcDbEntity
  8
0
100
AcDbCircle
 10
194.5580724438642
 20
117.4312354599732
 30
0.0
 40
22.0
100
AcDbArc
 50
345.5224880000002
 51
0.0
  0
ARC
  5
7B8
330
2
100
AcDbEntity
  8
0
100
AcDbCircle
 10
136.7843454438641
 20
114.4312354599732
 30
0.0
 40
2.0
100
AcDbArc
 50
188.626923
 51
270.0
  0
LINE
  5
7B9
330
2
100
AcDbEntity
  8
0
100
AcDbLine
 10
139.3937814438642
 20
112.2482524599732
 30
0.0
 11
138.4739204438642
 21
110.2482524599732
 31
0.0
  0
ARC
  5
7BA
330
2
100
AcDbEntity
  8
0
100
AcDbCircle
 10
138.5580724438641
 20
110.4312354599732
 30
0.0
 40
2.0
100
AcDbArc
 50
40.60129499999965
 51
90.0
  0
ARC
  5
7BB
330
2
100
AcDbEntity
  8
0
100
AcDbCircle
 10
214.3317844438641
 20
114.4312354599732
 30
0.0
 40
2.0
100
AcDbArc
 50
270.0
 51
351.373077
  0
LINE
  5
7BC
330
2
100
AcDbEntity
  8
0
100
AcDbLine
 10
211.7223484438641
 20
112.2482524599732
 30
0.0
 11
212.6422394438642
 21
110.2482524599732
 31
0.0
  0
ARC
  5
7BD
330
2
100
AcDbEntity
  8
0
100
AcDbCircle
 10
212.5580724438642
 20
110.4312354599732
 30
0.0
 40
2.0
100
AcDbArc
 50
90.0
 51
139.3987120000005
  0
LINE
  5
7BE
330
2
100
AcDbEntity
  8
0
100
AcDbLine
 10
125.5580724438642
 20
114.6028054599733
 30
0.0
 11
125.5580724438642
 21
97.43123545997327
 31
0.0
  0
LINE
  5
7BF
330
2
100
AcDbEntity
  8
0
100
AcDbLine
 10
225.5580724438642
 20
97.43123545997327
 30
0.0
 11
225.5580724438642
 21
164.4312354599732
 31
0.0
  0
LINE
  5
7C1
330
2
100
AcDbEntity
  8
0
100
AcDbLine
 10
306.0580724438642
 20
170.7242954599732
 30
0.0
 11
306.0580724438642
 21
91.13815945997329
 31
0.0
  0
LINE
  5
7C2
330
2
100
AcDbEntity
  8
0
100
AcDbLine
 10
125.0580724438641
 20
156.6216954599733
 30
0.0
 11
125.0580724438641
 21
105.2407754599732
 31
0.0
  0
ARC
  5
7C3
330
2
100
AcDbEntity
  8
HIDS
100
AcDbCircle
 10
346.5580724438642
 20
130.9312354599732
 30
0.0
 40
38.0
100
AcDbArc
 50
129.3567050000005
 51
230.6432949999994
  0
LINE
  5
7C4
330
2
100
AcDbEntity
  8
0
100
AcDbLine
 10
318.5580724438642
 20
170.9424964599732
 30
0.0
 11
318.5580724438642
 21
90.91997445997327
 31
0.0
  0
LINE
  5
7C6
330
2
100
AcDbEntity
  8
0
100
AcDbLine
 10
52.50256844386422
 20
100.6822734599732
 30
0.0
 11
125.5580724438642
 21
100.6822734599732
 31
0.0
  0
LINE
  5
7C7
330
2
100
AcDbEntity
  8
0
100
AcDbLine
 10
52.50256844386422
 20
92.93123545997326
 30
0.0
 11
124.1993234438642
 21
92.93123545997326
 31
0.0
  0
LINE
  5
7C8
330
2
100
AcDbEntity
  8
0
100
AcDbLine
 10
34.08416544386421
 20
100.6822424599732
 30
0.0
 11
52.50256844386422
 21
100.6822424599732
 31
0.0
  0
LINE
  5
7C9
330
2
100
AcDbEntity
  8
0
100
AcDbLine
 10
35.96666444386414
 20
92.93123545997326
 30
0.0
 11
52.50256844386422
 21
92.93123545997326
 31
0.0
  0
ARC
  5
7CA
330
2
100
AcDbEntity
  8
0
100
AcDbCircle
 10
35.96666444386414
 20
95.93123545997327
 30
0.0
 40
3.0
100
AcDbArc
 50
209.9996029999991
 51
270.0
  0
LINE
  5
7CB
330
2
100
AcDbEntity
  8
0
100
AcDbLine
 10
33.36856544386421
 20
94.43123545997327
 30
0.0
 11
32.50256844386422
 21
95.93123545997327
 31
0.0
  0
LINE
  5
7CC
330
2
100
AcDbEntity
  8
0
100
AcDbLine
 10
32.00256844386422
 20
98.93123545997326
 30
0.0
 11
32.50256844386422
 21
98.43123545997327
 31
0.0
  0
ARC
  5
7CD
330
2
100
AcDbEntity
  8
0
100
AcDbCircle
 10
209.7526834438641
 20
87.86749945997328
 30
0.0
 40
6.0
100
AcDbArc
 50
47.3640670000003
 51
120.3582990000005
  0
LINE
  5
7CE
330
2
100
AcDbEntity
  8
0
100
AcDbLine
 10
211.0395484438642
 20
111.7328104599732
 30
0.0
 11
202.0395634438642
 21
101.2328104599732
 31
0.0
  0
LINE
  5
7CF
330
2
100
AcDbEntity
  8
0
100
AcDbLine
 10
211.9594394438641
 20
109.7328104599732
 30
0.0
 11
204.0395484438641
 21
100.4929724599732
 31
0.0
  0
LINE
  5
7D0
330
2
100
AcDbEntity
  8
0
100
AcDbLine
 10
132.5580724438642
 20
90.43123545997326
 30
0.0
 11
218.5580724438642
 21
90.43123545997326
 31
0.0
  0
ARC
  5
7D1
330
2
100
AcDbEntity
  8
0
100
AcDbCircle
 10
149.5580724438642
 20
98.69625045997327
 30
0.0
 40
2.0
100
AcDbArc
 50
180.0
 51
249.5126799999996
  0
LINE
  5
7D2
330
2
100
AcDbEntity
  8
0
100
AcDbLine
 10
149.4338354438641
 20
100.6251134599732
 30
0.0
 11
147.4338354438641
 21
99.88527645997329
 31
0.0
  0
LINE
  5
7D3
330
2
100
AcDbEntity
  8
0
100
AcDbLine
 10
140.0765814438642
 20
111.7328104599732
 30
0.0
 11
149.0765814438641
 21
101.2328104599732
 31
0.0
  0
ARC
  5
7D4
330
2
100
AcDbEntity
  8
0
100
AcDbCircle
 10
151.9587374438642
 20
100.4312354599732
 30
0.0
 40
10.0
100
AcDbArc
 50
247.6683579999997
 51
270.0
  0
LINE
  5
7D5
330
2
100
AcDbEntity
  8
0
100
AcDbLine
 10
124.8944524438642
 20
92.80654045997323
 30
0.0
 11
130.1250894438642
 21
90.86765245997327
 31
0.0
  0
ARC
  5
7D6
330
2
100
AcDbEntity
  8
0
100
AcDbCircle
 10
132.5580724438642
 20
97.43123545997327
 30
0.0
 40
7.0
100
AcDbArc
 50
180.0
 51
312.6359249999997
  0
CIRCLE
  5
7D8
330
2
100
AcDbEntity
  8
HOJO
100
AcDbCircle
 10
132.5580724438642
 20
97.43123545997327
 30
0.0
 40
4.0
  0
CIRCLE
  5
7D9
330
2
100
AcDbEntity
  8
0
100
AcDbCircle
 10
132.5580724438642
 20
97.43123545997327
 30
0.0
 40
4.25
  0
CIRCLE
  5
7DB
330
2
100
AcDbEntity
  8
0
100
AcDbCircle
 10
130.0580724438642
 20
107.4312354599732
 30
0.0
 40
3.799999999999999
  0
ARC
  5
7DC
330
2
100
AcDbEntity
  8
0
100
AcDbCircle
 10
130.0580724438642
 20
107.4312354599732
 30
0.0
 40
4.5
100
AcDbArc
 50
270.0
 51
90.0
  0
CIRCLE
  5
7DD
330
2
100
AcDbEntity
  8
0
100
AcDbCircle
 10
132.5580724438642
 20
97.43123545997327
 30
0.0
 40
3.399999999999999
  0
ARC
  5
7DF
330
2
100
AcDbEntity
  8
0
100
AcDbCircle
 10
127.5580724438642
 20
100.9312354599732
 30
0.0
 40
2.0
100
AcDbArc
 50
90.0
 51
180.0
  0
ARC
  5
7E0
330
2
100
AcDbEntity
  8
0
100
AcDbCircle
 10
124.1993234438642
 20
90.93123545997327
 30
0.0
 40
2.0
100
AcDbArc
 50
69.66127000000027
 51
90.0
  0
LINE
  5
7E1
330
2
100
AcDbEntity
  8
0
100
AcDbLine
 10
125.0580724438641
 20
105.2407754599732
 30
0.0
 11
125.5580724438642
 21
105.2407754599732
 31
0.0
  0
LINE
  5
7E2
330
2
100
AcDbEntity
  8
0
100
AcDbLine
 10
127.5580724438642
 20
111.9312354599732
 30
0.0
 11
130.0580724438642
 21
111.9312354599732
 31
0.0
  0
LINE
  5
7E3
330
2
100
AcDbEntity
  8
0
100
AcDbLine
 10
130.0580724438642
 20
105.6312474599732
 30
0.0
 11
131.5580724438642
 21
106.4972754599732
 31
0.0
  0
LINE
  5
7E4
330
2
100
AcDbEntity
  8
0
100
AcDbLine
 10
131.5580724438642
 20
108.3652254599732
 30
0.0
 11
131.5580724438642
 21
106.4972754599732
 31
0.0
  0
LINE
  5
7E5
330
2
100
AcDbEntity
  8
0
100
AcDbLine
 10
130.0580724438642
 20
109.2312534599732
 30
0.0
 11
131.5580724438642
 21
108.3652254599732
 31
0.0
  0
LINE
  5
7E6
330
2
100
AcDbEntity
  8
0
100
AcDbLine
 10
130.0580724438642
 20
109.2312534599732
 30
0.0
 11
128.5580724438642
 21
108.3652254599732
 31
0.0
  0
LINE
  5
7E7
330
2
100
AcDbEntity
  8
0
100
AcDbLine
 10
128.5580724438642
 20
108.3652254599732
 30
0.0
 11
128.5580724438642
 21
106.4972754599732
 31
0.0
  0
LINE
  5
7E8
330
2
100
AcDbEntity
  8
0
100
AcDbLine
 10
130.0580724438642
 20
105.6312474599732
 30
0.0
 11
128.5580724438642
 21
106.4972754599732
 31
0.0
  0
CIRCLE
  5
7E9
330
2
100
AcDbEntity
  8
0
100
AcDbCircle
 10
130.0580724438642
 20
107.4312354599732
 30
0.0
 40
3.5
  0
LINE
  5
7EA
330
2
100
AcDbEntity
  8
0
100
AcDbLine
 10
127.5580724438642
 20
102.9312354599732
 30
0.0
 11
130.0580724438642
 21
102.9312354599732
 31
0.0
  0
LINE
  5
7EB
330
2
100
AcDbEntity
  8
0
100
AcDbLine
 10
139.1567204438641
 20
109.7328104599732
 30
0.0
 11
147.0765814438641
 21
100.4929724599732
 31
0.0
  0
ARC
  5
7EC
330
2
100
AcDbEntity
  8
0
100
AcDbCircle
 10
141.3634614438642
 20
87.86749945997328
 30
0.0
 40
6.0
100
AcDbArc
 50
59.64169699999944
 51
132.6359249999996
  0
ARC
  5
7ED
330
2
100
AcDbEntity
  8
0
100
AcDbCircle
 10
145.5580724438642
 20
99.1913974599733
 30
0.0
 40
2.0
100
AcDbArc
 50
0.0
 51
40.60129499999965
  0
LINE
  5
7EE
330
2
100
AcDbEntity
  8
0
100
AcDbLine
 10
147.5580724438642
 20
99.1913974599733
 30
0.0
 11
147.5580724438642
 21
98.69625045997327
 31
0.0
  0
ARC
  5
7EF
330
2
100
AcDbEntity
  8
0
100
AcDbCircle
 10
159.5580724438642
 20
118.9312354599732
 30
0.0
 40
30.0
100
AcDbArc
 50
239.6417009999995
 51
247.6683579999997
  0
ARC
  5
7F0
330
2
100
AcDbEntity
  8
0
100
AcDbCircle
 10
137.1931584438642
 20
112.4312354599732
 30
0.0
 40
2.0
100
AcDbArc
 50
194.4775090000004
 51
270.0
  0
LINE
  5
7F1
330
2
100
AcDbEntity
  8
0
100
AcDbLine
 10
137.6381964438642
 20
110.4312354599732
 30
0.0
 11
137.1931584438642
 21
110.4312354599732
 31
0.0
  0
ARC
  5
7F2
330
2
100
AcDbEntity
  8
0
100
AcDbCircle
 10
137.6381964438642
 20
108.4312354599732
 30
0.0
 40
2.0
100
AcDbArc
 50
40.60129499999965
 51
90.0
  0
LINE
  5
7F3
330
2
100
AcDbEntity
  8
0
100
AcDbLine
 10
194.5580724438642
 20
95.43123545997326
 30
0.0
 11
156.5580724438642
 21
95.43123545997326
 31
0.0
  0
ARC
  5
7F4
330
2
100
AcDbEntity
  8
0
100
AcDbCircle
 10
156.5580724438642
 20
117.4312354599732
 30
0.0
 40
22.0
100
AcDbArc
 50
249.5126879999996
 51
270.0
  0
ARC
  5
7F5
330
2
100
AcDbEntity
  8
0
100
AcDbCircle
 10
151.5580724438642
 20
98.06630645997325
 30
0.0
 40
2.0
100
AcDbArc
 50
180.0
 51
255.5224909999995
  0
ARC
  5
7F6
330
2
100
AcDbEntity
  8
0
100
AcDbCircle
 10
147.5580724438642
 20
99.93123545997327
 30
0.0
 40
2.0
100
AcDbArc
 50
0.0
 51
40.60129499999965
  0
LINE
  5
7F7
330
2
100
AcDbEntity
  8
0
100
AcDbLine
 10
149.5580724438642
 20
99.93123545997327
 30
0.0
 11
149.5580724438642
 21
98.06630645997325
 31
0.0
  0
ARC
  5
7F8
330
2
100
AcDbEntity
  8
0
100
AcDbCircle
 10
199.1574074438642
 20
100.4312354599732
 30
0.0
 40
10.0
100
AcDbArc
 50
270.0
 51
292.3316420000002
  0
ARC
  5
7F9
330
2
100
AcDbEntity
  8
0
100
AcDbCircle
 10
199.5580724438642
 20
98.06630645997325
 30
0.0
 40
2.0
100
AcDbArc
 50
284.4775090000004
 51
0.0
  0
ARC
  5
7FA
330
2
100
AcDbEntity
  8
0
100
AcDbCircle
 10
194.5580724438642
 20
117.4312354599732
 30
0.0
 40
22.0
100
AcDbArc
 50
270.0
 51
290.4873049999995
  0
ARC
  5
7FB
330
2
100
AcDbEntity
  8
0
100
AcDbCircle
 10
201.5580724438641
 20
98.69625045997327
 30
0.0
 40
2.0
100
AcDbArc
 50
290.4873120000003
 51
0.0
  0
LINE
  5
7FC
330
2
100
AcDbEntity
  8
0
100
AcDbLine
 10
201.6823094438642
 20
100.6251134599732
 30
0.0
 11
203.6823094438641
 21
99.88527645997329
 31
0.0
  0
ARC
  5
7FD
330
2
100
AcDbEntity
  8
0
100
AcDbCircle
 10
205.5580724438641
 20
99.1913974599733
 30
0.0
 40
2.0
100
AcDbArc
 50
139.3987120000005
 51
180.0
  0
ARC
  5
7FE
330
2
100
AcDbEntity
  8
0
100
AcDbCircle
 10
203.5580724438641
 20
99.93123545997327
 30
0.0
 40
2.0
100
AcDbArc
 50
139.3987120000005
 51
180.0
  0
LINE
  5
7FF
330
2
100
AcDbEntity
  8
0
100
AcDbLine
 10
201.5580724438641
 20
99.93123545997327
 30
0.0
 11
201.5580724438641
 21
98.06630645997325
 31
0.0
  0
LINE
  5
800
330
2
100
AcDbEntity
  8
0
100
AcDbLine
 10
203.5580724438641
 20
99.1913974599733
 30
0.0
 11
203.5580724438641
 21
98.69625045997327
 31
0.0
  0
ARC
  5
801
330
2
100
AcDbEntity
  8
0
100
AcDbCircle
 10
191.5580724438641
 20
118.9312354599732
 30
0.0
 40
30.0
100
AcDbArc
 50
292.3316420000002
 51
300.3583030000005
  0
ARC
  5
802
330
2
100
AcDbEntity
  8
0
100
AcDbCircle
 10
218.5580724438642
 20
97.43123545997327
 30
0.0
 40
7.0
100
AcDbArc
 50
227.3640750000003
 51
0.0
  0
CIRCLE
  5
804
330
2
100
AcDbEntity
  8
0
100
AcDbCircle
 10
218.5580724438642
 20
97.43123545997327
 30
0.0
 40
4.25
  0
LINE
  5
805
330
2
100
AcDbEntity
  8
0
100
AcDbLine
 10
223.5580724438642
 20
111.9312354599732
 30
0.0
 11
221.0580724438642
 21
111.9312354599732
 31
0.0
  0
LINE
  5
806
330
2
100
AcDbEntity
  8
0
100
AcDbLine
 10
223.5580724438642
 20
102.9312354599732
 30
0.0
 11
221.0580724438642
 21
102.9312354599732
 31
0.0
  0
CIRCLE
  5
808
330
2
100
AcDbEntity
  8
0
100
AcDbCircle
 10
221.0580724438642
 20
107.4312354599732
 30
0.0
 40
3.5
  0
CIRCLE
  5
809
330
2
100
AcDbEntity
  8
0
100
AcDbCircle
 10
221.0580724438642
 20
107.4312354599732
 30
0.0
 40
3.799999999999999
  0
CIRCLE
  5
80B
330
2
100
AcDbEntity
  8
HOJO
100
AcDbCircle
 10
218.5580724438642
 20
97.43123545997327
 30
0.0
 40
4.0
  0
CIRCLE
  5
80C
330
2
100
AcDbEntity
  8
0
100
AcDbCircle
 10
218.5580724438642
 20
97.43123545997327
 30
0.0
 40
3.399999999999999
  0
ARC
  5
80D
330
2
100
AcDbEntity
  8
0
100
AcDbCircle
 10
213.9230014438642
 20
112.4312354599732
 30
0.0
 40
2.0
100
AcDbArc
 50
270.0
 51
345.5224909999996
  0
LINE
  5
80E
330
2
100
AcDbEntity
  8
0
100
AcDbLine
 10
213.4779334438641
 20
110.4312354599732
 30
0.0
 11
213.9230014438642
 21
110.4312354599732
 31
0.0
  0
ARC
  5
80F
330
2
100
AcDbEntity
  8
0
100
AcDbCircle
 10
213.4779334438641
 20
108.4312354599732
 30
0.0
 40
2.0
100
AcDbArc
 50
90.0
 51
139.3987120000005
  0
ARC
  5
810
330
2
100
AcDbEntity
  8
0
100
AcDbCircle
 10
221.0580724438642
 20
107.4312354599732
 30
0.0
 40
4.5
100
AcDbArc
 50
90.0
 51
270.0
  0
LINE
  5
811
330
2
100
AcDbEntity
  8
0
100
AcDbLine
 10
221.0580724438642
 20
109.2312534599732
 30
0.0
 11
219.5580724438642
 21
108.3652254599732
 31
0.0
  0
LINE
  5
812
330
2
100
AcDbEntity
  8
0
100
AcDbLine
 10
221.0580724438642
 20
109.2312534599732
 30
0.0
 11
222.5580724438642
 21
108.3652254599732
 31
0.0
  0
LINE
  5
813
330
2
100
AcDbEntity
  8
0
100
AcDbLine
 10
221.0580724438642
 20
105.6312474599732
 30
0.0
 11
222.5580724438642
 21
106.4972754599732
 31
0.0
  0
LINE
  5
814
330
2
100
AcDbEntity
  8
0
100
AcDbLine
 10
221.0580724438642
 20
105.6312474599732
 30
0.0
 11
219.5580724438642
 21
106.4972754599732
 31
0.0
  0
LINE
  5
815
330
2
100
AcDbEntity
  8
0
100
AcDbLine
 10
222.5580724438642
 20
108.3652254599732
 30
0.0
 11
222.5580724438642
 21
106.4972754599732
 31
0.0
  0
LINE
  5
816
330
2
100
AcDbEntity
  8
0
100
AcDbLine
 10
219.5580724438642
 20
108.3652254599732
 30
0.0
 11
219.5580724438642
 21
106.4972754599732
 31
0.0
  0
ARC
  5
817
330
2
100
AcDbEntity
  8
0
100
AcDbCircle
 10
223.5580724438642
 20
100.9312354599732
 30
0.0
 40
2.0
100
AcDbArc
 50
0.0
 51
90.0
  0
LINE
  5
819
330
2
100
AcDbEntity
  8
0
100
AcDbLine
 10
306.0580724438642
 20
93.18123545997327
 30
0.0
 11
318.5580724438642
 21
93.18123545997327
 31
0.0
  0
LINE
  5
81A
330
2
100
AcDbEntity
  8
0
100
AcDbLine
 10
306.0580724438642
 20
101.6812354599732
 30
0.0
 11
318.5580724438642
 21
101.6812354599732
 31
0.0
  0
LINE
  5
81B
330
2
100
AcDbEntity
  8
0
100
AcDbLine
 10
306.0580724438642
 20
112.1014324599733
 30
0.0
 11
312.5580724438642
 21
111.9312354599732
 31
0.0
  0
LINE
  5
81C
330
2
100
AcDbEntity
  8
0
100
AcDbLine
 10
311.5580414438642
 20
111.2312234599732
 30
0.0
 11
312.5580724438642
 21
111.2312234599732
 31
0.0
  0
LINE
  5
81D
330
2
100
AcDbEntity
  8
CENTER
100
AcDbLine
 10
305.6183754438642
 20
107.4312354599732
 30
0.0
 11
313.6030854438641
 21
107.4312354599732
 31
0.0
  0
LINE
  5
821
330
2
100
AcDbEntity
  8
0
100
AcDbLine
 10
307.5580414438642
 20
110.9312354599732
 30
0.0
 11
311.5580414438642
 21
110.9312664599732
 31
0.0
  0
LINE
  5
822
330
2
100
AcDbEntity
  8
0
100
AcDbLine
 10
307.5580414438642
 20
105.3580851998576
 30
0.0
 11
307.5580414438642
 21
110.9312354599732
 31
0.0
  0
LINE
  5
824
330
2
100
AcDbEntity
  8
0
100
AcDbLine
 10
311.5580414438642
 20
105.6060962722863
 30
0.0
 11
311.5580414438642
 21
111.2312234599732
 31
0.0
  0
ARC
  5
825
330
2
100
AcDbEntity
  8
HIDS
100
AcDbCircle
 10
320.5580724438642
 20
99.22951445997325
 30
0.0
 40
3.0
100
AcDbArc
 50
0.0
 51
50.64329900000029
  0
ARC
  5
826
330
2
100
AcDbEntity
  8
HIDS
100
AcDbCircle
 10
325.5580724438642
 20
95.29810245997325
 30
0.0
 40
2.0
100
AcDbArc
 50
180.0
 51
268.9999999999998
  0
LINE
  5
827
330
2
100
AcDbEntity
  8
HIDS
100
AcDbLine
 10
323.5580724438642
 20
95.29810245997325
 30
0.0
 11
323.5580724438642
 21
99.22951445997325
 31
0.0
  0
LINE
  5
82A
330
2
100
AcDbEntity
  8
0
100
AcDbLine
 10
312.5580724438642
 20
105.7453807813101
 30
0.0
 11
312.5580724438642
 21
111.9312354599732
 31
0.0
  0
LINE
  5
82C
330
2
100
AcDbEntity
  8
0
100
AcDbLine
 10
52.50256844386422
 20
161.1801974599732
 30
0.0
 11
125.5580724438642
 21
161.1801974599732
 31
0.0
  0
LINE
  5
82D
330
2
100
AcDbEntity
  8
0
100
AcDbLine
 10
52.50256844386422
 20
168.9312354599732
 30
0.0
 11
124.1993234438642
 21
168.9312354599732
 31
0.0
  0
LINE
  5
82E
330
2
100
AcDbEntity
  8
CENTER
100
AcDbLine
 10
233.0988434438642
 20
130.9312354599732
 30
0.0
 11
23.4820384756299
 21
130.9312354599732
 31
0.0
  0
LINE
  5
833
330
2
100
AcDbEntity
  8
0
100
AcDbLine
 10
34.08416544386421
 20
161.1802284599733
 30
0.0
 11
52.50256844386422
 21
161.1802284599733
 31
0.0
  0
LINE
  5
834
330
2
100
AcDbEntity
  8
0
100
AcDbLine
 10
35.96666444386414
 20
168.9312354599732
 30
0.0
 11
52.50256844386422
 21
168.9312354599732
 31
0.0
  0
LINE
  5
835
330
2
100
AcDbEntity
  8
0
100
AcDbLine
 10
32.00256844386422
 20
162.9312354599732
 30
0.0
 11
32.50256844386422
 21
163.4312354599732
 31
0.0
  0
ARC
  5
836
330
2
100
AcDbEntity
  8
0
100
AcDbCircle
 10
35.96666444386414
 20
165.9312664599732
 30
0.0
 40
3.0
100
AcDbArc
 50
90.0
 51
150.0003970000008
  0
LINE
  5
837
330
2
100
AcDbEntity
  8
0
100
AcDbLine
 10
33.36856544386421
 20
167.4312354599732
 30
0.0
 11
32.50256844386422
 21
165.9312354599732
 31
0.0
  0
ARC
  5
83F
330
2
100
AcDbEntity
  8
0
100
AcDbCircle
 10
209.7526834438641
 20
173.9949864599732
 30
0.0
 40
6.0
100
AcDbArc
 50
239.6417009999995
 51
312.6359329999997
  0
LINE
  5
840
330
2
100
AcDbEntity
  8
0
100
AcDbLine
 10
211.0395484438642
 20
150.1296604599732
 30
0.0
 11
202.0395634438642
 21
160.6296604599732
 31
0.0
  0
LINE
  5
841
330
2
100
AcDbEntity
  8
0
100
AcDbLine
 10
211.9594394438641
 20
152.1296604599732
 30
0.0
 11
204.0395484438641
 21
161.3694984599732
 31
0.0
  0
LINE
  5
842
330
2
100
AcDbEntity
  8
0
100
AcDbLine
 10
132.5580724438642
 20
171.4312354599732
 30
0.0
 11
218.5580724438642
 21
171.4312354599732
 31
0.0
  0
ARC
  5
843
330
2
100
AcDbEntity
  8
0
100
AcDbCircle
 10
149.5580724438642
 20
163.1662204599732
 30
0.0
 40
2.0
100
AcDbArc
 50
110.4873120000003
 51
180.0
  0
LINE
  5
844
330
2
100
AcDbEntity
  8
0
100
AcDbLine
 10
149.4338354438641
 20
161.2373574599732
 30
0.0
 11
147.4338354438641
 21
161.9771944599732
 31
0.0
  0
LINE
  5
845
330
2
100
AcDbEntity
  8
0
100
AcDbLine
 10
140.0765814438642
 20
150.1296604599732
 30
0.0
 11
149.0765814438641
 21
160.6296604599732
 31
0.0
  0
ARC
  5
846
330
2
100
AcDbEntity
  8
0
100
AcDbCircle
 10
151.9587374438642
 20
161.4312354599732
 30
0.0
 40
10.0
100
AcDbArc
 50
90.0
 51
112.3316420000001
  0
ARC
  5
848
330
2
100
AcDbEntity
  8
0
100
AcDbCircle
 10
130.0580724438642
 20
154.4312354599732
 30
0.0
 40
4.5
100
AcDbArc
 50
270.0
 51
90.0
  0
LINE
  5
849
330
2
100
AcDbEntity
  8
0
100
AcDbLine
 10
128.5580724438642
 20
153.4972454599732
 30
0.0
 11
128.5580724438642
 21
155.3651954599732
 31
0.0
  0
LINE
  5
84A
330
2
100
AcDbEntity
  8
0
100
AcDbLine
 10
131.5580724438642
 20
153.4972454599732
 30
0.0
 11
131.5580724438642
 21
155.3651954599732
 31
0.0
  0
CIRCLE
  5
84B
330
2
100
AcDbEntity
  8
0
100
AcDbCircle
 10
130.0580724438642
 20
154.4312354599732
 30
0.0
 40
3.5
  0
CIRCLE
  5
84C
330
2
100
AcDbEntity
  8
0
100
AcDbCircle
 10
130.0580724438642
 20
154.4312354599732
 30
0.0
 40
3.799999999999999
  0
LINE
  5
84D
330
2
100
AcDbEntity
  8
0
100
AcDbLine
 10
139.1567204438641
 20
152.1296604599732
 30
0.0
 11
147.0765814438641
 21
161.3694984599732
 31
0.0
  0
LINE
  5
84E
330
2
100
AcDbEntity
  8
0
100
AcDbLine
 10
125.5580724438642
 20
164.4312354599732
 30
0.0
 11
125.5580724438642
 21
147.2596654599732
 31
0.0
  0
LINE
  5
84F
330
2
100
AcDbEntity
  8
0
100
AcDbLine
 10
134.5580724438642
 20
144.4312354599732
 30
0.0
 11
134.5580724438642
 21
117.4312354599732
 31
0.0
  0
LINE
  5
850
330
2
100
AcDbEntity
  8
0
100
AcDbLine
 10
129.5580724438642
 20
120.2596654599732
 30
0.0
 11
129.5580724438642
 21
141.6028054599733
 31
0.0
  0
LINE
  5
851
330
2
100
AcDbEntity
  8
0
100
AcDbLine
 10
128.9722874438641
 20
118.8454504599732
 30
0.0
 11
126.1438574438642
 21
116.0170204599732
 31
0.0
  0
ARC
  5
852
330
2
100
AcDbEntity
  8
0
100
AcDbCircle
 10
127.5580724438642
 20
114.6028054599733
 30
0.0
 40
2.0
100
AcDbArc
 50
135.0
 51
180.0
  0
ARC
  5
853
330
2
100
AcDbEntity
  8
0
100
AcDbCircle
 10
127.5580724438642
 20
120.2596654599732
 30
0.0
 40
2.0
100
AcDbArc
 50
315.0
 51
0.0
  0
LINE
  5
854
330
2
100
AcDbEntity
  8
0
100
AcDbLine
 10
138.5580724438641
 20
112.4312354599732
 30
0.0
 11
136.7843454438641
 21
112.4312354599732
 31
0.0
  0
LINE
  5
856
330
2
100
AcDbEntity
  8
0
100
AcDbLine
 10
128.9722874438641
 20
143.0170204599732
 30
0.0
 11
126.1438574438642
 21
145.8454504599732
 31
0.0
  0
ARC
  5
857
330
2
100
AcDbEntity
  8
0
100
AcDbCircle
 10
127.5580724438642
 20
141.6028054599733
 30
0.0
 40
2.0
100
AcDbArc
 50
0.0
 51
45.0
  0
ARC
  5
858
330
2
100
AcDbEntity
  8
0
100
AcDbCircle
 10
127.5580724438642
 20
147.9312354599732
 30
0.0
 40
2.0
100
AcDbArc
 50
90.0
 51
180.0
  0
ARC
  5
859
330
2
100
AcDbEntity
  8
0
100
AcDbCircle
 10
127.5580724438642
 20
147.2596654599732
 30
0.0
 40
2.0
100
AcDbArc
 50
180.0
 51
225.0
  0
LINE
  5
85A
330
2
100
AcDbEntity
  8
0
100
AcDbLine
 10
127.5580724438642
 20
149.9312354599732
 30
0.0
 11
130.0580724438642
 21
149.9312354599732
 31
0.0
  0
LINE
  5
85B
330
2
100
AcDbEntity
  8
0
100
AcDbLine
 10
130.0580724438642
 20
152.6312174599732
 30
0.0
 11
131.5580724438642
 21
153.4972454599732
 31
0.0
  0
LINE
  5
85C
330
2
100
AcDbEntity
  8
0
100
AcDbLine
 10
130.0580724438642
 20
152.6312174599732
 30
0.0
 11
128.5580724438642
 21
153.4972454599732
 31
0.0
  0
ARC
  5
85D
330
2
100
AcDbEntity
  8
0
100
AcDbCircle
 10
156.5580724438642
 20
144.4312354599732
 30
0.0
 40
22.0
100
AcDbArc
 50
165.5224909999995
 51
180.0
  0
ARC
  5
85E
330
2
100
AcDbEntity
  8
0
100
AcDbCircle
 10
137.1931584438642
 20
149.4312354599732
 30
0.0
 40
2.0
100
AcDbArc
 50
90.0
 51
165.5224909999995
  0
ARC
  5
85F
330
2
100
AcDbEntity
  8
0
100
AcDbCircle
 10
136.7843454438641
 20
147.4312354599732
 30
0.0
 40
2.0
100
AcDbArc
 50
90.0
 51
171.3730769999999
  0
LINE
  5
860
330
2
100
AcDbEntity
  8
0
100
AcDbLine
 10
137.6381964438642
 20
151.4312354599732
 30
0.0
 11
137.1931584438642
 21
151.4312354599732
 31
0.0
  0
LINE
  5
861
330
2
100
AcDbEntity
  8
0
100
AcDbLine
 10
138.5580724438641
 20
149.4312354599732
 30
0.0
 11
136.7843454438641
 21
149.4312354599732
 31
0.0
  0
LINE
  5
862
330
2
100
AcDbEntity
  8
0
100
AcDbLine
 10
139.3937814438642
 20
149.6142184599733
 30
0.0
 11
138.4739204438642
 21
151.6142184599733
 31
0.0
  0
ARC
  5
863
330
2
100
AcDbEntity
  8
0
100
AcDbCircle
 10
138.5580724438641
 20
151.4312354599732
 30
0.0
 40
2.0
100
AcDbArc
 50
270.0
 51
319.3987050000003
  0
ARC
  5
864
330
2
100
AcDbEntity
  8
0
100
AcDbCircle
 10
137.6381964438642
 20
153.4312354599732
 30
0.0
 40
2.0
100
AcDbArc
 50
270.0
 51
319.3987050000003
  0
CIRCLE
  5
865
330
2
100
AcDbEntity
  8
HOJO
100
AcDbCircle
 10
132.5580724438642
 20
164.4312354599732
 30
0.0
 40
4.0
  0
CIRCLE
  5
866
330
2
100
AcDbEntity
  8
0
100
AcDbCircle
 10
132.5580724438642
 20
164.4312354599732
 30
0.0
 40
4.25
  0
ARC
  5
867
330
2
100
AcDbEntity
  8
0
100
AcDbCircle
 10
132.5580724438642
 20
164.4312354599732
 30
0.0
 40
7.0
100
AcDbArc
 50
47.3640670000003
 51
180.0
  0
CIRCLE
  5
868
330
2
100
AcDbEntity
  8
0
100
AcDbCircle
 10
132.5580724438642
 20
164.4312354599732
 30
0.0
 40
3.399999999999999
  0
ARC
  5
86B
330
2
100
AcDbEntity
  8
0
100
AcDbCircle
 10
127.5580724438642
 20
160.9312354599732
 30
0.0
 40
2.0
100
AcDbArc
 50
180.0
 51
270.0
  0
LINE
  5
86C
330
2
100
AcDbEntity
  8
0
100
AcDbLine
 10
125.0580724438641
 20
156.6216954599733
 30
0.0
 11
125.5580724438642
 21
156.6216954599733
 31
0.0
  0
LINE
  5
86D
330
2
100
AcDbEntity
  8
0
100
AcDbLine
 10
127.5580724438642
 20
158.9312354599732
 30
0.0
 11
130.0580724438642
 21
158.9312354599732
 31
0.0
  0
LINE
  5
86E
330
2
100
AcDbEntity
  8
0
100
AcDbLine
 10
130.0580724438642
 20
156.2312234599732
 30
0.0
 11
128.5580724438642
 21
155.3651954599732
 31
0.0
  0
LINE
  5
86F
330
2
100
AcDbEntity
  8
0
100
AcDbLine
 10
130.0580724438642
 20
156.2312234599732
 30
0.0
 11
131.5580724438642
 21
155.3651954599732
 31
0.0
  0
LINE
  5
870
330
2
100
AcDbEntity
  8
0
100
AcDbLine
 10
124.8944524438642
 20
169.0559304599732
 30
0.0
 11
130.1250894438642
 21
170.9948034599733
 31
0.0
  0
ARC
  5
871
330
2
100
AcDbEntity
  8
0
100
AcDbCircle
 10
124.1993234438642
 20
170.9312354599732
 30
0.0
 40
2.0
100
AcDbArc
 50
270.0
 51
290.3387299999997
  0
ARC
  5
872
330
2
100
AcDbEntity
  8
0
100
AcDbCircle
 10
145.5580724438642
 20
162.6710734599732
 30
0.0
 40
2.0
100
AcDbArc
 50
319.3987050000003
 51
0.0
  0
LINE
  5
873
330
2
100
AcDbEntity
  8
0
100
AcDbLine
 10
147.5580724438642
 20
162.6710734599732
 30
0.0
 11
147.5580724438642
 21
163.1662204599732
 31
0.0
  0
ARC
  5
874
330
2
100
AcDbEntity
  8
0
100
AcDbCircle
 10
141.3634614438642
 20
173.9949864599732
 30
0.0
 40
6.0
100
AcDbArc
 50
227.3640750000003
 51
300.3583030000005
  0
ARC
  5
875
330
2
100
AcDbEntity
  8
0
100
AcDbCircle
 10
159.5580724438642
 20
142.9312354599732
 30
0.0
 40
30.0
100
AcDbArc
 50
112.3316420000001
 51
120.3582990000005
  0
ARC
  5
876
330
2
100
AcDbEntity
  8
0
100
AcDbCircle
 10
186.5580724438641
 20
130.9312354599732
 30
0.0
 40
8.5
100
AcDbArc
 50
17.1046349999994
 51
342.8953549999997
  0
CIRCLE
  5
877
330
2
100
AcDbEntity
  8
0
100
AcDbCircle
 10
186.5580724438641
 20
130.9312354599732
 30
0.0
 40
15.0
  0
LINE
  5
878
330
2
100
AcDbEntity
  8
0
100
AcDbLine
 10
191.0580724438642
 20
133.4312354599732
 30
0.0
 11
191.0580724438642
 21
128.4312354599732
 31
0.0
  0
LINE
  5
879
330
2
100
AcDbEntity
  8
0
100
AcDbLine
 10
196.0580724438642
 20
133.4312354599732
 30
0.0
 11
196.0580724438642
 21
128.4312354599732
 31
0.0
  0
ARC
  5
87A
330
2
100
AcDbEntity
  8
0
100
AcDbCircle
 10
186.5580724438641
 20
130.9312354599732
 30
0.0
 40
7.5
100
AcDbArc
 50
19.47122199999956
 51
340.5287780000004
  0
LINE
  5
87B
330
2
100
AcDbEntity
  8
0
100
AcDbLine
 10
191.0580724438642
 20
128.4312354599732
 30
0.0
 11
196.0580724438642
 21
128.4312354599732
 31
0.0
  0
LINE
  5
87C
330
2
100
AcDbEntity
  8
0
100
AcDbLine
 10
191.0580724438642
 20
133.4312354599732
 30
0.0
 11
196.0580724438642
 21
133.4312354599732
 31
0.0
  0
LINE
  5
87D
330
2
100
AcDbEntity
  8
0
100
AcDbLine
 10
194.5580724438642
 20
166.4312354599732
 30
0.0
 11
156.5580724438642
 21
166.4312354599732
 31
0.0
  0
ARC
  5
87E
330
2
100
AcDbEntity
  8
0
100
AcDbCircle
 10
151.5580724438642
 20
163.7961644599732
 30
0.0
 40
2.0
100
AcDbArc
 50
104.4775090000004
 51
180.0
  0
ARC
  5
87F
330
2
100
AcDbEntity
  8
0
100
AcDbCircle
 10
156.5580724438642
 20
144.4312354599732
 30
0.0
 40
22.0
100
AcDbArc
 50
90.0
 51
110.4873120000003
  0
ARC
  5
880
330
2
100
AcDbEntity
  8
0
100
AcDbCircle
 10
147.5580724438642
 20
161.9312354599732
 30
0.0
 40
2.0
100
AcDbArc
 50
319.3987050000003
 51
0.0
  0
LINE
  5
881
330
2
100
AcDbEntity
  8
0
100
AcDbLine
 10
149.5580724438642
 20
161.9312354599732
 30
0.0
 11
149.5580724438642
 21
163.7961644599732
 31
0.0
  0
ARC
  5
882
330
2
100
AcDbEntity
  8
0
100
AcDbCircle
 10
201.5580724438641
 20
163.1662204599732
 30
0.0
 40
2.0
100
AcDbArc
 50
0.0
 51
69.51268799999965
  0
ARC
  5
883
330
2
100
AcDbEntity
  8
0
100
AcDbCircle
 10
199.5580724438642
 20
163.7961644599732
 30
0.0
 40
2.0
100
AcDbArc
 50
0.0
 51
75.52249099999959
  0
ARC
  5
884
330
2
100
AcDbEntity
  8
0
100
AcDbCircle
 10
194.5580724438642
 20
144.4312354599732
 30
0.0
 40
22.0
100
AcDbArc
 50
69.51268799999965
 51
90.0
  0
LINE
  5
885
330
2
100
AcDbEntity
  8
0
100
AcDbLine
 10
201.6823094438642
 20
161.2373574599732
 30
0.0
 11
203.6823094438641
 21
161.9771944599732
 31
0.0
  0
ARC
  5
886
330
2
100
AcDbEntity
  8
0
100
AcDbCircle
 10
205.5580724438641
 20
162.6710734599732
 30
0.0
 40
2.0
100
AcDbArc
 50
180.0
 51
220.6012879999994
  0
ARC
  5
887
330
2
100
AcDbEntity
  8
0
100
AcDbCircle
 10
203.5580724438641
 20
161.9312354599732
 30
0.0
 40
2.0
100
AcDbArc
 50
180.0
 51
220.6012879999994
  0
LINE
  5
888
330
2
100
AcDbEntity
  8
0
100
AcDbLine
 10
201.5580724438641
 20
161.9312354599732
 30
0.0
 11
201.5580724438641
 21
163.7961644599732
 31
0.0
  0
LINE
  5
889
330
2
100
AcDbEntity
  8
0
100
AcDbLine
 10
203.5580724438641
 20
162.6710734599732
 30
0.0
 11
203.5580724438641
 21
163.1662204599732
 31
0.0
  0
ARC
  5
88A
330
2
100
AcDbEntity
  8
0
100
AcDbCircle
 10
199.1574074438642
 20
161.4312354599732
 30
0.0
 40
10.0
100
AcDbArc
 50
67.66835799999981
 51
90.0
  0
ARC
  5
88B
330
2
100
AcDbEntity
  8
0
100
AcDbCircle
 10
191.5580724438641
 20
142.9312354599732
 30
0.0
 40
30.0
100
AcDbArc
 50
59.64169699999944
 51
67.66835799999981
  0
ARC
  5
88C
330
2
100
AcDbEntity
  8
0
100
AcDbCircle
 10
221.0580724438642
 20
154.4312354599732
 30
0.0
 40
4.5
100
AcDbArc
 50
90.0
 51
270.0
  0
LINE
  5
88E
330
2
100
AcDbEntity
  8
0
100
AcDbLine
 10
222.5580724438642
 20
153.4972454599732
 30
0.0
 11
222.5580724438642
 21
155.3651954599732
 31
0.0
  0
LINE
  5
88F
330
2
100
AcDbEntity
  8
0
100
AcDbLine
 10
219.5580724438642
 20
153.4972454599732
 30
0.0
 11
219.5580724438642
 21
155.3651954599732
 31
0.0
  0
CIRCLE
  5
890
330
2
100
AcDbEntity
  8
0
100
AcDbCircle
 10
221.0580724438642
 20
154.4312354599732
 30
0.0
 40
3.5
  0
CIRCLE
  5
891
330
2
100
AcDbEntity
  8
0
100
AcDbCircle
 10
221.0580724438642
 20
154.4312354599732
 30
0.0
 40
3.799999999999999
  0
LINE
  5
892
330
2
100
AcDbEntity
  8
0
100
AcDbLine
 10
216.5580724438642
 20
144.4312354599732
 30
0.0
 11
216.5580724438642
 21
117.4312354599732
 31
0.0
  0
LINE
  5
893
330
2
100
AcDbEntity
  8
0
100
AcDbLine
 10
221.5580724438642
 20
120.2596654599732
 30
0.0
 11
221.5580724438642
 21
141.6028054599733
 31
0.0
  0
LINE
  5
894
330
2
100
AcDbEntity
  8
0
100
AcDbLine
 10
222.1438574438642
 20
118.8454504599732
 30
0.0
 11
224.9722874438642
 21
116.0170204599732
 31
0.0
  0
LINE
  5
895
330
2
100
AcDbEntity
  8
0
100
AcDbLine
 10
212.5580724438642
 20
112.4312354599732
 30
0.0
 11
214.3317844438641
 21
112.4312354599732
 31
0.0
  0
ARC
  5
896
330
2
100
AcDbEntity
  8
0
100
AcDbCircle
 10
223.5580724438642
 20
120.2596654599732
 30
0.0
 40
2.0
100
AcDbArc
 50
180.0
 51
225.0
  0
ARC
  5
897
330
2
100
AcDbEntity
  8
0
100
AcDbCircle
 10
223.5580724438642
 20
114.6028054599733
 30
0.0
 40
2.0
100
AcDbArc
 50
0.0
 51
45.0
  0
LINE
  5
899
330
2
100
AcDbEntity
  8
0
100
AcDbLine
 10
223.5580724438642
 20
149.9312354599732
 30
0.0
 11
221.0580724438642
 21
149.9312354599732
 31
0.0
  0
LINE
  5
89A
330
2
100
AcDbEntity
  8
0
100
AcDbLine
 10
222.1438574438642
 20
143.0170204599732
 30
0.0
 11
224.9722874438642
 21
145.8454504599732
 31
0.0
  0
ARC
  5
89B
330
2
100
AcDbEntity
  8
0
100
AcDbCircle
 10
223.5580724438642
 20
141.6028054599733
 30
0.0
 40
2.0
100
AcDbArc
 50
135.0
 51
180.0
  0
ARC
  5
89C
330
2
100
AcDbEntity
  8
0
100
AcDbCircle
 10
213.9230014438642
 20
149.4312354599732
 30
0.0
 40
2.0
100
AcDbArc
 50
14.47751199999975
 51
90.0
  0
ARC
  5
89D
330
2
100
AcDbEntity
  8
0
100
AcDbCircle
 10
214.3317844438641
 20
147.4312354599732
 30
0.0
 40
2.0
100
AcDbArc
 50
8.626927000000565
 51
90.0
  0
LINE
  5
89E
330
2
100
AcDbEntity
  8
0
100
AcDbLine
 10
213.4779334438641
 20
151.4312354599732
 30
0.0
 11
213.9230014438642
 21
151.4312354599732
 31
0.0
  0
LINE
  5
89F
330
2
100
AcDbEntity
  8
0
100
AcDbLine
 10
212.5580724438642
 20
149.4312354599732
 30
0.0
 11
214.3317844438641
 21
149.4312354599732
 31
0.0
  0
LINE
  5
8A0
330
2
100
AcDbEntity
  8
0
100
AcDbLine
 10
211.7223484438641
 20
149.6142184599733
 30
0.0
 11
212.6422394438642
 21
151.6142184599733
 31
0.0
  0
ARC
  5
8A1
330
2
100
AcDbEntity
  8
0
100
AcDbCircle
 10
212.5580724438642
 20
151.4312354599732
 30
0.0
 40
2.0
100
AcDbArc
 50
220.6012879999994
 51
270.0
  0
ARC
  5
8A2
330
2
100
AcDbEntity
  8
0
100
AcDbCircle
 10
213.4779334438641
 20
153.4312354599732
 30
0.0
 40
2.0
100
AcDbArc
 50
220.6012879999994
 51
270.0
  0
LINE
  5
8A3
330
2
100
AcDbEntity
  8
0
100
AcDbLine
 10
221.0580724438642
 20
152.6312174599732
 30
0.0
 11
219.5580724438642
 21
153.4972454599732
 31
0.0
  0
LINE
  5
8A4
330
2
100
AcDbEntity
  8
0
100
AcDbLine
 10
221.0580724438642
 20
152.6312174599732
 30
0.0
 11
222.5580724438642
 21
153.4972454599732
 31
0.0
  0
ARC
  5
8A5
330
2
100
AcDbEntity
  8
0
100
AcDbCircle
 10
194.5580724438642
 20
144.4312354599732
 30
0.0
 40
22.0
100
AcDbArc
 50
0.0
 51
14.47751199999975
  0
ARC
  5
8A6
330
2
100
AcDbEntity
  8
0
100
AcDbCircle
 10
223.5580724438642
 20
147.9312354599732
 30
0.0
 40
2.0
100
AcDbArc
 50
0.0
 51
90.0
  0
ARC
  5
8A7
330
2
100
AcDbEntity
  8
0
100
AcDbCircle
 10
223.5580724438642
 20
147.2596654599732
 30
0.0
 40
2.0
100
AcDbArc
 50
315.0
 51
0.0
  0
CIRCLE
  5
8A8
330
2
100
AcDbEntity
  8
0
100
AcDbCircle
 10
218.5580724438642
 20
164.4312354599732
 30
0.0
 40
4.25
  0
LINE
  5
8A9
330
2
100
AcDbEntity
  8
0
100
AcDbLine
 10
223.5580724438642
 20
158.9312354599732
 30
0.0
 11
221.0580724438642
 21
158.9312354599732
 31
0.0
  0
ARC
  5
8AA
330
2
100
AcDbEntity
  8
0
100
AcDbCircle
 10
218.5580724438642
 20
164.4312354599732
 30
0.0
 40
7.0
100
AcDbArc
 50
0.0
 51
132.6359249999996
  0
CIRCLE
  5
8AC
330
2
100
AcDbEntity
  8
HOJO
100
AcDbCircle
 10
218.5580724438642
 20
164.4312354599732
 30
0.0
 40
4.0
  0
CIRCLE
  5
8AD
330
2
100
AcDbEntity
  8
0
100
AcDbCircle
 10
218.5580724438642
 20
164.4312354599732
 30
0.0
 40
3.399999999999999
  0
LINE
  5
8AF
330
2
100
AcDbEntity
  8
0
100
AcDbLine
 10
221.0580724438642
 20
156.2312234599732
 30
0.0
 11
222.5580724438642
 21
155.3651954599732
 31
0.0
  0
LINE
  5
8B0
330
2
100
AcDbEntity
  8
0
100
AcDbLine
 10
221.0580724438642
 20
156.2312234599732
 30
0.0
 11
219.5580724438642
 21
155.3651954599732
 31
0.0
  0
ARC
  5
8B1
330
2
100
AcDbEntity
  8
0
100
AcDbCircle
 10
223.5580724438642
 20
160.9312354599732
 30
0.0
 40
2.0
100
AcDbArc
 50
270.0
 51
0.0
  0
LINE
  5
8B2
330
2
100
AcDbEntity
  8
0
100
AcDbLine
 10
312.5580724438642
 20
158.9312354599732
 30
0.0
 11
312.5580724438642
 21
149.9312354599732
 31
0.0
  0
LINE
  5
8B3
330
2
100
AcDbEntity
  8
0
100
AcDbLine
 10
307.5580414438642
 20
157.9312354599732
 30
0.0
 11
307.5580414438642
 21
150.9312354599732
 31
0.0
  0
LINE
  5
8B4
330
2
100
AcDbEntity
  8
0
100
AcDbLine
 10
311.5580414438642
 20
158.2312234599732
 30
0.0
 11
311.5580414438642
 21
150.6312474599732
 31
0.0
  0
LINE
  5
8B5
330
2
100
AcDbEntity
  8
0
100
AcDbLine
 10
278.0580724438642
 20
128.4312354599732
 30
0.0
 11
299.5580724438642
 21
128.4312354599732
 31
0.0
  0
LINE
  5
8B6
330
2
100
AcDbEntity
  8
0
100
AcDbLine
 10
278.0580724438642
 20
133.4312354599732
 30
0.0
 11
299.5580724438642
 21
133.4312354599732
 31
0.0
  0
LINE
  5
8B7
330
2
100
AcDbEntity
  8
0
100
AcDbLine
 10
278.0580724438642
 20
123.4312354599732
 30
0.0
 11
305.0580724438642
 21
123.4312354599732
 31
0.0
  0
LINE
  5
8B8
330
2
100
AcDbEntity
  8
0
100
AcDbLine
 10
278.0580724438642
 20
138.4312354599732
 30
0.0
 11
305.0580724438642
 21
138.4312354599732
 31
0.0
  0
LINE
  5
8B9
330
2
100
AcDbEntity
  8
0
100
AcDbLine
 10
278.0580724438642
 20
138.4312354599732
 30
0.0
 11
278.0580724438642
 21
123.4312354599732
 31
0.0
  0
LINE
  5
8BA
330
2
100
AcDbEntity
  8
0
100
AcDbLine
 10
305.0580724438642
 20
138.7425754599732
 30
0.0
 11
305.0580724438642
 21
123.1198954599733
 31
0.0
  0
ARC
  5
8BB
330
2
100
AcDbEntity
  8
0
100
AcDbCircle
 10
299.5580724438642
 20
130.9312354599732
 30
0.0
 40
2.5
100
AcDbArc
 50
270.0
 51
90.0
  0
LINE
  5
8BC
330
2
100
AcDbEntity
  8
0
100
AcDbLine
 10
318.5580724438642
 20
115.4312354599732
 30
0.0
 11
306.0580724438642
 21
115.4312354599732
 31
0.0
  0
LINE
  5
8BD
330
2
100
AcDbEntity
  8
0
100
AcDbLine
 10
318.5580724438642
 20
119.4312354599732
 30
0.0
 11
306.0580724438642
 21
119.4312354599732
 31
0.0
  0
ARC
  5
8BE
330
2
100
AcDbEntity
  8
0
100
AcDbCircle
 10
305.5580724438641
 20
123.1198954599733
 30
0.0
 40
0.5
100
AcDbArc
 50
180.0
 51
239.9999999999998
  0
LINE
  5
8BF
330
2
100
AcDbEntity
  8
0
100
AcDbLine
 10
306.0580724438642
 20
122.4312354599732
 30
0.0
 11
305.8355074438642
 21
122.4312354599732
 31
0.0
  0
LINE
  5
8C0
330
2
100
AcDbEntity
  8
0
100
AcDbLine
 10
305.3080724438641
 20
122.6869114599732
 30
0.0
 11
305.4599894438641
 21
122.5991734599732
 31
0.0
  0
ARC
  5
8C1
330
2
100
AcDbEntity
  8
0
100
AcDbCircle
 10
306.4599894438641
 20
124.3312294599732
 30
0.0
 40
2.0
100
AcDbArc
 50
239.9999999999998
 51
251.8051300000002
  0
LINE
  5
8C2
330
2
100
AcDbEntity
  8
0
100
AcDbLine
 10
318.5580724438642
 20
142.4312354599732
 30
0.0
 11
306.0580724438642
 21
142.4312354599732
 31
0.0
  0
LINE
  5
8C3
330
2
100
AcDbEntity
  8
0
100
AcDbLine
 10
318.5580724438642
 20
146.4312354599732
 30
0.0
 11
306.0580724438642
 21
146.4312354599732
 31
0.0
  0
LINE
  5
8C4
330
2
100
AcDbEntity
  8
0
100
AcDbLine
 10
306.0580724438642
 20
149.7610384599732
 30
0.0
 11
312.5580724438642
 21
149.9312354599732
 31
0.0
  0
LINE
  5
8C5
330
2
100
AcDbEntity
  8
0
100
AcDbLine
 10
311.5580414438642
 20
150.6312474599732
 30
0.0
 11
312.5580724438642
 21
150.6312474599732
 31
0.0
  0
LINE
  5
8C6
330
2
100
AcDbEntity
  8
CENTER
100
AcDbLine
 10
305.6183754438642
 20
154.4312354599732
 30
0.0
 11
313.6030854438641
 21
154.4312354599732
 31
0.0
  0
LINE
  5
8C7
330
2
100
AcDbEntity
  8
0
100
AcDbLine
 10
306.0580724438642
 20
139.4312354599732
 30
0.0
 11
305.8355074438642
 21
139.4312354599732
 31
0.0
  0
ARC
  5
8C8
330
2
100
AcDbEntity
  8
0
100
AcDbCircle
 10
306.4599894438641
 20
137.5312414599732
 30
0.0
 40
2.0
100
AcDbArc
 50
108.1948699999997
 51
120.0000000000001
  0
LINE
  5
8C9
330
2
100
AcDbEntity
  8
0
100
AcDbLine
 10
305.3080724438641
 20
139.1755594599732
 30
0.0
 11
305.4599894438641
 21
139.2632974599732
 31
0.0
  0
ARC
  5
8CA
330
2
100
AcDbEntity
  8
0
100
AcDbCircle
 10
305.5580724438641
 20
138.7425754599732
 30
0.0
 40
0.5
100
AcDbArc
 50
120.0000000000001
 51
180.0
  0
LINE
  5
8CB
330
2
100
AcDbEntity
  8
0
100
AcDbLine
 10
307.5580414438642
 20
150.9312354599732
 30
0.0
 11
311.5580414438642
 21
150.9312044599733
 31
0.0
  0
LINE
  5
8CD
330
2
100
AcDbEntity
  8
HIDS
100
AcDbLine
 10
306.0580724438642
 20
160.1812354599732
 30
0.0
 11
318.5580724438642
 21
160.1812354599732
 31
0.0
  0
LINE
  5
8CE
330
2
100
AcDbEntity
  8
HIDS
100
AcDbLine
 10
306.0580724438642
 20
168.6812354599732
 30
0.0
 11
318.5580724438642
 21
168.6812354599732
 31
0.0
  0
LINE
  5
8CF
330
2
100
AcDbEntity
  8
0
100
AcDbLine
 10
306.0580724438642
 20
159.1014324599733
 30
0.0
 11
312.5580724438642
 21
158.9312354599732
 31
0.0
  0
LINE
  5
8D0
330
2
100
AcDbEntity
  8
0
100
AcDbLine
 10
311.5580414438642
 20
158.2312234599732
 30
0.0
 11
312.5580724438642
 21
158.2312234599732
 31
0.0
  0
LINE
  5
8D2
330
2
100
AcDbEntity
  8
0
100
AcDbLine
 10
307.5580414438642
 20
157.9312354599732
 30
0.0
 11
311.5580414438642
 21
157.9312664599732
 31
0.0
  0
LINE
  5
8D3
330
2
100
AcDbEntity
  8
HIDS
100
AcDbLine
 10
323.5580724438642
 20
166.5643834599732
 30
0.0
 11
323.5580724438642
 21
162.6329564599732
 31
0.0
  0
ARC
  5
8D7
330
2
100
AcDbEntity
  8
HIDS
100
AcDbCircle
 10
320.5580724438642
 20
162.6329564599732
 30
0.0
 40
3.0
100
AcDbArc
 50
309.3567009999997
 51
0.0
  0
ARC
  5
8D8
330
2
100
AcDbEntity
  8
HIDS
100
AcDbCircle
 10
325.5580724438642
 20
166.5643834599732
 30
0.0
 40
2.0
100
AcDbArc
 50
91.00000000000013
 51
180.0
  0
LINE
  5
8D9
330
2
100
AcDbEntity
  8
0
100
AcDbLine
 10
700.6135534438642
 20
165.9312354599732
 30
0.0
 11
700.6135534438642
 21
95.93123545997327
 31
0.0
  0
LINE
  5
8DA
330
2
100
AcDbEntity
  8
0
100
AcDbLine
 10
701.1135534438643
 20
162.9312354599732
 30
0.0
 11
701.1135534438643
 21
98.93123545997326
 31
0.0
  0
LINE
  5
8DB
330
2
100
AcDbEntity
  8
0
100
AcDbLine
 10
680.6135534438642
 20
168.9312354599732
 30
0.0
 11
680.6135534438642
 21
92.93123545997326
 31
0.0
  0
CIRCLE
  5
8DC
330
2
100
AcDbEntity
  8
0
100
AcDbCircle
 10
546.5580724438641
 20
130.9312354599732
 30
0.0
 40
25.002001
  0
CIRCLE
  5
8DD
330
2
100
AcDbEntity
  8
0
100
AcDbCircle
 10
546.5580724438641
 20
130.9312354599732
 30
0.0
 40
23.0
  0
CIRCLE
  5
8DE
330
2
100
AcDbEntity
  8
0
100
AcDbCircle
 10
546.5580724438641
 20
130.9312354599732
 30
0.0
 40
19.0
  0
ARC
  5
8DF
330
2
100
AcDbEntity
  8
0
100
AcDbCircle
 10
576.5580724438641
 20
117.4312354599732
 30
0.0
 40
22.0
100
AcDbArc
 50
345.5224880000002
 51
0.0
  0
ARC
  5
8E0
330
2
100
AcDbEntity
  8
0
100
AcDbCircle
 10
538.5580724438641
 20
117.4312354599732
 30
0.0
 40
22.0
100
AcDbArc
 50
180.0
 51
194.4775090000004
  0
ARC
  5
8E1
330
2
100
AcDbEntity
  8
0
100
AcDbCircle
 10
596.3318154438641
 20
114.4312354599732
 30
0.0
 40
2.0
100
AcDbArc
 50
270.0
 51
351.373077
  0
LINE
  5
8E2
330
2
100
AcDbEntity
  8
0
100
AcDbLine
 10
593.7223794438641
 20
112.2482524599732
 30
0.0
 11
594.642239443864
 21
110.2482524599732
 31
0.0
  0
ARC
  5
8E3
330
2
100
AcDbEntity
  8
0
100
AcDbCircle
 10
594.5580724438641
 20
110.4312354599732
 30
0.0
 40
2.0
100
AcDbArc
 50
90.0
 51
139.3987120000005
  0
ARC
  5
8E4
330
2
100
AcDbEntity
  8
0
100
AcDbCircle
 10
518.7843294438642
 20
114.4312354599732
 30
0.0
 40
2.0
100
AcDbArc
 50
188.626923
 51
270.0
  0
LINE
  5
8E5
330
2
100
AcDbEntity
  8
0
100
AcDbLine
 10
521.3937654438641
 20
112.2482524599732
 30
0.0
 11
520.4739054438642
 21
110.2482524599732
 31
0.0
  0
ARC
  5
8E6
330
2
100
AcDbEntity
  8
0
100
AcDbCircle
 10
520.5580724438641
 20
110.4312354599732
 30
0.0
 40
2.0
100
AcDbArc
 50
40.60129499999965
 51
90.0
  0
LINE
  5
8E7
330
2
100
AcDbEntity
  8
0
100
AcDbLine
 10
607.5580724438641
 20
114.6028054599733
 30
0.0
 11
607.5580724438641
 21
97.43123545997327
 31
0.0
  0
LINE
  5
8E8
330
2
100
AcDbEntity
  8
0
100
AcDbLine
 10
507.5580724438641
 20
97.43123545997327
 30
0.0
 11
507.5580724438641
 21
164.4312354599732
 31
0.0
  0
ARC
  5
8EA
330
2
100
AcDbEntity
  8
HIDS
100
AcDbCircle
 10
346.5580724438642
 20
130.9312354599732
 30
0.0
 40
38.0
100
AcDbArc
 50
309.3567009999997
 51
50.64329900000029
  0
LINE
  5
8EB
330
2
100
AcDbEntity
  8
0
100
AcDbLine
 10
387.0580724438642
 20
170.7242954599732
 30
0.0
 11
387.0580724438642
 21
91.13815945997329
 31
0.0
  0
LINE
  5
8EC
330
2
100
AcDbEntity
  8
CENTER
100
AcDbLine
 10
346.5580724438642
 20
206.8187334599732
 30
0.0
 11
346.5580724438642
 21
83.3831094599733
 31
0.0
  0
LINE
  5
8ED
330
2
100
AcDbEntity
  8
0
100
AcDbLine
 10
538.5580724438641
 20
95.43123545997326
 30
0.0
 11
576.5580724438641
 21
95.43123545997326
 31
0.0
  0
LINE
  5
8EE
330
2
100
AcDbEntity
  8
0
100
AcDbLine
 10
600.5580724438641
 20
90.43123545997326
 30
0.0
 11
514.5580724438641
 21
90.43123545997326
 31
0.0
  0
LINE
  5
8F0
330
2
100
AcDbEntity
  8
HOJO
100
AcDbLine
 10
354.5580724438642
 20
93.43123545997327
 30
0.0
 11
387.0580724438642
 21
93.43123545997327
 31
0.0
  0
LINE
  5
8F1
330
2
100
AcDbEntity
  8
HOJO
100
AcDbLine
 10
354.5580724438642
 20
101.4312354599732
 30
0.0
 11
387.0580724438642
 21
101.4312354599732
 31
0.0
  0
LINE
  5
8F2
330
2
100
AcDbEntity
  8
0
100
AcDbLine
 10
346.5580724438642
 20
90.43123545997326
 30
0.0
 11
387.0580724438642
 21
91.13815945997329
 31
0.0
  0
LINE
  5
8F4
330
2
100
AcDbEntity
  8
HIDS
100
AcDbLine
 10
367.5929844438642
 20
93.29840745997328
 30
0.0
 11
346.5580724438642
 21
92.93123545997326
 31
0.0
  0
LINE
  5
8F6
330
2
100
AcDbEntity
  8
HOJO
100
AcDbLine
 10
338.5580724438641
 20
101.4312354599732
 30
0.0
 11
338.5580724438641
 21
93.43123545997327
 31
0.0
  0
LINE
  5
8F9
330
2
100
AcDbEntity
  8
HOJO
100
AcDbLine
 10
354.5580724438642
 20
101.4312354599732
 30
0.0
 11
354.5580724438642
 21
93.43123545997327
 31
0.0
  0
ARC
  5
8FE
330
2
100
AcDbEntity
  8
HIDS
100
AcDbCircle
 10
372.5580724438642
 20
99.22951445997325
 30
0.0
 40
3.0
100
AcDbArc
 50
129.3567050000005
 51
180.0
  0
ARC
  5
8FF
330
2
100
AcDbEntity
  8
HIDS
100
AcDbCircle
 10
367.5580724438642
 20
95.29810245997325
 30
0.0
 40
2.0
100
AcDbArc
 50
271.0000000000001
 51
0.0
  0
LINE
  5
900
330
2
100
AcDbEntity
  8
HIDS
100
AcDbLine
 10
369.5580724438642
 20
95.29810245997325
 30
0.0
 11
369.5580724438642
 21
99.22951445997325
 31
0.0
  0
ARC
  5
906
330
2
100
AcDbEntity
  8
0
100
AcDbCircle
 10
538.5580724438641
 20
117.4312354599732
 30
0.0
 40
22.0
100
AcDbArc
 50
249.5126879999996
 51
270.0
  0
ARC
  5
907
330
2
100
AcDbEntity
  8
0
100
AcDbCircle
 10
533.958707443864
 20
100.4312354599732
 30
0.0
 40
10.0
100
AcDbArc
 50
247.6683499999999
 51
270.0
  0
ARC
  5
908
330
2
100
AcDbEntity
  8
0
100
AcDbCircle
 10
514.5580724438641
 20
97.43123545997327
 30
0.0
 40
7.0
100
AcDbArc
 50
180.0
 51
312.6359249999997
  0
ARC
  5
90A
330
2
100
AcDbEntity
  8
0
100
AcDbCircle
 10
523.363431443864
 20
87.86749945997328
 30
0.0
 40
6.0
100
AcDbArc
 50
59.64169699999944
 51
132.6359249999996
  0
ARC
  5
90B
330
2
100
AcDbEntity
  8
0
100
AcDbCircle
 10
519.638211443864
 20
108.4312354599732
 30
0.0
 40
2.0
100
AcDbArc
 50
40.60129499999965
 51
90.0
  0
CIRCLE
  5
90D
330
2
100
AcDbEntity
  8
HOJO
100
AcDbCircle
 10
514.5580724438641
 20
97.43123545997327
 30
0.0
 40
4.0
  0
CIRCLE
  5
90E
330
2
100
AcDbEntity
  8
0
100
AcDbCircle
 10
514.5580724438641
 20
97.43123545997327
 30
0.0
 40
3.399999999999999
  0
ARC
  5
90F
330
2
100
AcDbEntity
  8
0
100
AcDbCircle
 10
519.1931434438642
 20
112.4312354599732
 30
0.0
 40
2.0
100
AcDbArc
 50
194.4775090000004
 51
270.0
  0
LINE
  5
910
330
2
100
AcDbEntity
  8
0
100
AcDbLine
 10
519.638211443864
 20
110.4312354599732
 30
0.0
 11
519.1931434438642
 21
110.4312354599732
 31
0.0
  0
LINE
  5
911
330
2
100
AcDbEntity
  8
0
100
AcDbLine
 10
522.0765664438642
 20
111.7328104599732
 30
0.0
 11
531.0765664438642
 21
101.2328104599732
 31
0.0
  0
LINE
  5
912
330
2
100
AcDbEntity
  8
0
100
AcDbLine
 10
521.1567054438642
 20
109.7328104599732
 30
0.0
 11
529.0765664438643
 21
100.4929724599732
 31
0.0
  0
ARC
  5
913
330
2
100
AcDbEntity
  8
0
100
AcDbCircle
 10
541.5580724438641
 20
118.9312354599732
 30
0.0
 40
30.0
100
AcDbArc
 50
239.6416930000005
 51
247.6683499999999
  0
ARC
  5
914
330
2
100
AcDbEntity
  8
0
100
AcDbCircle
 10
531.5580724438641
 20
98.69625045997327
 30
0.0
 40
2.0
100
AcDbArc
 50
180.0
 51
249.5126799999996
  0
ARC
  5
915
330
2
100
AcDbEntity
  8
0
100
AcDbCircle
 10
533.5580724438641
 20
98.06630645997325
 30
0.0
 40
2.0
100
AcDbArc
 50
180.0
 51
255.5224909999995
  0
LINE
  5
916
330
2
100
AcDbEntity
  8
0
100
AcDbLine
 10
531.4338654438641
 20
100.6251134599732
 30
0.0
 11
529.433865443864
 21
99.88527645997329
 31
0.0
  0
ARC
  5
917
330
2
100
AcDbEntity
  8
0
100
AcDbCircle
 10
527.5580724438641
 20
99.1913974599733
 30
0.0
 40
2.0
100
AcDbArc
 50
0.0
 51
40.60129499999965
  0
ARC
  5
918
330
2
100
AcDbEntity
  8
0
100
AcDbCircle
 10
529.5580724438641
 20
99.93123545997327
 30
0.0
 40
2.0
100
AcDbArc
 50
0.0
 51
40.60129499999965
  0
LINE
  5
919
330
2
100
AcDbEntity
  8
0
100
AcDbLine
 10
531.5580724438641
 20
99.93123545997327
 30
0.0
 11
531.5580724438641
 21
98.06630645997325
 31
0.0
  0
LINE
  5
91A
330
2
100
AcDbEntity
  8
0
100
AcDbLine
 10
529.5580724438641
 20
99.1913974599733
 30
0.0
 11
529.5580724438641
 21
98.69625045997327
 31
0.0
  0
LINE
  5
91B
330
2
100
AcDbEntity
  8
0
100
AcDbLine
 10
699.031949443864
 20
100.6822424599732
 30
0.0
 11
680.6135534438642
 21
100.6822424599732
 31
0.0
  0
LINE
  5
91C
330
2
100
AcDbEntity
  8
0
100
AcDbLine
 10
697.1495034438642
 20
92.93123545997326
 30
0.0
 11
680.6135534438642
 21
92.93123545997326
 31
0.0
  0
LINE
  5
91D
330
2
100
AcDbEntity
  8
0
100
AcDbLine
 10
680.6135534438642
 20
100.6822734599732
 30
0.0
 11
607.5580724438641
 21
100.6822734599732
 31
0.0
  0
LINE
  5
91E
330
2
100
AcDbEntity
  8
0
100
AcDbLine
 10
680.6135534438642
 20
92.93123545997326
 30
0.0
 11
608.9168374438643
 21
92.93123545997326
 31
0.0
  0
ARC
  5
91F
330
2
100
AcDbEntity
  8
0
100
AcDbCircle
 10
591.7527134438642
 20
87.86749945997328
 30
0.0
 40
6.0
100
AcDbArc
 50
47.3640670000003
 51
120.3582990000005
  0
ARC
  5
920
330
2
100
AcDbEntity
  8
0
100
AcDbCircle
 10
595.4779334438642
 20
108.4312354599732
 30
0.0
 40
2.0
100
AcDbArc
 50
90.0
 51
139.3987120000005
  0
LINE
  5
921
330
2
100
AcDbEntity
  8
0
100
AcDbLine
 10
593.9594394438641
 20
109.7328104599732
 30
0.0
 11
586.0395784438642
 21
100.4929724599732
 31
0.0
  0
ARC
  5
923
330
2
100
AcDbEntity
  8
0
100
AcDbCircle
 10
581.1574374438642
 20
100.4312354599732
 30
0.0
 40
10.0
100
AcDbArc
 50
270.0
 51
292.3316350000003
  0
ARC
  5
924
330
2
100
AcDbEntity
  8
0
100
AcDbCircle
 10
576.5580724438641
 20
117.4312354599732
 30
0.0
 40
22.0
100
AcDbArc
 50
270.0
 51
290.4873049999995
  0
LINE
  5
925
330
2
100
AcDbEntity
  8
0
100
AcDbLine
 10
593.0395784438642
 20
111.7328104599732
 30
0.0
 11
584.0395784438642
 21
101.2328104599732
 31
0.0
  0
ARC
  5
926
330
2
100
AcDbEntity
  8
0
100
AcDbCircle
 10
573.5580724438641
 20
118.9312354599732
 30
0.0
 40
30.0
100
AcDbArc
 50
292.3316350000003
 51
300.3583069999994
  0
ARC
  5
927
330
2
100
AcDbEntity
  8
0
100
AcDbCircle
 10
583.5580724438641
 20
98.69625045997327
 30
0.0
 40
2.0
100
AcDbArc
 50
290.4873120000003
 51
0.0
  0
ARC
  5
928
330
2
100
AcDbEntity
  8
0
100
AcDbCircle
 10
581.5580724438641
 20
98.06630645997325
 30
0.0
 40
2.0
100
AcDbArc
 50
284.4775090000004
 51
0.0
  0
LINE
  5
929
330
2
100
AcDbEntity
  8
0
100
AcDbLine
 10
583.6822794438642
 20
100.6251134599732
 30
0.0
 11
585.6822794438642
 21
99.88527645997329
 31
0.0
  0
ARC
  5
92A
330
2
100
AcDbEntity
  8
0
100
AcDbCircle
 10
587.5580724438641
 20
99.1913974599733
 30
0.0
 40
2.0
100
AcDbArc
 50
139.3987120000005
 51
180.0
  0
ARC
  5
92B
330
2
100
AcDbEntity
  8
0
100
AcDbCircle
 10
585.5580724438641
 20
99.93123545997327
 30
0.0
 40
2.0
100
AcDbArc
 50
139.3987120000005
 51
180.0
  0
LINE
  5
92C
330
2
100
AcDbEntity
  8
0
100
AcDbLine
 10
583.5580724438641
 20
99.93123545997327
 30
0.0
 11
583.5580724438641
 21
98.06630645997325
 31
0.0
  0
LINE
  5
92D
330
2
100
AcDbEntity
  8
0
100
AcDbLine
 10
585.5580724438641
 20
99.1913974599733
 30
0.0
 11
585.5580724438641
 21
98.69625045997327
 31
0.0
  0
LINE
  5
92E
330
2
100
AcDbEntity
  8
0
100
AcDbLine
 10
608.2217074438642
 20
92.80654045997323
 30
0.0
 11
602.9910554438643
 21
90.86765245997327
 31
0.0
  0
ARC
  5
92F
330
2
100
AcDbEntity
  8
0
100
AcDbCircle
 10
600.5580724438641
 20
97.43123545997327
 30
0.0
 40
7.0
100
AcDbArc
 50
227.3640750000003
 51
0.0
  0
ARC
  5
931
330
2
100
AcDbEntity
  8
0
100
AcDbCircle
 10
608.9168374438643
 20
90.93123545997327
 30
0.0
 40
2.0
100
AcDbArc
 50
90.0
 51
110.3387299999997
  0
CIRCLE
  5
932
330
2
100
AcDbEntity
  8
HOJO
100
AcDbCircle
 10
600.5580724438641
 20
97.43123545997327
 30
0.0
 40
4.0
  0
CIRCLE
  5
933
330
2
100
AcDbEntity
  8
0
100
AcDbCircle
 10
600.5580724438641
 20
97.43123545997327
 30
0.0
 40
3.399999999999999
  0
ARC
  5
934
330
2
100
AcDbEntity
  8
0
100
AcDbCircle
 10
595.9230014438642
 20
112.4312354599732
 30
0.0
 40
2.0
100
AcDbArc
 50
270.0
 51
345.5224909999996
  0
LINE
  5
935
330
2
100
AcDbEntity
  8
0
100
AcDbLine
 10
595.4779334438642
 20
110.4312354599732
 30
0.0
 11
595.9230014438642
 21
110.4312354599732
 31
0.0
  0
ARC
  5
936
330
2
100
AcDbEntity
  8
0
100
AcDbCircle
 10
697.1495034438642
 20
95.93123545997327
 30
0.0
 40
3.0
100
AcDbArc
 50
270.0
 51
330.0003970000009
  0
LINE
  5
937
330
2
100
AcDbEntity
  8
0
100
AcDbLine
 10
699.7475864438641
 20
94.43123545997327
 30
0.0
 11
700.6135534438642
 21
95.93123545997327
 31
0.0
  0
LINE
  5
938
330
2
100
AcDbEntity
  8
0
100
AcDbLine
 10
701.1135534438643
 20
98.93123545997326
 30
0.0
 11
700.6135534438642
 21
98.43123545997327
 31
0.0
  0
LINE
  5
939
330
2
100
AcDbEntity
  8
0
100
AcDbLine
 10
508.2649814438641
 20
368.4513835609468
 30
0.0
 11
606.8511634438642
 21
368.4513835609468
 31
0.0
  0
LINE
  5
93A
330
2
100
AcDbEntity
  8
0
100
AcDbLine
 10
608.5580724438641
 20
355.9513835609468
 30
0.0
 11
508.0468424438643
 21
355.9513835609468
 31
0.0
  0
LINE
  5
93B
330
2
100
AcDbEntity
  8
0
100
AcDbLine
 10
606.8511634438642
 20
287.4513835609468
 30
0.0
 11
508.2649814438641
 21
287.4513835609468
 31
0.0
  0
LINE
  5
93C
330
2
100
AcDbEntity
  8
CENTER
100
AcDbLine
 10
500.0173014438642
 20
327.9513835609468
 30
0.0
 11
709.6340834120984
 21
327.9513835609468
 31
0.0
  0
LINE
  5
93D
330
2
100
AcDbEntity
  8
0
100
AcDbLine
 10
538.5580724438641
 20
166.4312354599732
 30
0.0
 11
576.5580724438641
 21
166.4312354599732
 31
0.0
  0
LINE
  5
93E
330
2
100
AcDbEntity
  8
0
100
AcDbLine
 10
600.5580724438641
 20
171.4312354599732
 30
0.0
 11
514.5580724438641
 21
171.4312354599732
 31
0.0
  0
LINE
  5
93F
330
2
100
AcDbEntity
  8
CENTER
100
AcDbLine
 10
500.0173014438642
 20
130.9312354599732
 30
0.0
 11
709.6340834120984
 21
130.9312354599732
 31
0.0
  0
LINE
  5
940
330
2
100
AcDbEntity
  8
HIDS
100
AcDbLine
 10
518.5580724438641
 20
287.4513835609468
 30
0.0
 11
518.5580724438641
 21
319.9513835609468
 31
0.0
  0
LINE
  5
941
330
2
100
AcDbEntity
  8
HIDS
100
AcDbLine
 10
510.5580724438641
 20
287.4513835609468
 30
0.0
 11
510.5580724438641
 21
319.9513835609468
 31
0.0
  0
LINE
  5
942
330
2
100
AcDbEntity
  8
HIDS
100
AcDbLine
 10
517.9580964438641
 20
355.9513835609468
 30
0.0
 11
517.9580964438641
 21
287.4513835609468
 31
0.0
  0
LINE
  5
943
330
2
100
AcDbEntity
  8
HIDS
100
AcDbLine
 10
511.1580484438641
 20
355.9513835609468
 30
0.0
 11
511.1580484438641
 21
287.4513835609468
 31
0.0
  0
LINE
  5
944
330
2
100
AcDbEntity
  8
0
100
AcDbLine
 10
532.1905794438642
 20
322.9513835609468
 30
0.0
 11
532.1905794438642
 21
287.4513835609468
 31
0.0
  0
LINE
  5
945
330
2
100
AcDbEntity
  8
0
100
AcDbLine
 10
523.2160924438642
 20
320.7473735609468
 30
0.0
 11
523.2160924438642
 21
287.4513835609468
 31
0.0
  0
LINE
  5
946
330
2
100
AcDbEntity
  8
0
100
AcDbLine
 10
507.5580724438641
 20
327.9513835609468
 30
0.0
 11
508.2649814438641
 21
287.4513835609468
 31
0.0
  0
LINE
  5
947
330
2
100
AcDbEntity
  8
CENTER
100
AcDbLine
 10
514.5580724438641
 20
284.0924665609468
 30
0.0
 11
514.5580724438641
 21
371.7674845609468
 31
0.0
  0
LINE
  5
948
330
2
100
AcDbEntity
  8
CENTER
100
AcDbLine
 10
546.5580724438641
 20
400.8229355609469
 30
0.0
 11
546.5580724438641
 21
255.0798315609468
 31
0.0
  0
LINE
  5
94A
330
2
100
AcDbEntity
  8
HIDS
100
AcDbLine
 10
354.5580724438642
 20
160.4312354599732
 30
0.0
 11
387.0580724438642
 21
160.4312354599732
 31
0.0
  0
LINE
  5
94B
330
2
100
AcDbEntity
  8
HIDS
100
AcDbLine
 10
354.5580724438642
 20
168.4312354599732
 30
0.0
 11
387.0580724438642
 21
168.4312354599732
 31
0.0
  0
LINE
  5
94C
330
2
100
AcDbEntity
  8
0
100
AcDbLine
 10
355.8560764438642
 20
141.8865884599732
 30
0.0
 11
387.0580724438642
 21
142.4312354599732
 31
0.0
  0
LINE
  5
94D
330
2
100
AcDbEntity
  8
0
100
AcDbLine
 10
353.5231604438641
 20
145.8458774599732
 30
0.0
 11
387.0580724438642
 21
146.4312354599732
 31
0.0
  0
LINE
  5
94E
330
2
100
AcDbEntity
  8
0
100
AcDbLine
 10
355.8560764438642
 20
119.9758824599732
 30
0.0
 11
387.0580724438642
 21
119.4312354599732
 31
0.0
  0
LINE
  5
94F
330
2
100
AcDbEntity
  8
0
100
AcDbLine
 10
353.5231604438641
 20
116.0165934599732
 30
0.0
 11
387.0580724438642
 21
115.4312354599732
 31
0.0
  0
LINE
  5
950
330
2
100
AcDbEntity
  8
0
100
AcDbLine
 10
346.5580724438642
 20
171.4312354599732
 30
0.0
 11
387.0580724438642
 21
170.7242954599732
 31
0.0
  0
LINE
  5
951
330
2
100
AcDbEntity
  8
0
100
AcDbLine
 10
353.8909884438642
 20
139.8868934599732
 30
0.0
 11
353.8909884438642
 21
121.9755774599732
 31
0.0
  0
LINE
  5
952
330
2
100
AcDbEntity
  8
0
100
AcDbLine
 10
339.2251564438641
 20
140.1050944599732
 30
0.0
 11
339.2251564438641
 21
121.7573764599732
 31
0.0
  0
LINE
  5
953
330
2
100
AcDbEntity
  8
0
100
AcDbLine
 10
341.5580724438642
 20
117.7980874599732
 30
0.0
 11
341.5580724438642
 21
144.0643834599732
 31
0.0
  0
LINE
  5
954
330
2
100
AcDbEntity
  8
0
100
AcDbLine
 10
351.5580724438642
 20
143.8461834599732
 30
0.0
 11
351.5580724438642
 21
118.0162874599732
 31
0.0
  0
ARC
  5
955
330
2
100
AcDbEntity
  8
0
100
AcDbCircle
 10
339.5580724438642
 20
117.7980874599732
 30
0.0
 40
2.0
100
AcDbArc
 50
271.0000000000001
 51
0.0
  0
ARC
  5
956
330
2
100
AcDbEntity
  8
0
100
AcDbCircle
 10
337.2251564438641
 20
121.7573764599732
 30
0.0
 40
2.0
100
AcDbArc
 50
271.0000000000001
 51
0.0
  0
LINE
  5
957
330
2
100
AcDbEntity
  8
0
100
AcDbLine
 10
341.1292084438641
 20
116.5605384599732
 30
0.0
 11
338.7962924438642
 21
120.5198284599732
 31
0.0
  0
ARC
  5
958
330
2
100
AcDbEntity
  8
0
100
AcDbCircle
 10
355.8909884438642
 20
121.9755774599732
 30
0.0
 40
2.0
100
AcDbArc
 50
180.0
 51
268.9999999999998
  0
ARC
  5
959
330
2
100
AcDbEntity
  8
0
100
AcDbCircle
 10
353.5580724438641
 20
118.0162874599732
 30
0.0
 40
2.0
100
AcDbArc
 50
180.0
 51
268.9999999999998
  0
LINE
  5
95A
330
2
100
AcDbEntity
  8
0
100
AcDbLine
 10
354.3198524438642
 20
120.7380284599733
 30
0.0
 11
351.9869364438642
 21
116.7787394599732
 31
0.0
  0
ARC
  5
95B
330
2
100
AcDbEntity
  8
0
100
AcDbCircle
 10
339.5580724438642
 20
144.0643834599732
 30
0.0
 40
2.0
100
AcDbArc
 50
0.0
 51
88.99999999999986
  0
LINE
  5
95C
330
2
100
AcDbEntity
  8
0
100
AcDbLine
 10
338.7962924438642
 20
141.3426424599732
 30
0.0
 11
341.1292084438641
 21
145.3019324599732
 31
0.0
  0
ARC
  5
95D
330
2
100
AcDbEntity
  8
0
100
AcDbCircle
 10
337.2251564438641
 20
140.1050944599732
 30
0.0
 40
2.0
100
AcDbArc
 50
0.0
 51
88.99999999999986
  0
ARC
  5
95E
330
2
100
AcDbEntity
  8
0
100
AcDbCircle
 10
353.5580724438641
 20
143.8461834599732
 30
0.0
 40
2.0
100
AcDbArc
 50
91.00000000000013
 51
180.0
  0
LINE
  5
95F
330
2
100
AcDbEntity
  8
0
100
AcDbLine
 10
354.3198524438642
 20
141.1244724599732
 30
0.0
 11
351.9869364438642
 21
145.0837314599732
 31
0.0
  0
ARC
  5
960
330
2
100
AcDbEntity
  8
0
100
AcDbCircle
 10
355.8909884438642
 20
139.8868934599732
 30
0.0
 40
2.0
100
AcDbArc
 50
91.00000000000013
 51
180.0
  0
LINE
  5
962
330
2
100
AcDbEntity
  8
HIDS
100
AcDbLine
 10
367.5929844438642
 20
168.5640784599732
 30
0.0
 11
346.5580724438642
 21
168.9312354599732
 31
0.0
  0
LINE
  5
964
330
2
100
AcDbEntity
  8
HIDS
100
AcDbLine
 10
338.5580724438641
 20
168.4312354599732
 30
0.0
 11
338.5580724438641
 21
160.4312354599732
 31
0.0
  0
LINE
  5
967
330
2
100
AcDbEntity
  8
HIDS
100
AcDbLine
 10
354.5580724438642
 20
168.4312354599732
 30
0.0
 11
354.5580724438642
 21
160.4312354599732
 31
0.0
  0
LINE
  5
96C
330
2
100
AcDbEntity
  8
HIDS
100
AcDbLine
 10
369.5580724438642
 20
166.5643834599732
 30
0.0
 11
369.5580724438642
 21
162.6329564599732
 31
0.0
  0
ARC
  5
96F
330
2
100
AcDbEntity
  8
HIDS
100
AcDbCircle
 10
372.5580724438642
 20
162.6329564599732
 30
0.0
 40
3.0
100
AcDbArc
 50
180.0
 51
230.6432949999994
  0
ARC
  5
970
330
2
100
AcDbEntity
  8
HIDS
100
AcDbCircle
 10
367.5580724438642
 20
166.5643834599732
 30
0.0
 40
2.0
100
AcDbArc
 50
0.0
 51
88.99999999999986
  0
LINE
  5
974
330
2
100
AcDbEntity
  8
0
100
AcDbLine
 10
388.0580724438642
 20
123.1198954599733
 30
0.0
 11
388.0580724438642
 21
138.7425754599732
 31
0.0
  0
ARC
  5
975
330
2
100
AcDbEntity
  8
0
100
AcDbCircle
 10
393.5580724438642
 20
130.9312354599732
 30
0.0
 40
2.5
100
AcDbArc
 50
90.0
 51
270.0
  0
LINE
  5
976
330
2
100
AcDbEntity
  8
0
100
AcDbLine
 10
415.0580724438642
 20
138.4312354599732
 30
0.0
 11
415.0580724438642
 21
123.4312354599732
 31
0.0
  0
LINE
  5
977
330
2
100
AcDbEntity
  8
0
100
AcDbLine
 10
415.0580724438642
 20
128.4312354599732
 30
0.0
 11
393.5580724438642
 21
128.4312354599732
 31
0.0
  0
LINE
  5
978
330
2
100
AcDbEntity
  8
0
100
AcDbLine
 10
415.0580724438642
 20
123.4312354599732
 30
0.0
 11
388.0580724438642
 21
123.4312354599732
 31
0.0
  0
ARC
  5
979
330
2
100
AcDbEntity
  8
0
100
AcDbCircle
 10
387.5580724438642
 20
123.1198954599733
 30
0.0
 40
0.5
100
AcDbArc
 50
299.9999999999997
 51
0.0
  0
LINE
  5
97A
330
2
100
AcDbEntity
  8
0
100
AcDbLine
 10
387.2806374438642
 20
122.4312354599732
 30
0.0
 11
387.0580724438642
 21
122.4312354599732
 31
0.0
  0
ARC
  5
97B
330
2
100
AcDbEntity
  8
0
100
AcDbCircle
 10
386.6561554438642
 20
124.3312294599732
 30
0.0
 40
2.0
100
AcDbArc
 50
288.1948699999997
 51
299.9999999999997
  0
LINE
  5
97C
330
2
100
AcDbEntity
  8
0
100
AcDbLine
 10
387.8080724438642
 20
122.6869114599732
 30
0.0
 11
387.6561554438642
 21
122.5991734599732
 31
0.0
  0
LINE
  5
97D
330
2
100
AcDbEntity
  8
0
100
AcDbLine
 10
415.0580724438642
 20
133.4312354599732
 30
0.0
 11
393.5580724438642
 21
133.4312354599732
 31
0.0
  0
LINE
  5
97E
330
2
100
AcDbEntity
  8
0
100
AcDbLine
 10
415.0580724438642
 20
138.4312354599732
 30
0.0
 11
388.0580724438642
 21
138.4312354599732
 31
0.0
  0
LINE
  5
97F
330
2
100
AcDbEntity
  8
0
100
AcDbLine
 10
387.2806374438642
 20
139.4312354599732
 30
0.0
 11
387.0580724438642
 21
139.4312354599732
 31
0.0
  0
ARC
  5
980
330
2
100
AcDbEntity
  8
0
100
AcDbCircle
 10
386.6561554438642
 20
137.5312414599732
 30
0.0
 40
2.0
100
AcDbArc
 50
60.00000000000028
 51
71.8051300000003
  0
ARC
  5
981
330
2
100
AcDbEntity
  8
0
100
AcDbCircle
 10
387.5580724438642
 20
138.7425754599732
 30
0.0
 40
0.5
100
AcDbArc
 50
0.0
 51
60.00000000000028
  0
LINE
  5
982
330
2
100
AcDbEntity
  8
0
100
AcDbLine
 10
387.8080724438642
 20
139.1755594599732
 30
0.0
 11
387.6561554438642
 21
139.2632974599732
 31
0.0
  0
LINE
  5
983
330
2
100
AcDbEntity
  8
0
100
AcDbLine
 10
522.0765664438642
 20
150.1296604599732
 30
0.0
 11
531.0765664438642
 21
160.6296604599732
 31
0.0
  0
LINE
  5
984
330
2
100
AcDbEntity
  8
0
100
AcDbLine
 10
521.1567054438642
 20
152.1296604599732
 30
0.0
 11
529.0765664438643
 21
161.3694984599732
 31
0.0
  0
CIRCLE
  5
985
330
2
100
AcDbEntity
  8
0
100
AcDbCircle
 10
546.5580724438641
 20
130.9312354599732
 30
0.0
 40
15.0
  0
LINE
  5
986
330
2
100
AcDbEntity
  8
0
100
AcDbLine
 10
516.5580724438641
 20
144.4312354599732
 30
0.0
 11
516.5580724438641
 21
117.4312354599732
 31
0.0
  0
LINE
  5
987
330
2
100
AcDbEntity
  8
0
100
AcDbLine
 10
511.5580724438641
 20
120.2596654599732
 30
0.0
 11
511.5580724438641
 21
141.6028054599733
 31
0.0
  0
LINE
  5
988
330
2
100
AcDbEntity
  8
0
100
AcDbLine
 10
520.5580724438641
 20
112.4312354599732
 30
0.0
 11
518.7843294438642
 21
112.4312354599732
 31
0.0
  0
ARC
  5
989
330
2
100
AcDbEntity
  8
0
100
AcDbCircle
 10
509.5580724438641
 20
120.2596654599732
 30
0.0
 40
2.0
100
AcDbArc
 50
315.0
 51
0.0
  0
ARC
  5
98A
330
2
100
AcDbEntity
  8
0
100
AcDbCircle
 10
509.5580724438641
 20
114.6028054599733
 30
0.0
 40
2.0
100
AcDbArc
 50
135.0
 51
180.0
  0
LINE
  5
98B
330
2
100
AcDbEntity
  8
0
100
AcDbLine
 10
510.9722574438642
 20
118.8454504599732
 30
0.0
 11
508.1438874438642
 21
116.0170204599732
 31
0.0
  0
LINE
  5
98C
330
2
100
AcDbEntity
  8
0
100
AcDbLine
 10
520.5580724438641
 20
149.4312354599732
 30
0.0
 11
518.7843294438642
 21
149.4312354599732
 31
0.0
  0
ARC
  5
98D
330
2
100
AcDbEntity
  8
0
100
AcDbCircle
 10
519.638211443864
 20
153.4312354599732
 30
0.0
 40
2.0
100
AcDbArc
 50
270.0
 51
319.3987050000003
  0
LINE
  5
98E
330
2
100
AcDbEntity
  8
0
100
AcDbLine
 10
510.9722574438642
 20
143.0170204599732
 30
0.0
 11
508.1438874438642
 21
145.8454504599732
 31
0.0
  0
ARC
  5
98F
330
2
100
AcDbEntity
  8
0
100
AcDbCircle
 10
509.5580724438641
 20
141.6028054599733
 30
0.0
 40
2.0
100
AcDbArc
 50
0.0
 51
45.0
  0
ARC
  5
990
330
2
100
AcDbEntity
  8
0
100
AcDbCircle
 10
509.5580724438641
 20
147.2596654599732
 30
0.0
 40
2.0
100
AcDbArc
 50
180.0
 51
225.0
  0
ARC
  5
991
330
2
100
AcDbEntity
  8
0
100
AcDbCircle
 10
538.5580724438641
 20
144.4312354599732
 30
0.0
 40
22.0
100
AcDbArc
 50
165.5224909999995
 51
180.0
  0
ARC
  5
992
330
2
100
AcDbEntity
  8
0
100
AcDbCircle
 10
519.1931434438642
 20
149.4312354599732
 30
0.0
 40
2.0
100
AcDbArc
 50
90.0
 51
165.5224909999995
  0
ARC
  5
993
330
2
100
AcDbEntity
  8
0
100
AcDbCircle
 10
518.7843294438642
 20
147.4312354599732
 30
0.0
 40
2.0
100
AcDbArc
 50
90.0
 51
171.3730769999999
  0
LINE
  5
994
330
2
100
AcDbEntity
  8
0
100
AcDbLine
 10
519.638211443864
 20
151.4312354599732
 30
0.0
 11
519.1931434438642
 21
151.4312354599732
 31
0.0
  0
LINE
  5
995
330
2
100
AcDbEntity
  8
0
100
AcDbLine
 10
521.3937654438641
 20
149.6142184599733
 30
0.0
 11
520.4739054438642
 21
151.6142184599733
 31
0.0
  0
ARC
  5
996
330
2
100
AcDbEntity
  8
0
100
AcDbCircle
 10
520.5580724438641
 20
151.4312354599732
 30
0.0
 40
2.0
100
AcDbArc
 50
270.0
 51
319.3987050000003
  0
ARC
  5
997
330
2
100
AcDbEntity
  8
0
100
AcDbCircle
 10
546.5580724438641
 20
130.9312354599732
 30
0.0
 40
7.5
100
AcDbArc
 50
199.4712219999995
 51
160.5287780000004
  0
LINE
  5
998
330
2
100
AcDbEntity
  8
0
100
AcDbLine
 10
542.0580724438641
 20
133.4312354599732
 30
0.0
 11
542.0580724438641
 21
128.4312354599732
 31
0.0
  0
LINE
  5
999
330
2
100
AcDbEntity
  8
0
100
AcDbLine
 10
537.0580724438641
 20
133.4312354599732
 30
0.0
 11
537.0580724438641
 21
128.4312354599732
 31
0.0
  0
ARC
  5
99A
330
2
100
AcDbEntity
  8
0
100
AcDbCircle
 10
546.5580724438641
 20
130.9312354599732
 30
0.0
 40
8.5
100
AcDbArc
 50
197.1046299999993
 51
162.8953700000006
  0
LINE
  5
99B
330
2
100
AcDbEntity
  8
0
100
AcDbLine
 10
542.0580724438641
 20
128.4312354599732
 30
0.0
 11
537.0580724438641
 21
128.4312354599732
 31
0.0
  0
LINE
  5
99C
330
2
100
AcDbEntity
  8
0
100
AcDbLine
 10
542.0580724438641
 20
133.4312354599732
 30
0.0
 11
537.0580724438641
 21
133.4312354599732
 31
0.0
  0
ARC
  5
99D
330
2
100
AcDbEntity
  8
0
100
AcDbCircle
 10
538.5580724438641
 20
144.4312354599732
 30
0.0
 40
22.0
100
AcDbArc
 50
90.0
 51
110.4873120000003
  0
ARC
  5
99E
330
2
100
AcDbEntity
  8
0
100
AcDbCircle
 10
523.363431443864
 20
173.9949864599732
 30
0.0
 40
6.0
100
AcDbArc
 50
227.3640750000003
 51
300.3583069999994
  0
CIRCLE
  5
9A0
330
2
100
AcDbEntity
  8
HOJO
100
AcDbCircle
 10
514.5580724438641
 20
164.4312354599732
 30
0.0
 40
4.0
  0
ARC
  5
9A1
330
2
100
AcDbEntity
  8
0
100
AcDbCircle
 10
514.5580724438641
 20
164.4312354599732
 30
0.0
 40
7.0
100
AcDbArc
 50
47.3640670000003
 51
180.0
  0
CIRCLE
  5
9A2
330
2
100
AcDbEntity
  8
0
100
AcDbCircle
 10
514.5580724438641
 20
164.4312354599732
 30
0.0
 40
3.399999999999999
  0
ARC
  5
9A4
330
2
100
AcDbEntity
  8
0
100
AcDbCircle
 10
531.5580724438641
 20
163.1662204599732
 30
0.0
 40
2.0
100
AcDbArc
 50
110.4873120000003
 51
180.0
  0
ARC
  5
9A5
330
2
100
AcDbEntity
  8
0
100
AcDbCircle
 10
533.5580724438641
 20
163.7961644599732
 30
0.0
 40
2.0
100
AcDbArc
 50
104.4775090000004
 51
180.0
  0
LINE
  5
9A6
330
2
100
AcDbEntity
  8
0
100
AcDbLine
 10
531.4338654438641
 20
161.2373574599732
 30
0.0
 11
529.433865443864
 21
161.9771944599732
 31
0.0
  0
ARC
  5
9A7
330
2
100
AcDbEntity
  8
0
100
AcDbCircle
 10
527.5580724438641
 20
162.6710734599732
 30
0.0
 40
2.0
100
AcDbArc
 50
319.3987050000003
 51
0.0
  0
ARC
  5
9A8
330
2
100
AcDbEntity
  8
0
100
AcDbCircle
 10
529.5580724438641
 20
161.9312354599732
 30
0.0
 40
2.0
100
AcDbArc
 50
319.3987050000003
 51
0.0
  0
LINE
  5
9A9
330
2
100
AcDbEntity
  8
0
100
AcDbLine
 10
531.5580724438641
 20
161.9312354599732
 30
0.0
 11
531.5580724438641
 21
163.7961644599732
 31
0.0
  0
LINE
  5
9AA
330
2
100
AcDbEntity
  8
0
100
AcDbLine
 10
529.5580724438641
 20
162.6710734599732
 30
0.0
 11
529.5580724438641
 21
163.1662204599732
 31
0.0
  0
ARC
  5
9AB
330
2
100
AcDbEntity
  8
0
100
AcDbCircle
 10
541.5580724438641
 20
142.9312354599732
 30
0.0
 40
30.0
100
AcDbArc
 50
112.3316420000001
 51
120.3582990000005
  0
ARC
  5
9AC
330
2
100
AcDbEntity
  8
0
100
AcDbCircle
 10
533.958707443864
 20
161.4312354599732
 30
0.0
 40
10.0
100
AcDbArc
 50
90.0
 51
112.3316420000001
  0
LINE
  5
9AD
330
2
100
AcDbEntity
  8
0
100
AcDbLine
 10
539.4870274438642
 20
259.4513835609468
 30
0.0
 11
539.4870274438642
 21
280.9513835609468
 31
0.0
  0
LINE
  5
9AE
330
2
100
AcDbEntity
  8
0
100
AcDbLine
 10
537.0580724438641
 20
259.4513835609468
 30
0.0
 11
537.0580724438641
 21
283.4513835609468
 31
0.0
  0
LINE
  5
9AF
330
2
100
AcDbEntity
  8
0
100
AcDbLine
 10
554.0580724438641
 20
286.4513835609468
 30
0.0
 11
554.0580724438641
 21
259.4513835609468
 31
0.0
  0
LINE
  5
9B0
330
2
100
AcDbEntity
  8
0
100
AcDbLine
 10
537.0580724438641
 20
259.4513835609468
 30
0.0
 11
554.0580724438641
 21
259.4513835609468
 31
0.0
  0
LINE
  5
9B1
330
2
100
AcDbEntity
  8
0
100
AcDbLine
 10
538.7467324438642
 20
286.4513835609468
 30
0.0
 11
554.3694124438643
 21
286.4513835609468
 31
0.0
  0
LINE
  5
9B2
330
2
100
AcDbEntity
  8
0
100
AcDbLine
 10
538.0580724438641
 20
287.2288185609468
 30
0.0
 11
538.0580724438641
 21
287.4513835609468
 31
0.0
  0
ARC
  5
9B3
330
2
100
AcDbEntity
  8
0
100
AcDbCircle
 10
539.9580964438642
 20
287.8533005609468
 30
0.0
 40
2.0
100
AcDbArc
 50
198.1948700000007
 51
210.0000000000001
  0
ARC
  5
9B4
330
2
100
AcDbEntity
  8
0
100
AcDbCircle
 10
538.7467324438642
 20
286.9513835609468
 30
0.0
 40
0.5
100
AcDbArc
 50
210.0000000000001
 51
270.0
  0
LINE
  5
9B5
330
2
100
AcDbEntity
  8
0
100
AcDbLine
 10
538.3137484438641
 20
286.7013835609468
 30
0.0
 11
538.2260414438642
 21
286.8533005609468
 31
0.0
  0
ARC
  5
9B6
330
2
100
AcDbEntity
  8
0
100
AcDbCircle
 10
531.9870274438642
 20
280.9513835609468
 30
0.0
 40
7.500003999999999
100
AcDbArc
 50
0.0
 51
19.47121200000053
  0
LINE
  5
9B7
330
2
100
AcDbEntity
  8
0
100
AcDbLine
 10
539.0580724438641
 20
283.4513835609468
 30
0.0
 11
539.0580724438641
 21
286.4513835609468
 31
0.0
  0
LINE
  5
9B8
330
2
100
AcDbEntity
  8
0
100
AcDbLine
 10
537.0580724438641
 20
283.4513835609468
 30
0.0
 11
539.0580724438641
 21
283.4513835609468
 31
0.0
  0
LINE
  5
9B9
330
2
100
AcDbEntity
  8
0
100
AcDbLine
 10
555.0580724438641
 20
287.2288185609468
 30
0.0
 11
555.0580724438641
 21
287.4513835609468
 31
0.0
  0
ARC
  5
9BA
330
2
100
AcDbEntity
  8
0
100
AcDbCircle
 10
553.1580484438641
 20
287.8533005609468
 30
0.0
 40
2.0
100
AcDbArc
 50
329.9999999999998
 51
341.8051279999994
  0
ARC
  5
9BB
330
2
100
AcDbEntity
  8
0
100
AcDbCircle
 10
554.3694124438643
 20
286.9513835609468
 30
0.0
 40
0.5
100
AcDbArc
 50
270.0
 51
329.9999999999998
  0
LINE
  5
9BC
330
2
100
AcDbEntity
  8
0
100
AcDbLine
 10
554.8023964438641
 20
286.7013835609468
 30
0.0
 11
554.8901034438641
 21
286.8533005609468
 31
0.0
  0
LINE
  5
9BD
330
2
100
AcDbEntity
  8
0
100
AcDbLine
 10
539.4870274438642
 20
396.4513835609468
 30
0.0
 11
539.4870274438642
 21
374.9513835609468
 31
0.0
  0
LINE
  5
9BE
330
2
100
AcDbEntity
  8
0
100
AcDbLine
 10
537.0580724438641
 20
396.4513835609468
 30
0.0
 11
537.0580724438641
 21
372.4513835609468
 31
0.0
  0
LINE
  5
9BF
330
2
100
AcDbEntity
  8
0
100
AcDbLine
 10
554.0580724438641
 20
369.4513835609468
 30
0.0
 11
554.0580724438641
 21
396.4513835609468
 31
0.0
  0
LINE
  5
9C0
330
2
100
AcDbEntity
  8
HIDS
100
AcDbLine
 10
510.5580724438641
 20
355.9513835609468
 30
0.0
 11
510.5580724438641
 21
335.9513835609468
 31
0.0
  0
LINE
  5
9C1
330
2
100
AcDbEntity
  8
HIDS
100
AcDbLine
 10
518.5580724438641
 20
355.9513835609468
 30
0.0
 11
518.5580724438641
 21
335.9513835609468
 31
0.0
  0
LINE
  5
9C2
330
2
100
AcDbEntity
  8
0
100
AcDbLine
 10
523.2160924438642
 20
368.4513835609468
 30
0.0
 11
523.2160924438642
 21
335.1553935609468
 31
0.0
  0
LINE
  5
9C3
330
2
100
AcDbEntity
  8
0
100
AcDbLine
 10
532.1905794438642
 20
368.4513835609468
 30
0.0
 11
532.1905794438642
 21
332.9513835609468
 31
0.0
  0
LINE
  5
9C4
330
2
100
AcDbEntity
  8
0
100
AcDbLine
 10
507.5580724438641
 20
327.9513835609468
 30
0.0
 11
508.2649814438641
 21
368.4513835609468
 31
0.0
  0
ARC
  5
9C5
330
2
100
AcDbEntity
  8
0
100
AcDbCircle
 10
523.2160924438642
 20
331.7473735609468
 30
0.0
 40
11.0
100
AcDbArc
 50
244.2822720000002
 51
291.0753169999998
  0
LINE
  5
9C6
330
2
100
AcDbEntity
  8
0
100
AcDbLine
 10
532.1905794438642
 20
322.9513835609468
 30
0.0
 11
514.6453524438641
 21
322.9513835609468
 31
0.0
  0
ARC
  5
9C7
330
2
100
AcDbEntity
  8
0
100
AcDbCircle
 10
523.2160924438642
 20
324.1553935609468
 30
0.0
 40
11.0
100
AcDbArc
 50
68.92466700000015
 51
115.7177279999996
  0
LINE
  5
9C8
330
2
100
AcDbEntity
  8
0
100
AcDbLine
 10
532.1905794438642
 20
332.9513835609468
 30
0.0
 11
514.6453524438641
 21
332.9513835609468
 31
0.0
  0
LINE
  5
9C9
330
2
100
AcDbEntity
  8
HIDS
100
AcDbLine
 10
510.5580724438641
 20
319.9513835609468
 30
0.0
 11
518.5580724438641
 21
319.9513835609468
 31
0.0
  0
LINE
  5
9CA
330
2
100
AcDbEntity
  8
0
100
AcDbLine
 10
518.442777443864
 20
321.8370035609468
 30
0.0
 11
517.4659704438643
 21
322.3075235609468
 31
0.0
  0
ARC
  5
9CB
330
2
100
AcDbEntity
  8
0
100
AcDbCircle
 10
514.6453524438641
 20
316.4513835609468
 30
0.0
 40
6.5
100
AcDbArc
 50
64.28227200000034
 51
90.0
  0
LINE
  5
9CC
330
2
100
AcDbEntity
  8
HIDS
100
AcDbLine
 10
510.5580724438641
 20
335.9513835609468
 30
0.0
 11
518.5580724438641
 21
335.9513835609468
 31
0.0
  0
LINE
  5
9CD
330
2
100
AcDbEntity
  8
0
100
AcDbLine
 10
518.442777443864
 20
334.0657635609468
 30
0.0
 11
517.4659704438643
 21
333.5952435609468
 31
0.0
  0
ARC
  5
9CE
330
2
100
AcDbEntity
  8
0
100
AcDbCircle
 10
514.6453524438641
 20
339.4513835609468
 30
0.0
 40
6.5
100
AcDbArc
 50
270.0
 51
295.7177279999996
  0
ARC
  5
9CF
330
2
100
AcDbEntity
  8
0
100
AcDbCircle
 10
532.1905794438642
 20
316.4513835609468
 30
0.0
 40
6.5
100
AcDbArc
 50
90.0
 51
111.0753329999998
  0
LINE
  5
9D0
330
2
100
AcDbEntity
  8
0
100
AcDbLine
 10
529.8531774438642
 20
322.5165995609468
 30
0.0
 11
527.1716584438642
 21
321.4831825609469
 31
0.0
  0
ARC
  5
9D1
330
2
100
AcDbEntity
  8
0
100
AcDbCircle
 10
532.1905794438642
 20
339.4513835609468
 30
0.0
 40
6.5
100
AcDbArc
 50
248.9246670000001
 51
270.0
  0
LINE
  5
9D2
330
2
100
AcDbEntity
  8
0
100
AcDbLine
 10
529.8531774438642
 20
333.3861675609468
 30
0.0
 11
527.1716584438642
 21
334.4195845609468
 31
0.0
  0
LINE
  5
9D3
330
2
100
AcDbEntity
  8
HIDS
100
AcDbLine
 10
518.8080724438641
 20
355.9513835609468
 30
0.0
 11
518.8080724438641
 21
368.4513835609468
 31
0.0
  0
LINE
  5
9D4
330
2
100
AcDbEntity
  8
HIDS
100
AcDbLine
 10
510.3080724438641
 20
355.9513835609468
 30
0.0
 11
510.3080724438641
 21
368.4513835609468
 31
0.0
  0
LINE
  5
9D5
330
2
100
AcDbEntity
  8
0
100
AcDbLine
 10
554.3694124438643
 20
369.4513835609468
 30
0.0
 11
538.7467324438642
 21
369.4513835609468
 31
0.0
  0
ARC
  5
9D6
330
2
100
AcDbEntity
  8
0
100
AcDbCircle
 10
531.9870274438642
 20
374.9513835609468
 30
0.0
 40
7.500003999999999
100
AcDbArc
 50
340.5287879999994
 51
0.0
  0
LINE
  5
9D7
330
2
100
AcDbEntity
  8
0
100
AcDbLine
 10
538.0580724438641
 20
368.4513835609468
 30
0.0
 11
538.0580724438641
 21
368.6739485609468
 31
0.0
  0
ARC
  5
9D8
330
2
100
AcDbEntity
  8
0
100
AcDbCircle
 10
538.7467324438642
 20
368.9513835609468
 30
0.0
 40
0.5
100
AcDbArc
 50
90.0
 51
149.9999999999998
  0
LINE
  5
9D9
330
2
100
AcDbEntity
  8
0
100
AcDbLine
 10
538.3137484438641
 20
369.2013835609468
 30
0.0
 11
538.2260414438642
 21
369.0494665609469
 31
0.0
  0
ARC
  5
9DA
330
2
100
AcDbEntity
  8
0
100
AcDbCircle
 10
539.9580964438642
 20
368.0494665609468
 30
0.0
 40
2.0
100
AcDbArc
 50
149.9999999999998
 51
161.8051299999992
  0
LINE
  5
9DB
330
2
100
AcDbEntity
  8
0
100
AcDbLine
 10
539.0580724438641
 20
372.4513835609468
 30
0.0
 11
539.0580724438641
 21
369.4513835609468
 31
0.0
  0
LINE
  5
9DC
330
2
100
AcDbEntity
  8
0
100
AcDbLine
 10
537.0580724438641
 20
372.4513835609468
 30
0.0
 11
539.0580724438641
 21
372.4513835609468
 31
0.0
  0
LINE
  5
9DD
330
2
100
AcDbEntity
  8
0
100
AcDbLine
 10
555.0580724438641
 20
368.4513835609468
 30
0.0
 11
555.0580724438641
 21
368.6739485609468
 31
0.0
  0
ARC
  5
9DE
330
2
100
AcDbEntity
  8
0
100
AcDbCircle
 10
553.1580484438641
 20
368.0494665609468
 30
0.0
 40
2.0
100
AcDbArc
 50
18.19487200000065
 51
30.00000000000014
  0
LINE
  5
9DF
330
2
100
AcDbEntity
  8
0
100
AcDbLine
 10
554.8023964438641
 20
369.2013835609468
 30
0.0
 11
554.8901034438641
 21
369.0494665609469
 31
0.0
  0
ARC
  5
9E0
330
2
100
AcDbEntity
  8
0
100
AcDbCircle
 10
554.3694124438643
 20
368.9513835609468
 30
0.0
 40
0.5
100
AcDbArc
 50
30.00000000000014
 51
90.0
  0
LINE
  5
9E1
330
2
100
AcDbEntity
  8
0
100
AcDbLine
 10
537.0580724438641
 20
396.4513835609468
 30
0.0
 11
554.0580724438641
 21
396.4513835609468
 31
0.0
  0
LINE
  5
9E2
330
2
100
AcDbEntity
  8
HIDS
100
AcDbLine
 10
604.5580724438641
 20
287.4513835609468
 30
0.0
 11
604.5580724438641
 21
319.9513835609468
 31
0.0
  0
LINE
  5
9E3
330
2
100
AcDbEntity
  8
HIDS
100
AcDbLine
 10
596.5580724438641
 20
287.4513835609468
 30
0.0
 11
596.5580724438641
 21
319.9513835609468
 31
0.0
  0
LINE
  5
9E4
330
2
100
AcDbEntity
  8
HIDS
100
AcDbLine
 10
603.9580964438641
 20
355.9513835609468
 30
0.0
 11
603.9580964438641
 21
287.4513835609468
 31
0.0
  0
LINE
  5
9E5
330
2
100
AcDbEntity
  8
HIDS
100
AcDbLine
 10
597.1580484438641
 20
355.9513835609468
 30
0.0
 11
597.1580484438641
 21
287.4513835609468
 31
0.0
  0
LINE
  5
9E6
330
2
100
AcDbEntity
  8
0
100
AcDbLine
 10
700.6135534438642
 20
362.9513835609468
 30
0.0
 11
700.6135534438642
 21
292.9513835609468
 31
0.0
  0
LINE
  5
9E7
330
2
100
AcDbEntity
  8
0
100
AcDbLine
 10
701.1135534438643
 20
359.9513835609468
 30
0.0
 11
701.1135534438643
 21
295.9513835609468
 31
0.0
  0
LINE
  5
9E8
330
2
100
AcDbEntity
  8
0
100
AcDbLine
 10
591.9000524438643
 20
320.7473735609468
 30
0.0
 11
591.9000524438643
 21
287.4513835609468
 31
0.0
  0
LINE
  5
9E9
330
2
100
AcDbEntity
  8
0
100
AcDbLine
 10
582.925565443864
 20
322.9513835609468
 30
0.0
 11
582.925565443864
 21
287.4513835609468
 31
0.0
  0
LINE
  5
9EA
330
2
100
AcDbEntity
  8
0
100
AcDbLine
 10
606.8511634438642
 20
287.4513835609468
 30
0.0
 11
607.1565834438643
 21
304.9513835609468
 31
0.0
  0
LINE
  5
9EB
330
2
100
AcDbEntity
  8
CENTER
100
AcDbLine
 10
600.5580724438641
 20
284.0924665609468
 30
0.0
 11
600.5580724438641
 21
371.7674845609468
 31
0.0
  0
LINE
  5
9EC
330
2
100
AcDbEntity
  8
0
100
AcDbLine
 10
680.6135534438642
 20
289.9513835609468
 30
0.0
 11
680.6135534438642
 21
302.9513835609467
 31
0.0
  0
LINE
  5
9ED
330
2
100
AcDbEntity
  8
0
100
AcDbLine
 10
699.031949443864
 20
161.1802284599733
 30
0.0
 11
680.6135534438642
 21
161.1802284599733
 31
0.0
  0
LINE
  5
9EE
330
2
100
AcDbEntity
  8
0
100
AcDbLine
 10
697.1495034438642
 20
168.9312354599732
 30
0.0
 11
680.6135534438642
 21
168.9312354599732
 31
0.0
  0
LINE
  5
9EF
330
2
100
AcDbEntity
  8
0
100
AcDbLine
 10
697.1495034438642
 20
289.9513835609468
 30
0.0
 11
680.6135534438642
 21
289.9513835609468
 31
0.0
  0
LINE
  5
9F2
330
2
100
AcDbEntity
  8
0
100
AcDbLine
 10
680.6135534438642
 20
161.1801974599732
 30
0.0
 11
607.5580724438641
 21
161.1801974599732
 31
0.0
  0
LINE
  5
9F3
330
2
100
AcDbEntity
  8
0
100
AcDbLine
 10
680.6135534438642
 20
168.9312354599732
 30
0.0
 11
608.9168374438643
 21
168.9312354599732
 31
0.0
  0
LINE
  5
9F4
330
2
100
AcDbEntity
  8
0
100
AcDbLine
 10
593.0395784438642
 20
150.1296604599732
 30
0.0
 11
584.0395784438642
 21
160.6296604599732
 31
0.0
  0
LINE
  5
9F5
330
2
100
AcDbEntity
  8
0
100
AcDbLine
 10
593.9594394438641
 20
152.1296604599732
 30
0.0
 11
586.0395784438642
 21
161.3694984599732
 31
0.0
  0
LINE
  5
9F6
330
2
100
AcDbEntity
  8
0
100
AcDbLine
 10
607.5580724438641
 20
164.4312354599732
 30
0.0
 11
607.5580724438641
 21
147.2596654599732
 31
0.0
  0
LINE
  5
9F7
330
2
100
AcDbEntity
  8
0
100
AcDbLine
 10
593.7223794438641
 20
149.6142184599733
 30
0.0
 11
594.642239443864
 21
151.6142184599733
 31
0.0
  0
ARC
  5
9F8
330
2
100
AcDbEntity
  8
0
100
AcDbCircle
 10
594.5580724438641
 20
151.4312354599732
 30
0.0
 40
2.0
100
AcDbArc
 50
220.6012879999994
 51
270.0
  0
ARC
  5
9F9
330
2
100
AcDbEntity
  8
0
100
AcDbCircle
 10
595.4779334438642
 20
153.4312354599732
 30
0.0
 40
2.0
100
AcDbArc
 50
220.6012879999994
 51
270.0
  0
LINE
  5
9FA
330
2
100
AcDbEntity
  8
0
100
AcDbLine
 10
598.5580724438641
 20
144.4312354599732
 30
0.0
 11
598.5580724438641
 21
117.4312354599732
 31
0.0
  0
LINE
  5
9FB
330
2
100
AcDbEntity
  8
0
100
AcDbLine
 10
603.5580724438641
 20
120.2596654599732
 30
0.0
 11
603.5580724438641
 21
141.6028054599733
 31
0.0
  0
LINE
  5
9FC
330
2
100
AcDbEntity
  8
0
100
AcDbLine
 10
594.5580724438641
 20
112.4312354599732
 30
0.0
 11
596.3318154438641
 21
112.4312354599732
 31
0.0
  0
ARC
  5
9FD
330
2
100
AcDbEntity
  8
0
100
AcDbCircle
 10
605.5580724438641
 20
120.2596654599732
 30
0.0
 40
2.0
100
AcDbArc
 50
180.0
 51
225.0
  0
ARC
  5
9FE
330
2
100
AcDbEntity
  8
0
100
AcDbCircle
 10
605.5580724438641
 20
114.6028054599733
 30
0.0
 40
2.0
100
AcDbArc
 50
0.0
 51
45.0
  0
LINE
  5
9FF
330
2
100
AcDbEntity
  8
0
100
AcDbLine
 10
604.1438874438642
 20
118.8454504599732
 30
0.0
 11
606.9722574438642
 21
116.0170204599732
 31
0.0
  0
LINE
  5
A00
330
2
100
AcDbEntity
  8
0
100
AcDbLine
 10
604.1438874438642
 20
143.0170204599732
 30
0.0
 11
606.9722574438642
 21
145.8454504599732
 31
0.0
  0
ARC
  5
A01
330
2
100
AcDbEntity
  8
0
100
AcDbCircle
 10
605.5580724438641
 20
141.6028054599733
 30
0.0
 40
2.0
100
AcDbArc
 50
135.0
 51
180.0
  0
ARC
  5
A02
330
2
100
AcDbEntity
  8
0
100
AcDbCircle
 10
576.5580724438641
 20
144.4312354599732
 30
0.0
 40
22.0
100
AcDbArc
 50
0.0
 51
14.47751199999975
  0
ARC
  5
A03
330
2
100
AcDbEntity
  8
0
100
AcDbCircle
 10
595.9230014438642
 20
149.4312354599732
 30
0.0
 40
2.0
100
AcDbArc
 50
14.47751199999975
 51
90.0
  0
ARC
  5
A04
330
2
100
AcDbEntity
  8
0
100
AcDbCircle
 10
596.3318154438641
 20
147.4312354599732
 30
0.0
 40
2.0
100
AcDbArc
 50
8.626927000000565
 51
90.0
  0
LINE
  5
A05
330
2
100
AcDbEntity
  8
0
100
AcDbLine
 10
595.4779334438642
 20
151.4312354599732
 30
0.0
 11
595.9230014438642
 21
151.4312354599732
 31
0.0
  0
LINE
  5
A06
330
2
100
AcDbEntity
  8
0
100
AcDbLine
 10
594.5580724438641
 20
149.4312354599732
 30
0.0
 11
596.3318154438641
 21
149.4312354599732
 31
0.0
  0
ARC
  5
A07
330
2
100
AcDbEntity
  8
0
100
AcDbCircle
 10
605.5580724438641
 20
147.2596654599732
 30
0.0
 40
2.0
100
AcDbArc
 50
315.0
 51
0.0
  0
ARC
  5
A08
330
2
100
AcDbEntity
  8
0
100
AcDbCircle
 10
591.7527134438642
 20
173.9949864599732
 30
0.0
 40
6.0
100
AcDbArc
 50
239.6416930000005
 51
312.6359249999997
  0
ARC
  5
A0A
330
2
100
AcDbEntity
  8
0
100
AcDbCircle
 10
576.5580724438641
 20
144.4312354599732
 30
0.0
 40
22.0
100
AcDbArc
 50
69.51268799999965
 51
90.0
  0
ARC
  5
A0B
330
2
100
AcDbEntity
  8
0
100
AcDbCircle
 10
583.5580724438641
 20
163.1662204599732
 30
0.0
 40
2.0
100
AcDbArc
 50
0.0
 51
69.51268799999965
  0
ARC
  5
A0C
330
2
100
AcDbEntity
  8
0
100
AcDbCircle
 10
581.5580724438641
 20
163.7961644599732
 30
0.0
 40
2.0
100
AcDbArc
 50
0.0
 51
75.52249099999959
  0
LINE
  5
A0D
330
2
100
AcDbEntity
  8
0
100
AcDbLine
 10
583.6822794438642
 20
161.2373574599732
 30
0.0
 11
585.6822794438642
 21
161.9771944599732
 31
0.0
  0
ARC
  5
A0E
330
2
100
AcDbEntity
  8
0
100
AcDbCircle
 10
587.5580724438641
 20
162.6710734599732
 30
0.0
 40
2.0
100
AcDbArc
 50
180.0
 51
220.6012879999994
  0
ARC
  5
A0F
330
2
100
AcDbEntity
  8
0
100
AcDbCircle
 10
585.5580724438641
 20
161.9312354599732
 30
0.0
 40
2.0
100
AcDbArc
 50
180.0
 51
220.6012879999994
  0
LINE
  5
A10
330
2
100
AcDbEntity
  8
0
100
AcDbLine
 10
583.5580724438641
 20
161.9312354599732
 30
0.0
 11
583.5580724438641
 21
163.7961644599732
 31
0.0
  0
LINE
  5
A11
330
2
100
AcDbEntity
  8
0
100
AcDbLine
 10
585.5580724438641
 20
162.6710734599732
 30
0.0
 11
585.5580724438641
 21
163.1662204599732
 31
0.0
  0
ARC
  5
A12
330
2
100
AcDbEntity
  8
0
100
AcDbCircle
 10
573.5580724438641
 20
142.9312354599732
 30
0.0
 40
30.0
100
AcDbArc
 50
59.64169699999944
 51
67.66835799999981
  0
ARC
  5
A13
330
2
100
AcDbEntity
  8
0
100
AcDbCircle
 10
581.1574374438642
 20
161.4312354599732
 30
0.0
 40
10.0
100
AcDbArc
 50
67.66835799999981
 51
90.0
  0
ARC
  5
A14
330
2
100
AcDbEntity
  8
0
100
AcDbCircle
 10
608.9168374438643
 20
170.9312354599732
 30
0.0
 40
2.0
100
AcDbArc
 50
249.6612700000003
 51
270.0
  0
ARC
  5
A15
330
2
100
AcDbEntity
  8
0
100
AcDbCircle
 10
600.5580724438641
 20
164.4312354599732
 30
0.0
 40
7.0
100
AcDbArc
 50
0.0
 51
132.6359249999996
  0
CIRCLE
  5
A16
330
2
100
AcDbEntity
  8
HOJO
100
AcDbCircle
 10
600.5580724438641
 20
164.4312354599732
 30
0.0
 40
4.0
  0
CIRCLE
  5
A17
330
2
100
AcDbEntity
  8
0
100
AcDbCircle
 10
600.5580724438641
 20
164.4312354599732
 30
0.0
 40
3.399999999999999
  0
LINE
  5
A19
330
2
100
AcDbEntity
  8
0
100
AcDbLine
 10
608.2217074438642
 20
169.0559304599732
 30
0.0
 11
602.9910554438643
 21
170.9948034599733
 31
0.0
  0
LINE
  5
A1F
330
2
100
AcDbEntity
  8
0
100
AcDbLine
 10
608.8601964438642
 20
289.9513835609468
 30
0.0
 11
680.6135534438642
 21
289.9513835609468
 31
0.0
  0
ARC
  5
A20
330
2
100
AcDbEntity
  8
0
100
AcDbCircle
 10
608.8601964438642
 20
287.9513835609468
 30
0.0
 40
2.0
100
AcDbArc
 50
90.0
 51
178.9999999999998
  0
ARC
  5
A23
330
2
100
AcDbEntity
  8
0
100
AcDbCircle
 10
697.1495034438642
 20
165.9312664599732
 30
0.0
 40
3.0
100
AcDbArc
 50
29.99959899999903
 51
90.0
  0
LINE
  5
A25
330
2
100
AcDbEntity
  8
0
100
AcDbLine
 10
701.1135534438643
 20
162.9312354599732
 30
0.0
 11
700.6135534438642
 21
163.4312354599732
 31
0.0
  0
LINE
  5
A26
330
2
100
AcDbEntity
  8
0
100
AcDbLine
 10
699.7475864438641
 20
167.4312354599732
 30
0.0
 11
700.6135534438642
 21
165.9312354599732
 31
0.0
  0
ARC
  5
A28
330
2
100
AcDbEntity
  8
0
100
AcDbCircle
 10
697.1495034438642
 20
292.9513835609468
 30
0.0
 40
3.0
100
AcDbArc
 50
270.0
 51
330.0003970000009
  0
LINE
  5
A29
330
2
100
AcDbEntity
  8
0
100
AcDbLine
 10
699.7475864438641
 20
291.4513835609468
 30
0.0
 11
700.6135534438642
 21
292.9513835609468
 31
0.0
  0
LINE
  5
A2A
330
2
100
AcDbEntity
  8
0
100
AcDbLine
 10
701.1135534438643
 20
295.9513835609468
 30
0.0
 11
700.6135534438642
 21
295.4513835609468
 31
0.0
  0
LINE
  5
A2B
330
2
100
AcDbEntity
  8
0
100
AcDbLine
 10
697.1495034438642
 20
365.9513835609468
 30
0.0
 11
680.6135534438642
 21
365.9513835609468
 31
0.0
  0
LINE
  5
A2C
330
2
100
AcDbEntity
  8
0
100
AcDbLine
 10
699.031949443864
 20
304.9513835609468
 30
0.0
 11
689.6135534438641
 21
304.9513835609467
 31
0.0
  0
LINE
  5
A2D
330
2
100
AcDbEntity
  8
0
100
AcDbLine
 10
699.031949443864
 20
350.9513835609468
 30
0.0
 11
689.6135534438641
 21
350.9513835609468
 31
0.0
  0
LINE
  5
A32
330
2
100
AcDbEntity
  8
0
100
AcDbLine
 10
639.6136534438642
 20
304.9513835609468
 30
0.0
 11
604.5549594438641
 21
304.9513835609468
 31
0.0
  0
LINE
  5
A33
330
2
100
AcDbEntity
  8
0
100
AcDbLine
 10
639.6136534438642
 20
350.9513835609468
 30
0.0
 11
604.5549594438641
 21
350.9513835609468
 31
0.0
  0
LINE
  5
A34
330
2
100
AcDbEntity
  8
0
100
AcDbLine
 10
610.0063754438642
 20
365.9513835609468
 30
0.0
 11
680.6135534438642
 21
365.9513835609468
 31
0.0
  0
LINE
  5
A35
330
2
100
AcDbEntity
  8
HIDS
100
AcDbLine
 10
596.5580724438641
 20
355.9513835609468
 30
0.0
 11
596.5580724438641
 21
335.9513835609468
 31
0.0
  0
LINE
  5
A36
330
2
100
AcDbEntity
  8
HIDS
100
AcDbLine
 10
604.5580724438641
 20
355.9513835609468
 30
0.0
 11
604.5580724438641
 21
335.9513835609468
 31
0.0
  0
LINE
  5
A37
330
2
100
AcDbEntity
  8
0
100
AcDbLine
 10
591.9000524438643
 20
368.4513835609468
 30
0.0
 11
591.9000524438643
 21
335.1553935609468
 31
0.0
  0
LINE
  5
A38
330
2
100
AcDbEntity
  8
0
100
AcDbLine
 10
582.925565443864
 20
368.4513835609468
 30
0.0
 11
582.925565443864
 21
332.9513835609468
 31
0.0
  0
LINE
  5
A39
330
2
100
AcDbEntity
  8
0
100
AcDbLine
 10
602.9910554438643
 20
327.9513835609468
 30
0.0
 11
602.5552644438642
 21
352.9164715609468
 31
0.0
  0
LINE
  5
A3A
330
2
100
AcDbEntity
  8
0
100
AcDbLine
 10
608.5580724438641
 20
350.9513835609468
 30
0.0
 11
608.5580724438641
 21
304.9513835609468
 31
0.0
  0
ARC
  5
A3B
330
2
100
AcDbEntity
  8
0
100
AcDbCircle
 10
591.9000524438643
 20
331.7473735609468
 30
0.0
 40
11.0
100
AcDbArc
 50
248.9246670000001
 51
295.7177279999996
  0
LINE
  5
A3C
330
2
100
AcDbEntity
  8
0
100
AcDbLine
 10
582.925565443864
 20
322.9513835609468
 30
0.0
 11
600.4707924438641
 21
322.9513835609468
 31
0.0
  0
ARC
  5
A3D
330
2
100
AcDbEntity
  8
0
100
AcDbCircle
 10
591.9000524438643
 20
324.1553935609468
 30
0.0
 40
11.0
100
AcDbArc
 50
64.28227200000034
 51
111.0753329999998
  0
LINE
  5
A3E
330
2
100
AcDbEntity
  8
0
100
AcDbLine
 10
582.925565443864
 20
332.9513835609468
 30
0.0
 11
600.4707924438641
 21
332.9513835609468
 31
0.0
  0
LINE
  5
A3F
330
2
100
AcDbEntity
  8
0
100
AcDbLine
 10
585.2629064438643
 20
322.5165995609468
 30
0.0
 11
587.9444864438641
 21
321.4831825609469
 31
0.0
  0
ARC
  5
A40
330
2
100
AcDbEntity
  8
0
100
AcDbCircle
 10
582.925565443864
 20
316.4513835609468
 30
0.0
 40
6.5
100
AcDbArc
 50
68.92466700000015
 51
90.0
  0
LINE
  5
A41
330
2
100
AcDbEntity
  8
0
100
AcDbLine
 10
585.2629064438643
 20
333.3861675609468
 30
0.0
 11
587.9444864438641
 21
334.4195845609468
 31
0.0
  0
ARC
  5
A42
330
2
100
AcDbEntity
  8
0
100
AcDbCircle
 10
582.925565443864
 20
339.4513835609468
 30
0.0
 40
6.5
100
AcDbArc
 50
270.0
 51
291.0753169999998
  0
LINE
  5
A43
330
2
100
AcDbEntity
  8
0
100
AcDbLine
 10
602.9910554438643
 20
327.9513835609468
 30
0.0
 11
602.5552644438642
 21
302.9862955609468
 31
0.0
  0
ARC
  5
A44
330
2
100
AcDbEntity
  8
0
100
AcDbCircle
 10
604.5549594438641
 20
302.9513835609468
 30
0.0
 40
2.0
100
AcDbArc
 50
90.0
 51
178.9999999999998
  0
LINE
  5
A45
330
2
100
AcDbEntity
  8
HIDS
100
AcDbLine
 10
596.5580724438641
 20
319.9513835609468
 30
0.0
 11
604.5580724438641
 21
319.9513835609468
 31
0.0
  0
LINE
  5
A46
330
2
100
AcDbEntity
  8
0
100
AcDbLine
 10
596.6733674438642
 20
321.8370035609468
 30
0.0
 11
597.6501744438642
 21
322.3075235609468
 31
0.0
  0
ARC
  5
A47
330
2
100
AcDbEntity
  8
0
100
AcDbCircle
 10
600.4707924438641
 20
316.4513835609468
 30
0.0
 40
6.5
100
AcDbArc
 50
90.0
 51
115.7177279999996
  0
LINE
  5
A48
330
2
100
AcDbEntity
  8
HIDS
100
AcDbLine
 10
596.5580724438641
 20
335.9513835609468
 30
0.0
 11
604.5580724438641
 21
335.9513835609468
 31
0.0
  0
LINE
  5
A49
330
2
100
AcDbEntity
  8
0
100
AcDbLine
 10
596.6733674438642
 20
334.0657635609468
 30
0.0
 11
597.6501744438642
 21
333.5952435609468
 31
0.0
  0
ARC
  5
A4A
330
2
100
AcDbEntity
  8
0
100
AcDbCircle
 10
600.4707924438641
 20
339.4513835609468
 30
0.0
 40
6.5
100
AcDbArc
 50
244.2822720000002
 51
270.0
  0
LINE
  5
A4B
330
2
100
AcDbEntity
  8
HIDS
100
AcDbLine
 10
604.8080724438641
 20
355.9513835609468
 30
0.0
 11
604.8080724438641
 21
368.4513835609468
 31
0.0
  0
LINE
  5
A4C
330
2
100
AcDbEntity
  8
HIDS
100
AcDbLine
 10
596.3080724438641
 20
355.9513835609468
 30
0.0
 11
596.3080724438641
 21
368.4513835609468
 31
0.0
  0
LINE
  5
A4D
330
2
100
AcDbEntity
  8
0
100
AcDbLine
 10
606.8511634438642
 20
368.4513835609468
 30
0.0
 11
607.1565834438643
 21
350.9513835609468
 31
0.0
  0
LINE
  5
A4E
330
2
100
AcDbEntity
  8
0
100
AcDbLine
 10
608.5580724438641
 20
365.3306555609468
 30
0.0
 11
608.5580724438641
 21
355.9513835609468
 31
0.0
  0
ARC
  5
A4F
330
2
100
AcDbEntity
  8
0
100
AcDbCircle
 10
604.5549594438641
 20
352.9513835609468
 30
0.0
 40
2.0
100
AcDbArc
 50
181.0000000000001
 51
270.0
  0
ARC
  5
A50
330
2
100
AcDbEntity
  8
0
100
AcDbCircle
 10
610.0063754438642
 20
363.9513835609468
 30
0.0
 40
2.0
100
AcDbArc
 50
90.0
 51
136.3987580000003
  0
LINE
  5
A51
330
2
100
AcDbEntity
  8
0
100
AcDbLine
 10
680.6135534438642
 20
352.9513835609468
 30
0.0
 11
680.6135534438642
 21
365.9513835609468
 31
0.0
  0
LINE
  5
A5A
330
2
100
AcDbEntity
  8
0
100
AcDbLine
 10
701.1135534438643
 20
359.9513835609468
 30
0.0
 11
700.6135534438642
 21
360.4513835609468
 31
0.0
  0
ARC
  5
A5B
330
2
100
AcDbEntity
  8
0
100
AcDbCircle
 10
697.1495034438642
 20
362.9514145609468
 30
0.0
 40
3.0
100
AcDbArc
 50
29.99959899999903
 51
90.0
  0
LINE
  5
A5C
330
2
100
AcDbEntity
  8
0
100
AcDbLine
 10
699.7475864438641
 20
364.4513835609468
 30
0.0
 11
700.6135534438642
 21
362.9513835609468
 31
0.0
  0
TEXT
  5
E6F
330
2
100
AcDbEntity
  8
TITLE
100
AcDbText
 10
135.6185551095816
 20
50.06588355178411
 30
0.0
 40
5.0
  1
F2FM-15T-10～240-S15WT
 41
0.9
100
AcDbText
  0
TEXT
  5
E70
330
2
100
AcDbEntity
  8
TITLE
100
AcDbText
 10
135.6185551095816
 20
59.06588355178411
 30
0.0
 40
5.0
  1
F2FM-15T-10～240-S15T
 41
0.9
100
AcDbText
  0
TEXT
  5
E71
330
2
100
AcDbEntity
  8
TITLE
100
AcDbText
 10
135.6185551095816
 20
41.06588355178411
 30
0.0
 40
5.0
  1
F2FM-15T-10～240-S25T
 41
0.9
100
AcDbText
  0
TEXT
  5
E72
330
2
100
AcDbEntity
  8
TITLE
100
AcDbText
 10
135.6185551095816
 20
32.06588355178411
 30
0.0
 40
5.0
  1
F2FM-15T-10～240-S25WT
 41
0.9
100
AcDbText
  0
LINE
  5
E78
330
2
100
AcDbEntity
  8
CENTER
100
AcDbLine
 10
132.5580724438641
 20
105.4098734599732
 30
0.0
 11
132.5580724438641
 21
89.45259745997327
 31
0.0
  0
TEXT
  5
E81
330
2
100
AcDbEntity
  8
TITLE
100
AcDbText
 10
30.33937607216262
 20
59.09367406143832
 30
0.0
 40
5.0
  1
F2FM-15T-10～240-T15T
 41
0.9
100
AcDbText
  0
TEXT
  5
E82
330
2
100
AcDbEntity
  8
TITLE
100
AcDbText
 10
30.33937607216262
 20
50.09367406143832
 30
0.0
 40
5.0
  1
F2FM-15T-10～240-T15WT
 41
0.9
100
AcDbText
  0
TEXT
  5
E83
330
2
100
AcDbEntity
  8
TITLE
100
AcDbText
 10
30.33937607216262
 20
32.09367406143832
 30
0.0
 40
5.0
  1
F2FM-15T-10～240-T25WT
 41
0.9
100
AcDbText
  0
TEXT
  5
E84
330
2
100
AcDbEntity
  8
TITLE
100
AcDbText
 10
30.33937607216262
 20
41.09367406143832
 30
0.0
 40
5.0
  1
F2FM-15T-10～240-T25T
 41
0.9
100
AcDbText
  0
TEXT
  5
E85
330
2
100
AcDbEntity
  8
TITLE
100
AcDbText
 10
30.33937607216262
 20
23.09367406143832
 30
0.0
 40
5.0
  1
F2FM-15T-10～120-T40T
 41
0.9
100
AcDbText
  0
LINE
  5
EA5
330
2
100
AcDbEntity
  8
CENTER
100
AcDbLine
 10
130.0580724438641
 20
148.8588934599732
 30
0.0
 11
130.0580724438641
 21
160.0035774599732
 31
0.0
  0
LINE
  5
EAD
330
2
100
AcDbEntity
  8
CENTER
100
AcDbLine
 10
140.5367104438641
 20
97.43123545997327
 30
0.0
 11
124.5794344438641
 21
97.43123545997327
 31
0.0
  0
LINE
  5
EB0
330
2
100
AcDbEntity
  8
CENTER
100
AcDbLine
 10
130.0580724438641
 20
101.8588934599732
 30
0.0
 11
130.0580724438641
 21
113.0035774599732
 31
0.0
  0
LINE
  5
EB5
330
2
100
AcDbEntity
  8
CENTER
100
AcDbLine
 10
124.4857304438642
 20
107.4312354599732
 30
0.0
 11
135.630414443864
 21
107.4312354599732
 31
0.0
  0
LINE
  5
ED5
330
2
100
AcDbEntity
  8
CENTER
100
AcDbLine
 10
140.5367104438641
 20
164.4312354599732
 30
0.0
 11
124.5794344438641
 21
164.4312354599732
 31
0.0
  0
LINE
  5
ED9
330
2
100
AcDbEntity
  8
CENTER
100
AcDbLine
 10
132.5580724438641
 20
172.4098734599732
 30
0.0
 11
132.5580724438641
 21
156.4525974599732
 31
0.0
  0
LINE
  5
EDD
330
2
100
AcDbEntity
  8
CENTER
100
AcDbLine
 10
124.4857304438642
 20
154.4312354599732
 30
0.0
 11
135.630414443864
 21
154.4312354599732
 31
0.0
  0
LINE
  5
EFF
330
2
100
AcDbEntity
  8
CENTER
100
AcDbLine
 10
218.5580724438641
 20
105.4098734599732
 30
0.0
 11
218.5580724438641
 21
89.45259745997327
 31
0.0
  0
SPLINE
  5
F28
330
2
100
AcDbEntity
  8
HOJO
100
AcDbSpline
210
0.0
220
0.0
230
1.0
 70
     8
 71
     3
 72
    27
 73
    23
 74
    21
 42
0.0000000001
 43
0.0000000001
 44
0.0000000001
 40
0.0
 40
0.0
 40
0.0
 40
0.0
 40
3.539268772771754
 40
7.287513562995795
 40
11.09046033223702
 40
14.62599423816976
 40
18.69227008921793
 40
22.26802890950275
 40
26.82672101949673
 40
31.55579532198596
 40
36.28066624743832
 40
40.14414690074357
 40
45.4800328401602
 40
49.44095400921195
 40
54.14226030623293
 40
58.62868909724451
 40
62.78426171223562
 40
66.26314687902698
 40
70.60953379849483
 40
74.30511416613953
 40
78.24621988074818
 40
82.00437648752254
 40
82.00437648752254
 40
82.00437648752254
 40
82.00437648752254
 10
306.0580724438641
 20
105.5492482620205
 30
0.0
 10
307.2371388096135
 20
105.383549240442
 30
0.0
 10
309.6648894789533
 20
105.0423675035765
 30
0.0
 10
313.3207699648642
 20
106.1883227482112
 30
0.0
 10
317.0072070594353
 20
104.9287474055808
 30
0.0
 10
320.7596773674307
 20
106.3787284311273
 30
0.0
 10
324.466030809167
 20
104.8195991856938
 30
0.0
 10
328.4664486252399
 20
106.4461356732345
 30
0.0
 10
332.747386023895
 20
104.7970990900656
 30
0.0
 10
337.3630800220301
 20
106.6649910807847
 30
0.0
 10
341.7846777385385
 20
104.8569067518472
 30
0.0
 10
346.3402483433694
 20
106.690861411105
 30
0.0
 10
350.7443491222745
 20
104.8822143040088
 30
0.0
 10
355.3309697522206
 20
106.9212172144186
 30
0.0
 10
359.645691006819
 20
104.5028275970424
 30
0.0
 10
364.0135183449242
 20
107.0934753586993
 30
0.0
 10
367.9751741093253
 20
104.5482070207333
 30
0.0
 10
371.8207505765048
 20
106.9864069183841
 30
0.0
 10
375.6361527095587
 20
104.6780703401974
 30
0.0
 10
379.5412667966579
 20
106.8047609497529
 30
0.0
 10
383.2738499686282
 20
104.9585996237808
 30
0.0
 10
385.8168067813281
 20
105.643372551409
 30
0.0
 10
387.0580724438641
 20
105.9776232620205
 30
0.0
 11
306.0580724438641
 21
105.5492482620205
 31
0.0
 11
309.5892614438641
 21
105.3102342620205
 31
0.0
 11
313.3080724438641
 21
105.7790452620204
 31
0.0
 11
317.0892614438642
 21
105.3728262620205
 31
0.0
 11
320.5892614438642
 21
105.8728262620205
 31
0.0
 11
324.6206644438641
 21
105.3414232620205
 31
0.0
 11
328.1518834438641
 21
105.9040452620204
 31
0.0
 11
332.6830724438641
 21
105.4040452620204
 31
0.0
 11
337.3706644438641
 21
106.0290452620204
 31
0.0
 11
342.0580724438641
 21
105.4352342620205
 31
0.0
 11
345.8706644438641
 21
106.0602342620205
 31
0.0
 11
351.1830724438641
 21
105.5602342620205
 31
0.0
 11
355.0892614438641
 21
106.2164232620205
 31
0.0
 11
359.7142614438642
 21
105.3728262620205
 31
0.0
 11
364.1206644438641
 21
106.2164232620205
 31
0.0
 11
368.1830724438641
 21
105.3414232620205
 31
0.0
 11
371.5580724438641
 21
106.1852342620205
 31
0.0
 11
375.8392614438641
 21
105.4352342620205
 31
0.0
 11
379.4642614438641
 21
106.1540452620204
 31
0.0
 11
383.3392614438642
 21
105.4352342620205
 31
0.0
 11
387.0580724438641
 21
105.9776232620205
 31
0.0
  0
LINE
  5
F38
330
2
100
AcDbEntity
  8
CENTER
100
AcDbLine
 10
221.0580724438641
 20
148.8588934599732
 30
0.0
 11
221.0580724438641
 21
160.0035774599732
 31
0.0
  0
LINE
  5
F39
330
2
100
AcDbEntity
  8
CENTER
100
AcDbLine
 10
186.5580724438641
 20
100.8243624599732
 30
0.0
 11
186.5580724438641
 21
161.0381084599732
 31
0.0
  0
LINE
  5
F44
330
2
100
AcDbEntity
  8
CENTER
100
AcDbLine
 10
215.4857304438642
 20
107.4312354599732
 30
0.0
 11
226.630414443864
 21
107.4312354599732
 31
0.0
  0
LINE
  5
F45
330
2
100
AcDbEntity
  8
CENTER
100
AcDbLine
 10
226.5367104438642
 20
97.43123545997327
 30
0.0
 11
210.5794344438641
 21
97.43123545997327
 31
0.0
  0
LINE
  5
F59
330
2
100
AcDbEntity
  8
CENTER
100
AcDbLine
 10
221.0580724438641
 20
101.8588934599732
 30
0.0
 11
221.0580724438641
 21
113.0035774599732
 31
0.0
  0
LINE
  5
F6C
330
2
100
AcDbEntity
  8
CENTER
100
AcDbLine
 10
215.4857304438642
 20
154.4312354599732
 30
0.0
 11
226.630414443864
 21
154.4312354599732
 31
0.0
  0
LINE
  5
F6D
330
2
100
AcDbEntity
  8
CENTER
100
AcDbLine
 10
226.5367104438642
 20
164.4312354599732
 30
0.0
 11
210.5794344438641
 21
164.4312354599732
 31
0.0
  0
LINE
  5
F75
330
2
100
AcDbEntity
  8
CENTER
100
AcDbLine
 10
218.5580724438641
 20
172.4098734599732
 30
0.0
 11
218.5580724438641
 21
156.4525974599732
 31
0.0
  0
LINE
  5
FF9
330
2
100
AcDbEntity
  8
CENTER
100
AcDbLine
 10
600.5580724438641
 20
105.4098734599732
 30
0.0
 11
600.5580724438641
 21
89.45259745997327
 31
0.0
  0
LINE
  5
FFA
330
2
100
AcDbEntity
  8
CENTER
100
AcDbLine
 10
514.5580724438641
 20
105.4098734599732
 30
0.0
 11
514.5580724438641
 21
89.45259745997327
 31
0.0
  0
LINE
  5
1029
330
2
100
AcDbEntity
  8
CENTER
100
AcDbLine
 10
546.5580724438641
 20
100.7247229599733
 30
0.0
 11
546.5580724438641
 21
161.1377479599732
 31
0.0
  0
LINE
  5
1031
330
2
100
AcDbEntity
  8
CENTER
100
AcDbLine
 10
522.5367104438642
 20
97.43123545997327
 30
0.0
 11
506.5794344438641
 21
97.43123545997327
 31
0.0
  0
LINE
  5
1053
330
2
100
AcDbEntity
  8
CENTER
100
AcDbLine
 10
522.5367104438642
 20
164.4312354599732
 30
0.0
 11
506.5794344438641
 21
164.4312354599732
 31
0.0
  0
LINE
  5
1057
330
2
100
AcDbEntity
  8
CENTER
100
AcDbLine
 10
514.5580724438641
 20
172.4098734599732
 30
0.0
 11
514.5580724438641
 21
156.4525974599732
 31
0.0
  0
LINE
  5
1074
330
2
100
AcDbEntity
  8
CENTER
100
AcDbLine
 10
608.5367104438642
 20
97.43123545997327
 30
0.0
 11
592.579434443864
 21
97.43123545997327
 31
0.0
  0
LINE
  5
1090
330
2
100
AcDbEntity
  8
CENTER
100
AcDbLine
 10
600.5580724438641
 20
172.4098734599732
 30
0.0
 11
600.5580724438641
 21
156.4525974599732
 31
0.0
  0
LINE
  5
1099
330
2
100
AcDbEntity
  8
CENTER
100
AcDbLine
 10
608.5367104438642
 20
164.4312354599732
 30
0.0
 11
592.579434443864
 21
164.4312354599732
 31
0.0
  0
LINE
  5
1EF2
330
2
100
AcDbEntity
  8
0
100
AcDbLine
 10
321.5580724438642
 20
182.4312354599733
 30
0.0
 11
371.5580574438642
 21
182.4312354599733
 31
0.0
  0
LINE
  5
1EF3
330
2
100
AcDbEntity
  8
0
100
AcDbLine
 10
321.5580724438642
 20
172.4312354599733
 30
0.0
 11
371.5580574438642
 21
172.4312354599733
 31
0.0
  0
LINE
  5
1EF4
330
2
100
AcDbEntity
  8
0
100
AcDbLine
 10
322.5580724438642
 20
201.4312334599733
 30
0.0
 11
366.7201636278381
 21
201.4312334599732
 31
0.0
  0
LINE
  5
1EF5
330
2
100
AcDbEntity
  8
0
100
AcDbLine
 10
321.5580724438642
 20
200.4312334599733
 30
0.0
 11
364.0580574438641
 21
200.4312334599733
 31
0.0
  0
LINE
  5
1EF7
330
2
100
AcDbEntity
  8
CENTER
100
AcDbLine
 10
316.5144654626557
 20
191.9312334599733
 30
0.0
 11
376.6016794250726
 21
191.9312334599733
 31
0.0
  0
LINE
  5
1F1D
330
2
100
AcDbEntity
  8
0
100
AcDbLine
 10
48.34048425988976
 20
201.4312334599732
 30
0.0
 11
92.50257544386423
 21
201.4312334599732
 31
0.0
  0
LINE
  5
1F1E
330
2
100
AcDbEntity
  8
0
100
AcDbLine
 10
45.00256844386422
 20
170.4312354599732
 30
0.0
 11
91.50257544386423
 21
170.4312354599732
 31
0.0
  0
LINE
  5
1F1F
330
2
100
AcDbEntity
  8
0
100
AcDbLine
 10
41.50256844386421
 20
182.4312354599732
 30
0.0
 11
93.50257544386423
 21
182.4312354599732
 31
0.0
  0
LINE
  5
1F20
330
2
100
AcDbEntity
  8
0
100
AcDbLine
 10
43.50256844386422
 20
172.4312354599732
 30
0.0
 11
93.50257544386423
 21
172.4312354599732
 31
0.0
  0
LINE
  5
1F21
330
2
100
AcDbEntity
  8
0
100
AcDbLine
 10
51.00256887243517
 20
200.4312334599732
 30
0.0
 11
93.50258244386424
 21
200.4312334599732
 31
0.0
  0
LINE
  5
1F22
330
2
100
AcDbEntity
  8
CENTER
100
AcDbLine
 10
35.55881944386422
 20
191.9312334599732
 30
0.0
 11
97.45487840760233
 21
191.9312334599732
 31
0.0
  0
ARC
  5
1F24
330
2
100
AcDbEntity
  8
0
100
AcDbCircle
 10
42.50258344386423
 20
198.4312334599732
 30
0.0
 40
1.0
100
AcDbArc
 50
90.0
 51
180.0
  0
LINE
  5
1F25
330
2
100
AcDbEntity
  8
0
100
AcDbLine
 10
41.50258344386424
 20
198.4312334599732
 30
0.0
 11
41.50256844386421
 21
182.4312354599732
 31
0.0
  0
LINE
  5
1F26
330
2
100
AcDbEntity
  8
0
100
AcDbLine
 10
38.00258344386422
 20
195.9312334599732
 30
0.0
 11
38.00258344386422
 21
187.9312334599732
 31
0.0
  0
LINE
  5
1F27
330
2
100
AcDbEntity
  8
0
100
AcDbLine
 10
38.00256844386423
 20
187.9312334599732
 30
0.0
 11
41.50256844386421
 21
186.4312334599732
 31
0.0
  0
LINE
  5
1F28
330
2
100
AcDbEntity
  8
0
100
AcDbLine
 10
38.00258344386422
 20
195.9312334599732
 30
0.0
 11
41.50258344386424
 21
197.4312334599732
 31
0.0
  0
LINE
  5
1F29
330
2
100
AcDbEntity
  8
CENTER
100
AcDbLine
 10
68.50257544386423
 20
165.7375344599732
 30
0.0
 11
68.50257544386423
 21
206.8187334599732
 31
0.0
  0
LINE
  5
1F2A
330
2
100
AcDbEntity
  8
0
100
AcDbLine
 10
43.50256844386422
 20
200.4312334599732
 30
0.0
 11
43.50256844386422
 21
172.4312354599732
 31
0.0
  0
LINE
  5
1F2B
330
2
100
AcDbEntity
  8
0
100
AcDbLine
 10
45.00256844386422
 20
170.4312354599732
 30
0.0
 11
45.00256844386422
 21
168.9312354599732
 31
0.0
  0
LINE
  5
1F2D
330
2
100
AcDbEntity
  8
0
100
AcDbLine
 10
43.50256844386422
 20
172.4312354599732
 30
0.0
 11
45.50256844386422
 21
170.4312354599732
 31
0.0
  0
ARC
  5
1F2E
330
2
100
AcDbEntity
  8
0
100
AcDbCircle
 10
47.00257544386431
 20
192.5312334599731
 30
0.0
 40
9.0
100
AcDbArc
 50
74.11914999171883
 51
105.8808500082811
  0
LINE
  5
1F2F
330
2
100
AcDbEntity
  8
0
100
AcDbLine
 10
47.29007544431937
 20
200.0142334599731
 30
0.0
 11
46.71507544340926
 21
200.0142334599731
 31
0.0
  0
LINE
  5
1F30
330
2
100
AcDbEntity
  8
0
100
AcDbLine
 10
51.00256887243517
 20
198.9312334599731
 30
0.0
 11
43.50256887243517
 21
198.9312334599732
 31
0.0
  0
LINE
  5
1F31
330
2
100
AcDbEntity
  8
0
100
AcDbLine
 10
44.97283562070021
 20
201.0836749973508
 30
0.0
 11
44.9525754438643
 21
201.2946517428123
 31
0.0
  0
SPLINE
  5
1F32
330
2
100
AcDbEntity
  8
0
100
AcDbSpline
210
0.0
220
0.0
230
1.0
 70
     8
 71
     3
 72
    11
 73
     7
 74
     0
 42
0.0000000001
 43
0.0000000001
 40
0.0
 40
0.0
 40
0.0
 40
0.0
 40
0.4601364636755307
 40
1.04988694485363
 40
1.713742833862792
 40
2.320347933405154
 40
2.320347933405154
 40
2.320347933405154
 40
2.320347933405179
 10
46.71507544340926
 20
200.0142334599731
 30
0.0
 10
46.69265778630142
 20
200.1692568996531
 30
0.0
 10
46.64150773106814
 20
200.5229717175706
 30
0.0
 10
46.20562256953457
 20
200.9476993891722
 30
0.0
 10
45.60057185452712
 20
201.1668865691381
 30
0.0
 10
45.1753872303513
 20
201.0978952695274
 30
0.0
 10
44.97283562070021
 20
201.0836749973508
 30
0.0
  0
LINE
  5
1F33
330
2
100
AcDbEntity
  8
0
100
AcDbLine
 10
43.50257544386431
 20
198.9312334599732
 30
0.0
 11
43.60051158275211
 21
200.0506486497914
 31
0.0
  0
ARC
  5
1F34
330
2
100
AcDbEntity
  8
0
100
AcDbCircle
 10
44.89556469027127
 20
199.9373461842195
 30
0.0
 40
1.3
100
AcDbArc
 50
105.8808500082811
 51
175.0000000000001
  0
LINE
  5
1F35
330
2
100
AcDbEntity
  8
0
100
AcDbLine
 10
44.50256887243518
 20
201.4312334599731
 30
0.0
 11
43.50256844386419
 21
200.4312334599732
 31
0.0
  0
LINE
  5
1F36
330
2
100
AcDbEntity
  8
0
100
AcDbLine
 10
43.50256844386422
 20
200.4312334599732
 30
0.0
 11
44.50256844386422
 21
201.4312334599732
 31
0.0
  0
LINE
  5
1F37
330
2
100
AcDbEntity
  8
0
100
AcDbLine
 10
42.50256844386422
 20
199.4312334599732
 30
0.0
 11
43.50256844386422
 21
199.4312334599732
 31
0.0
  0
LINE
  5
1F38
330
2
100
AcDbEntity
  8
0
100
AcDbLine
 10
44.50256844386422
 20
201.4312334599732
 30
0.0
 11
45.6646666278389
 21
201.4312334599732
 31
0.0
  0
LINE
  5
1F39
330
2
100
AcDbEntity
  8
0
100
AcDbLine
 10
50.5025754438642
 20
198.9312334599732
 30
0.0
 11
50.4046393049764
 21
200.0506486497914
 31
0.0
  0
ARC
  5
1F3A
330
2
100
AcDbEntity
  8
0
100
AcDbCircle
 10
49.10958619745713
 20
199.9373461842195
 30
0.0
 40
1.3
100
AcDbArc
 50
4.999999999999796
 51
74.11914999171883
  0
LINE
  5
1F3B
330
2
100
AcDbEntity
  8
0
100
AcDbLine
 10
49.03231526702843
 20
201.0836749973508
 30
0.0
 11
49.05257544386433
 21
201.2946517428123
 31
0.0
  0
SPLINE
  5
1F3C
330
2
100
AcDbEntity
  8
0
100
AcDbSpline
210
0.0
220
0.0
230
1.0
 70
     8
 71
     3
 72
    11
 73
     7
 74
     0
 42
0.0000000001
 43
0.0000000001
 40
0.0
 40
0.0
 40
0.0
 40
0.0
 40
0.4601364636755307
 40
1.04988694485363
 40
1.713742833862792
 40
2.320347933405154
 40
2.320347933405154
 40
2.320347933405154
 40
2.320347933405179
 10
47.29007544431937
 20
200.0142334599731
 30
0.0
 10
47.31249310142721
 20
200.1692568996531
 30
0.0
 10
47.36364315666048
 20
200.5229717175706
 30
0.0
 10
47.79952831819406
 20
200.9476993891722
 30
0.0
 10
48.40457903320151
 20
201.1668865691381
 30
0.0
 10
48.82976365737732
 20
201.0978952695274
 30
0.0
 10
49.03231526702843
 20
201.0836749973508
 30
0.0
  0
LINE
  5
1F3D
330
2
100
AcDbEntity
  8
0
100
AcDbLine
 10
51.50256887243518
 20
201.4312334599731
 30
0.0
 11
51.00256887243517
 21
200.9312334599731
 31
0.0
  0
LINE
  5
1F3E
330
2
100
AcDbEntity
  8
0
100
AcDbLine
 10
51.00256887243517
 20
198.9312334599731
 30
0.0
 11
51.00256887243517
 21
200.9312334599732
 31
0.0
  0
LINE
  5
1F3F
330
2
100
AcDbEntity
  8
0
100
AcDbLine
 10
51.00256887243517
 20
200.9312334599731
 30
0.0
 11
49.94755283348448
 21
200.9312334599731
 31
0.0
  0
LINE
  5
1F40
330
2
100
AcDbEntity
  8
0
100
AcDbLine
 10
93.50257544386423
 20
200.4312334599732
 30
0.0
 11
93.50257544386423
 21
172.4312354599732
 31
0.0
  0
LINE
  5
1F41
330
2
100
AcDbEntity
  8
0
100
AcDbLine
 10
91.00257544386423
 20
170.4312354599732
 30
0.0
 11
91.00257544386423
 21
168.9312354599732
 31
0.0
  0
LINE
  5
1F42
330
2
100
AcDbEntity
  8
0
100
AcDbLine
 10
91.50257544386423
 20
170.4312354599732
 30
0.0
 11
93.50257544386423
 21
172.4312354599732
 31
0.0
  0
LINE
  5
1F43
330
2
100
AcDbEntity
  8
0
100
AcDbLine
 10
92.50258244386424
 20
201.4312334599732
 30
0.0
 11
93.50258244386424
 21
200.4312334599732
 31
0.0
  0
LINE
  5
1F44
330
2
100
AcDbEntity
  8
0
100
AcDbLine
 10
321.5580724438642
 20
200.4312334599733
 30
0.0
 11
321.5580724438642
 21
172.4312354599733
 31
0.0
  0
LINE
  5
1F46
330
2
100
AcDbEntity
  8
0
100
AcDbLine
 10
321.5580724438642
 20
172.4312354599733
 30
0.0
 11
322.9698127963388
 21
171.0194951074986
 31
0.0
  0
LINE
  5
1F47
330
2
100
AcDbEntity
  8
0
100
AcDbLine
 10
322.5580724438642
 20
201.4312334599733
 30
0.0
 11
321.5580724438642
 21
200.4312334599733
 31
0.0
  0
LINE
  5
1F4A
330
2
100
AcDbEntity
  8
0
100
AcDbLine
 10
371.5580574438642
 20
200.4312334599732
 30
0.0
 11
371.5580574438642
 21
172.4312354599733
 31
0.0
  0
LINE
  5
1F4D
330
2
100
AcDbEntity
  8
0
100
AcDbLine
 10
370.1463173487272
 20
171.0194953648363
 30
0.0
 11
371.5580574438642
 21
172.4312354599733
 31
0.0
  0
ARC
  5
1F4E
330
2
100
AcDbEntity
  8
0
100
AcDbCircle
 10
368.0580724438642
 20
192.5312334599732
 30
0.0
 40
9.0
100
AcDbArc
 50
74.11914999171883
 51
105.8808500082811
  0
SPLINE
  5
1F4F
330
2
100
AcDbEntity
  8
0
100
AcDbSpline
210
0.0
220
0.0
230
1.0
 70
     8
 71
     3
 72
    11
 73
     7
 74
     0
 42
0.0000000001
 43
0.0000000001
 40
0.0
 40
0.0
 40
0.0
 40
0.0
 40
0.4601364636755307
 40
1.04988694485363
 40
1.713742833862792
 40
2.320347933405154
 40
2.320347933405154
 40
2.320347933405154
 40
2.320347933405179
 10
367.7705724434091
 20
200.0142334599733
 30
0.0
 10
367.7481547863013
 20
200.1692568996531
 30
0.0
 10
367.6970047310681
 20
200.5229717175707
 30
0.0
 10
367.2611195695344
 20
200.9476993891724
 30
0.0
 10
366.656068854527
 20
201.1668865691382
 30
0.0
 10
366.2308842303512
 20
201.0978952695275
 30
0.0
 10
366.0283326207001
 20
201.0836749973508
 30
0.0
  0
LINE
  5
1F50
330
2
100
AcDbEntity
  8
0
100
AcDbLine
 10
364.0580574438641
 20
198.9312334599732
 30
0.0
 11
371.5580574438642
 21
198.9312334599733
 31
0.0
  0
LINE
  5
1F51
330
2
100
AcDbEntity
  8
0
100
AcDbLine
 10
366.0283326207001
 20
201.0836749973508
 30
0.0
 11
366.0080724438642
 21
201.2946517428125
 31
0.0
  0
LINE
  5
1F52
330
2
100
AcDbEntity
  8
0
100
AcDbLine
 10
364.5580724438642
 20
198.9312334599733
 30
0.0
 11
364.656008582752
 21
200.0506486497916
 31
0.0
  0
ARC
  5
1F53
330
2
100
AcDbEntity
  8
0
100
AcDbCircle
 10
365.9510616902712
 20
199.9373461842196
 30
0.0
 40
1.3
100
AcDbArc
 50
105.8808500082811
 51
175.0000000000001
  0
LINE
  5
1F54
330
2
100
AcDbEntity
  8
0
100
AcDbLine
 10
363.5580574438642
 20
201.4312334599732
 30
0.0
 11
364.0580574438641
 21
200.9312334599732
 31
0.0
  0
LINE
  5
1F55
330
2
100
AcDbEntity
  8
0
100
AcDbLine
 10
364.0580574438641
 20
198.9312334599732
 30
0.0
 11
364.0580574438641
 21
200.9312334599733
 31
0.0
  0
LINE
  5
1F56
330
2
100
AcDbEntity
  8
0
100
AcDbLine
 10
364.0580574438641
 20
200.9312334599732
 30
0.0
 11
365.1130950542437
 21
200.9312334599732
 31
0.0
  0
LINE
  5
1F57
330
2
100
AcDbEntity
  8
0
100
AcDbLine
 10
369.3959812598904
 20
201.4312334599732
 30
0.0
 11
370.5580574438641
 21
201.4312334599732
 31
0.0
  0
LINE
  5
1F58
330
2
100
AcDbEntity
  8
0
100
AcDbLine
 10
371.5580724438641
 20
198.9312334599733
 30
0.0
 11
371.4601363049763
 21
200.0506486497916
 31
0.0
  0
ARC
  5
1F59
330
2
100
AcDbEntity
  8
0
100
AcDbCircle
 10
370.165083197457
 20
199.9373461842196
 30
0.0
 40
1.3
100
AcDbArc
 50
4.999999999999796
 51
74.11914999171883
  0
LINE
  5
1F5A
330
2
100
AcDbEntity
  8
0
100
AcDbLine
 10
370.0878122670283
 20
201.0836749973508
 30
0.0
 11
370.1080724438642
 21
201.2946517428125
 31
0.0
  0
LINE
  5
1F5B
330
2
100
AcDbEntity
  8
0
100
AcDbLine
 10
368.3455724443192
 20
200.0142334599733
 30
0.0
 11
367.7705724434091
 21
200.0142334599733
 31
0.0
  0
SPLINE
  5
1F5C
330
2
100
AcDbEntity
  8
0
100
AcDbSpline
210
0.0
220
0.0
230
1.0
 70
     8
 71
     3
 72
    11
 73
     7
 74
     0
 42
0.0000000001
 43
0.0000000001
 40
0.0
 40
0.0
 40
0.0
 40
0.0
 40
0.4601364636755307
 40
1.04988694485363
 40
1.713742833862792
 40
2.320347933405154
 40
2.320347933405154
 40
2.320347933405154
 40
2.320347933405179
 10
368.3455724443192
 20
200.0142334599733
 30
0.0
 10
368.3679901014271
 20
200.1692568996531
 30
0.0
 10
368.4191401566604
 20
200.5229717175707
 30
0.0
 10
368.8550253181939
 20
200.9476993891724
 30
0.0
 10
369.4600760332014
 20
201.1668865691382
 30
0.0
 10
369.8852606573772
 20
201.0978952695275
 30
0.0
 10
370.0878122670283
 20
201.0836749973508
 30
0.0
  0
LINE
  5
1F5D
330
2
100
AcDbEntity
  8
0
100
AcDbLine
 10
370.5580574438641
 20
201.4312334599732
 30
0.0
 11
371.5580574438642
 21
200.4312334599732
 31
0.0
  0
LINE
  5
1F5F
330
2
100
AcDbEntity
  8
0
100
AcDbLine
 10
644.4514552598896
 20
201.4312334599732
 30
0.0
 11
688.6135464438641
 21
201.4312334599732
 31
0.0
  0
LINE
  5
1F60
330
2
100
AcDbEntity
  8
0
100
AcDbLine
 10
647.1135468724352
 20
200.4312334599732
 30
0.0
 11
689.6135534438642
 21
200.4312334599732
 31
0.0
  0
LINE
  5
1F62
330
2
100
AcDbEntity
  8
0
100
AcDbLine
 10
689.6135534438642
 20
172.4312354599732
 30
0.0
 11
639.6135464438641
 21
172.4312354599732
 31
0.0
  0
LINE
  5
1F63
330
2
100
AcDbEntity
  8
0
100
AcDbLine
 10
688.1135534438642
 20
170.4312354599732
 30
0.0
 11
641.6135464438641
 21
170.4312354599732
 31
0.0
  0
LINE
  5
1F64
330
2
100
AcDbEntity
  8
CENTER
100
AcDbLine
 10
697.5573024438642
 20
191.9312334599732
 30
0.0
 11
635.6612434801261
 21
191.9312334599732
 31
0.0
  0
LINE
  5
1F65
330
2
100
AcDbEntity
  8
0
100
AcDbLine
 10
691.6135534438642
 20
182.4312354599732
 30
0.0
 11
639.6135464438641
 21
182.4312354599732
 31
0.0
  0
LINE
  5
1F66
330
2
100
AcDbEntity
  8
0
100
AcDbLine
 10
639.6135464438643
 20
200.4312334599732
 30
0.0
 11
639.6135464438641
 21
172.4312354599732
 31
0.0
  0
LINE
  5
1F67
330
2
100
AcDbEntity
  8
CENTER
100
AcDbLine
 10
664.6135464438641
 20
165.7375344599732
 30
0.0
 11
664.6135464438641
 21
206.8187334599732
 31
0.0
  0
LINE
  5
1F68
330
2
100
AcDbEntity
  8
0
100
AcDbLine
 10
642.1135464438641
 20
170.4312354599732
 30
0.0
 11
642.1135464438641
 21
168.9312354599732
 31
0.0
  0
LINE
  5
1F69
330
2
100
AcDbEntity
  8
0
100
AcDbLine
 10
641.6135464438641
 20
170.4312354599732
 30
0.0
 11
639.6135464438641
 21
172.4312354599732
 31
0.0
  0
LINE
  5
1F6A
330
2
100
AcDbEntity
  8
0
100
AcDbLine
 10
647.1135468724352
 20
200.9312334599731
 30
0.0
 11
646.0585238334845
 21
200.9312334599731
 31
0.0
  0
LINE
  5
1F6B
330
2
100
AcDbEntity
  8
0
100
AcDbLine
 10
647.1135468724352
 20
198.9312334599731
 30
0.0
 11
639.6135468724352
 21
198.9312334599732
 31
0.0
  0
ARC
  5
1F6C
330
2
100
AcDbEntity
  8
0
100
AcDbCircle
 10
643.1135464438642
 20
192.5312334599731
 30
0.0
 40
9.0
100
AcDbArc
 50
74.11914999171883
 51
105.8808500082811
  0
SPLINE
  5
1F6D
330
2
100
AcDbEntity
  8
0
100
AcDbSpline
210
0.0
220
0.0
230
1.0
 70
     8
 71
     3
 72
    11
 73
     7
 74
     0
 42
0.0000000001
 43
0.0000000001
 40
0.0
 40
0.0
 40
0.0
 40
0.0
 40
0.4601364636755307
 40
1.04988694485363
 40
1.713742833862792
 40
2.320347933405154
 40
2.320347933405154
 40
2.320347933405154
 40
2.320347933405179
 10
642.8260464434092
 20
200.0142334599731
 30
0.0
 10
642.8036287863013
 20
200.1692568996531
 30
0.0
 10
642.752478731068
 20
200.5229717175706
 30
0.0
 10
642.3165935695344
 20
200.9476993891722
 30
0.0
 10
641.7115428545271
 20
201.1668865691381
 30
0.0
 10
641.2863582303511
 20
201.0978952695274
 30
0.0
 10
641.0838066207002
 20
201.0836749973508
 30
0.0
  0
LINE
  5
1F6E
330
2
100
AcDbEntity
  8
0
100
AcDbLine
 10
641.0838066207002
 20
201.0836749973508
 30
0.0
 11
641.0635464438642
 21
201.2946517428123
 31
0.0
  0
LINE
  5
1F6F
330
2
100
AcDbEntity
  8
0
100
AcDbLine
 10
639.6135464438643
 20
198.9312334599732
 30
0.0
 11
639.7114825827521
 21
200.0506486497914
 31
0.0
  0
ARC
  5
1F70
330
2
100
AcDbEntity
  8
0
100
AcDbCircle
 10
641.0065356902712
 20
199.9373461842195
 30
0.0
 40
1.3
100
AcDbArc
 50
105.8808500082811
 51
175.0000000000001
  0
LINE
  5
1F71
330
2
100
AcDbEntity
  8
0
100
AcDbLine
 10
639.6135464438643
 20
200.4312334599732
 30
0.0
 11
640.6135464438643
 21
201.4312334599732
 31
0.0
  0
LINE
  5
1F72
330
2
100
AcDbEntity
  8
0
100
AcDbLine
 10
640.6135464438643
 20
201.4312334599732
 30
0.0
 11
641.7756376278389
 21
201.4312334599732
 31
0.0
  0
LINE
  5
1F73
330
2
100
AcDbEntity
  8
0
100
AcDbLine
 10
646.6135464438641
 20
198.9312334599732
 30
0.0
 11
646.5156103049763
 21
200.0506486497914
 31
0.0
  0
ARC
  5
1F74
330
2
100
AcDbEntity
  8
0
100
AcDbCircle
 10
645.2205571974571
 20
199.9373461842195
 30
0.0
 40
1.3
100
AcDbArc
 50
4.999999999999796
 51
74.11914999171883
  0
LINE
  5
1F75
330
2
100
AcDbEntity
  8
0
100
AcDbLine
 10
645.1432862670283
 20
201.0836749973508
 30
0.0
 11
645.1635464438643
 21
201.2946517428123
 31
0.0
  0
LINE
  5
1F76
330
2
100
AcDbEntity
  8
0
100
AcDbLine
 10
643.4010464443193
 20
200.0142334599731
 30
0.0
 11
642.8260464434092
 21
200.0142334599731
 31
0.0
  0
SPLINE
  5
1F77
330
2
100
AcDbEntity
  8
0
100
AcDbSpline
210
0.0
220
0.0
230
1.0
 70
     8
 71
     3
 72
    11
 73
     7
 74
     0
 42
0.0000000001
 43
0.0000000001
 40
0.0
 40
0.0
 40
0.0
 40
0.0
 40
0.4601364636755307
 40
1.04988694485363
 40
1.713742833862792
 40
2.320347933405154
 40
2.320347933405154
 40
2.320347933405154
 40
2.320347933405179
 10
643.4010464443193
 20
200.0142334599731
 30
0.0
 10
643.4234641014271
 20
200.1692568996531
 30
0.0
 10
643.4746141566604
 20
200.5229717175706
 30
0.0
 10
643.910499318194
 20
200.9476993891722
 30
0.0
 10
644.5155500332013
 20
201.1668865691381
 30
0.0
 10
644.9407346573773
 20
201.0978952695274
 30
0.0
 10
645.1432862670283
 20
201.0836749973508
 30
0.0
  0
LINE
  5
1F78
330
2
100
AcDbEntity
  8
0
100
AcDbLine
 10
647.6135468724351
 20
201.4312334599731
 30
0.0
 11
647.1135468724352
 21
200.9312334599731
 31
0.0
  0
LINE
  5
1F79
330
2
100
AcDbEntity
  8
0
100
AcDbLine
 10
647.1135468724352
 20
198.9312334599731
 30
0.0
 11
647.1135468724352
 21
200.9312334599732
 31
0.0
  0
LINE
  5
1F7B
330
2
100
AcDbEntity
  8
0
100
AcDbLine
 10
689.6135534438642
 20
200.4312334599732
 30
0.0
 11
689.6135534438642
 21
172.4312354599732
 31
0.0
  0
LINE
  5
1F7C
330
2
100
AcDbEntity
  8
0
100
AcDbLine
 10
695.1135384438641
 20
195.9312334599732
 30
0.0
 11
695.1135384438641
 21
187.9312334599732
 31
0.0
  0
LINE
  5
1F7D
330
2
100
AcDbEntity
  8
0
100
AcDbLine
 10
691.6135384438641
 20
198.4312334599732
 30
0.0
 11
691.6135534438642
 21
182.4312354599732
 31
0.0
  0
LINE
  5
1F7F
330
2
100
AcDbEntity
  8
0
100
AcDbLine
 10
688.1135534438642
 20
170.4312354599732
 30
0.0
 11
688.1135534438642
 21
168.9312354599732
 31
0.0
  0
LINE
  5
1F80
330
2
100
AcDbEntity
  8
0
100
AcDbLine
 10
695.1135534438642
 20
187.9312334599732
 30
0.0
 11
691.6135534438642
 21
186.4312334599732
 31
0.0
  0
LINE
  5
1F81
330
2
100
AcDbEntity
  8
0
100
AcDbLine
 10
689.6135534438642
 20
172.4312354599732
 30
0.0
 11
687.6135534438642
 21
170.4312354599732
 31
0.0
  0
LINE
  5
1F82
330
2
100
AcDbEntity
  8
0
100
AcDbLine
 10
695.1135384438641
 20
195.9312334599732
 30
0.0
 11
691.6135384438641
 21
197.4312334599732
 31
0.0
  0
LINE
  5
1F83
330
2
100
AcDbEntity
  8
0
100
AcDbLine
 10
688.6135534438643
 20
201.4312334599732
 30
0.0
 11
689.6135534438642
 21
200.4312334599732
 31
0.0
  0
ARC
  5
1F84
330
2
100
AcDbEntity
  8
0
100
AcDbCircle
 10
690.6135384438641
 20
198.4312334599732
 30
0.0
 40
1.0
100
AcDbArc
 50
0.0
 51
90.0
  0
LINE
  5
1F85
330
2
100
AcDbEntity
  8
0
100
AcDbLine
 10
690.6135534438642
 20
199.4312334599732
 30
0.0
 11
689.6135534438642
 21
199.4312334599732
 31
0.0
  0
LINE
  5
1F86
330
2
100
AcDbEntity
  8
0
100
AcDbLine
 10
642.0134484438641
 20
351.5513895609468
 30
0.0
 11
682.1135534438641
 21
351.5513895609468
 31
0.0
  0
LINE
  5
1F87
330
2
100
AcDbEntity
  8
0
100
AcDbLine
 10
687.6135534438641
 20
352.9513835609468
 30
0.0
 11
641.6136534438642
 21
352.9513835609468
 31
0.0
  0
LINE
  5
1F88
330
2
100
AcDbEntity
  8
0
100
AcDbLine
 10
687.6135534438641
 20
302.9513835609468
 30
0.0
 11
641.6136534438642
 21
302.9513835609469
 31
0.0
  0
LINE
  5
1F89
330
2
100
AcDbEntity
  8
0
100
AcDbLine
 10
687.2135524438641
 20
304.3513925609468
 30
0.0
 11
647.1136534438642
 21
304.3513925609468
 31
0.0
  0
LINE
  5
1F8A
330
2
100
AcDbEntity
  8
0
100
AcDbLine
 10
639.6136534438642
 20
304.9513835609469
 30
0.0
 11
639.6136534438642
 21
350.9513835609468
 31
0.0
  0
LINE
  5
1F8B
330
2
100
AcDbEntity
  8
CENTER
100
AcDbLine
 10
664.6135464438641
 20
297.5621576168391
 30
0.0
 11
664.6135464438641
 21
358.7013835609468
 31
0.0
  0
LINE
  5
1F8C
330
2
100
AcDbEntity
  8
0
100
AcDbLine
 10
641.0134484438641
 20
350.5513895609468
 30
0.0
 11
641.0134484438641
 21
310.4513835609469
 31
0.0
  0
ARC
  5
1F8D
330
2
100
AcDbEntity
  8
0
100
AcDbCircle
 10
643.1134544438641
 20
306.4513835609468
 30
0.0
 40
4.0
100
AcDbArc
 50
0.0
 51
90.0
  0
ARC
  5
1F8E
330
2
100
AcDbEntity
  8
0
100
AcDbCircle
 10
641.0837544438639
 20
304.4216835609469
 30
0.0
 40
1.742199999999999
100
AcDbArc
 50
359.9986903345002
 51
90.00130966549649
  0
ARC
  5
1F8F
330
2
100
AcDbEntity
  8
0
100
AcDbCircle
 10
641.0837544438639
 20
308.4810835609468
 30
0.0
 40
1.742199999999999
100
AcDbArc
 50
269.9986903345035
 51
0.0013096654997424
  0
CIRCLE
  5
1F90
330
2
100
AcDbEntity
  8
0
100
AcDbCircle
 10
643.1134544438641
 20
306.4513835609468
 30
0.0
 40
3.500000000000028
  0
LINE
  5
1F91
330
2
100
AcDbEntity
  8
0
100
AcDbLine
 10
643.1136534438642
 20
310.4513835609469
 30
0.0
 11
639.6136534438642
 21
310.4513835609469
 31
0.0
  0
ARC
  5
1F92
330
2
100
AcDbEntity
  8
0
100
AcDbCircle
 10
643.1134544438641
 20
306.4513835609468
 30
0.0
 40
2.049999999999998
100
AcDbArc
 50
171.938039916018
 51
180.0
  0
ARC
  5
1F93
330
2
100
AcDbEntity
  8
0
100
AcDbCircle
 10
643.1134544438641
 20
306.4513835609468
 30
0.0
 40
2.049999999999998
100
AcDbArc
 50
180.0
 51
188.0619600839818
  0
LINE
  5
1F94
330
2
100
AcDbEntity
  8
0
100
AcDbLine
 10
641.6136534438642
 20
302.9513835609469
 30
0.0
 11
639.6136534438642
 21
304.9513835609469
 31
0.0
  0
LINE
  5
1F95
330
2
100
AcDbEntity
  8
0
100
AcDbLine
 10
639.6136534438642
 20
304.9513835609469
 30
0.0
 11
641.6136534438642
 21
302.9513835609469
 31
0.0
  0
ARC
  5
1F96
330
2
100
AcDbEntity
  8
0
100
AcDbCircle
 10
645.1431544438641
 20
304.4216835609469
 30
0.0
 40
1.742199999999999
100
AcDbArc
 50
89.99869033450025
 51
180.0013096654997
  0
ARC
  5
1F97
330
2
100
AcDbEntity
  8
0
100
AcDbCircle
 10
645.1431544438641
 20
308.4810835609468
 30
0.0
 40
1.742199999999999
100
AcDbArc
 50
179.9986903345002
 51
270.0013096654964
  0
ARC
  5
1F98
330
2
100
AcDbEntity
  8
0
100
AcDbCircle
 10
643.1134544438641
 20
306.4513835609468
 30
0.0
 40
2.049999999999998
100
AcDbArc
 50
0.0
 51
8.061960083981905
  0
ARC
  5
1F99
330
2
100
AcDbEntity
  8
0
100
AcDbCircle
 10
643.1134544438641
 20
306.4513835609468
 30
0.0
 40
2.049999999999998
100
AcDbArc
 50
261.9380399160178
 51
270.0
  0
ARC
  5
1F9A
330
2
100
AcDbEntity
  8
0
100
AcDbCircle
 10
643.1134544438641
 20
306.4513835609468
 30
0.0
 40
2.049999999999998
100
AcDbArc
 50
270.0
 51
278.061960083982
  0
ARC
  5
1F9B
330
2
100
AcDbEntity
  8
0
100
AcDbCircle
 10
643.1134544438641
 20
306.4513835609468
 30
0.0
 40
2.049999999999998
100
AcDbArc
 50
351.9380399160181
 51
0.0
  0
ARC
  5
1F9C
330
2
100
AcDbEntity
  8
0
100
AcDbCircle
 10
643.1134544438641
 20
306.4513835609468
 30
0.0
 40
2.049999999999998
100
AcDbArc
 50
90.0
 51
98.06196008398211
  0
ARC
  5
1F9D
330
2
100
AcDbEntity
  8
0
100
AcDbCircle
 10
643.1134544438641
 20
306.4513835609468
 30
0.0
 40
2.049999999999998
100
AcDbArc
 50
81.93803991601789
 51
90.0
  0
LINE
  5
1F9E
330
2
100
AcDbEntity
  8
0
100
AcDbLine
 10
647.1136534438642
 20
306.4513835609468
 30
0.0
 11
647.1136534438642
 21
302.9513835609469
 31
0.0
  0
LINE
  5
1F9F
330
2
100
AcDbEntity
  8
0
100
AcDbLine
 10
639.6134544438641
 20
350.9513835609468
 30
0.0
 11
641.6136534438642
 21
352.9513835609468
 31
0.0
  0
LINE
  5
1FA0
330
2
100
AcDbEntity
  8
0
100
AcDbLine
 10
639.6136534438642
 20
350.9513835609468
 30
0.0
 11
641.6136534438642
 21
352.9513835609468
 31
0.0
  0
LINE
  5
1FA1
330
2
100
AcDbEntity
  8
0
100
AcDbLine
 10
639.6136534438642
 20
350.9513835609468
 30
0.0
 11
641.6136534438642
 21
352.9513835609468
 31
0.0
  0
LINE
  5
1FA2
330
2
100
AcDbEntity
  8
0
100
AcDbLine
 10
642.0134484438641
 20
351.5513895609468
 30
0.0
 11
641.0134484438641
 21
350.5513895609468
 31
0.0
  0
LINE
  5
1FA3
330
2
100
AcDbEntity
  8
0
100
AcDbLine
 10
689.6135534438641
 20
304.9513835609468
 30
0.0
 11
689.6135534438641
 21
350.9513835609468
 31
0.0
  0
LINE
  5
1FA4
330
2
100
AcDbEntity
  8
0
100
AcDbLine
 10
688.2135594438641
 20
305.3513925609468
 30
0.0
 11
688.2135524438641
 21
345.4513835609468
 31
0.0
  0
LINE
  5
1FA5
330
2
100
AcDbEntity
  8
0
100
AcDbLine
 10
689.6135534438641
 20
304.9513835609468
 30
0.0
 11
687.6135534438641
 21
302.9513835609468
 31
0.0
  0
LINE
  5
1FA6
330
2
100
AcDbEntity
  8
0
100
AcDbLine
 10
688.2135594438641
 20
305.3513925609468
 30
0.0
 11
687.2135524438641
 21
304.3513925609468
 31
0.0
  0
LINE
  5
1FA7
330
2
100
AcDbEntity
  8
0
100
AcDbLine
 10
691.6135534438641
 20
333.4513835609468
 30
0.0
 11
695.1135534438641
 21
329.9513835609468
 31
0.0
  0
LINE
  5
1FA8
330
2
100
AcDbEntity
  8
0
100
AcDbLine
 10
695.1135534438641
 20
325.9513835609468
 30
0.0
 11
691.6135534438641
 21
322.4513835609468
 31
0.0
  0
LINE
  5
1FA9
330
2
100
AcDbEntity
  8
0
100
AcDbLine
 10
691.6135534438641
 20
334.4513835609468
 30
0.0
 11
691.6135534438641
 21
321.4513835609468
 31
0.0
  0
ARC
  5
1FAA
330
2
100
AcDbEntity
  8
0
100
AcDbCircle
 10
690.6135384438641
 20
321.4513835609468
 30
0.0
 40
1.0
100
AcDbArc
 50
270.0
 51
0.0
  0
LINE
  5
1FAB
330
2
100
AcDbEntity
  8
0
100
AcDbLine
 10
690.6135534438641
 20
320.4513835609468
 30
0.0
 11
689.6135534438641
 21
320.4513835609468
 31
0.0
  0
ARC
  5
1FAC
330
2
100
AcDbEntity
  8
0
100
AcDbCircle
 10
690.6135534438642
 20
334.4513835609468
 30
0.0
 40
1.0
100
AcDbArc
 50
0.0
 51
90.0
  0
LINE
  5
1FAD
330
2
100
AcDbEntity
  8
0
100
AcDbLine
 10
690.6135534438641
 20
335.4513835609468
 30
0.0
 11
689.6135534438641
 21
335.4513835609468
 31
0.0
  0
LINE
  5
1FAE
330
2
100
AcDbEntity
  8
0
100
AcDbLine
 10
695.1135534438641
 20
325.9513835609468
 30
0.0
 11
695.1135534438641
 21
329.9513835609468
 31
0.0
  0
ARC
  5
1FAF
330
2
100
AcDbEntity
  8
0
100
AcDbCircle
 10
684.083823443864
 20
347.4216835609468
 30
0.0
 40
1.742199999999999
100
AcDbArc
 50
359.9986903345002
 51
90.00130966549649
  0
ARC
  5
1FB0
330
2
100
AcDbEntity
  8
0
100
AcDbCircle
 10
684.083823443864
 20
351.4810835609468
 30
0.0
 40
1.742199999999999
100
AcDbArc
 50
269.9986903345035
 51
0.0013096654997424
  0
CIRCLE
  5
1FB1
330
2
100
AcDbEntity
  8
0
100
AcDbCircle
 10
686.1135234438641
 20
349.4513835609467
 30
0.0
 40
3.500000000000028
  0
ARC
  5
1FB2
330
2
100
AcDbEntity
  8
0
100
AcDbCircle
 10
686.1135234438641
 20
349.4513835609467
 30
0.0
 40
4.0
100
AcDbArc
 50
180.0
 51
270.0
  0
ARC
  5
1FB3
330
2
100
AcDbEntity
  8
0
100
AcDbCircle
 10
686.1135234438641
 20
349.4513835609467
 30
0.0
 40
2.049999999999998
100
AcDbArc
 50
171.938039916018
 51
180.0
  0
ARC
  5
1FB4
330
2
100
AcDbEntity
  8
0
100
AcDbCircle
 10
686.1135234438641
 20
349.4513835609467
 30
0.0
 40
2.049999999999998
100
AcDbArc
 50
180.0
 51
188.0619600839818
  0
LINE
  5
1FB5
330
2
100
AcDbEntity
  8
0
100
AcDbLine
 10
682.1135534438641
 20
349.4513835609468
 30
0.0
 11
682.1135534438641
 21
352.9511845609468
 31
0.0
  0
ARC
  5
1FB6
330
2
100
AcDbEntity
  8
0
100
AcDbCircle
 10
688.1432234438641
 20
347.4216835609468
 30
0.0
 40
1.742199999999999
100
AcDbArc
 50
89.99869033450025
 51
180.0013096654997
  0
LINE
  5
1FB7
330
2
100
AcDbEntity
  8
0
100
AcDbLine
 10
686.113523443864
 20
345.4513835609468
 30
0.0
 11
689.6135234438641
 21
345.4513835609468
 31
0.0
  0
ARC
  5
1FB8
330
2
100
AcDbEntity
  8
0
100
AcDbCircle
 10
686.1135234438641
 20
349.4513835609467
 30
0.0
 40
2.049999999999998
100
AcDbArc
 50
261.9380399160178
 51
270.0
  0
ARC
  5
1FB9
330
2
100
AcDbEntity
  8
0
100
AcDbCircle
 10
686.1135234438641
 20
349.4513835609467
 30
0.0
 40
2.049999999999998
100
AcDbArc
 50
270.0
 51
278.061960083982
  0
LINE
  5
1FBA
330
2
100
AcDbEntity
  8
0
100
AcDbLine
 10
689.6135534438641
 20
350.9513835609468
 30
0.0
 11
687.6135534438641
 21
352.9513835609468
 31
0.0
  0
LINE
  5
1FBB
330
2
100
AcDbEntity
  8
0
100
AcDbLine
 10
689.6135534438641
 20
350.9513835609468
 30
0.0
 11
687.6135534438641
 21
352.9513835609468
 31
0.0
  0
ARC
  5
1FBC
330
2
100
AcDbEntity
  8
0
100
AcDbCircle
 10
688.1432234438641
 20
351.4810835609468
 30
0.0
 40
1.742199999999999
100
AcDbArc
 50
179.9986903345002
 51
270.0013096654964
  0
ARC
  5
1FBD
330
2
100
AcDbEntity
  8
0
100
AcDbCircle
 10
686.1135234438641
 20
349.4513835609467
 30
0.0
 40
2.049999999999998
100
AcDbArc
 50
0.0
 51
8.061960083981905
  0
ARC
  5
1FBE
330
2
100
AcDbEntity
  8
0
100
AcDbCircle
 10
686.1135234438641
 20
349.4513835609467
 30
0.0
 40
2.049999999999998
100
AcDbArc
 50
351.9380399160181
 51
0.0
  0
ARC
  5
1FBF
330
2
100
AcDbEntity
  8
0
100
AcDbCircle
 10
686.1135234438641
 20
349.4513835609467
 30
0.0
 40
2.049999999999998
100
AcDbArc
 50
90.0
 51
98.06196008398211
  0
ARC
  5
1FC0
330
2
100
AcDbEntity
  8
0
100
AcDbCircle
 10
686.1135234438641
 20
349.4513835609467
 30
0.0
 40
2.049999999999998
100
AcDbArc
 50
81.93803991601789
 51
90.0
  0
VIEWPORT
  5
1B74
330
1B73
100
AcDbEntity
 67
     1
  8
0
100
AcDbViewport
 10
149.4048644132379
 20
97.9037363560891
 30
0.0
 40
337.0782172010701
 41
215.1146464959527
 68
     1
 69
     1
1001
ACAD
1000
MVIEW
1002
{
1070
    16
1010
0.0
1020
0.0
1030
0.0
1010
0.0
1020
0.0
1030
1.0
1040
0.0
1040
215.1146464959527
1040
149.4048644132379
1040
97.9037363560891
1040
50.0
1040
0.0
1040
0.0
1070
     0
1070
   100
1070
     1
1070
     1
1070
     0
1070
     0
1070
     0
1070
     0
1040
0.0
1040
0.0
1040
0.0
1040
10.0
1040
10.0
1040
10.0
1040
10.0
1070
     0
1002
{
1002
}
1002
}
  0
TEXT
  5
1B75
330
1B73
100
AcDbEntity
 67
     1
  8
TEXT
100
AcDbText
 10
266.4665517915716
 20
9.492177985111482
 30
0.0
 40
2.0
  1
2005.07.11
 41
0.7
100
AcDbText
  0
TEXT
  5
1B76
330
1B73
100
AcDbEntity
 67
     1
  8
TEXT
100
AcDbText
 10
221.2876186247744
 20
25.81289445791026
 30
0.0
 40
2.0
  1
F2FM15T-T40T
100
AcDbText
  0
INSERT
  5
1B77
330
1B73
100
AcDbEntity
 67
     1
  8
0
100
AcDbBlockReference
 66
     1
  2
外寸枠A4テンプレート
 10
0.0
 20
0.0
 30
0.0
  0
ATTRIB
  5
1B78
330
1B77
100
AcDbEntity
 67
     1
  8
TEXT
100
AcDbText
 10
217.9356476190475
 20
34.33735183158626
 30
0.0
 40
2.500000000000001
  1
F2FM-15T-10～120-T40T
 72
     4
 11
241.8165999999999
 21
35.58735183158626
 31
0.0
100
AcDbAttribute
  2
T　I　T　L　E
 70
     0
  0
ATTRIB
  5
1B79
330
1B77
100
AcDbEntity
 67
     1
  8
TEXT
100
AcDbText
 10
231.4275923057046
 20
7.13444951887557
 30
0.0
 40
2.0
  1
1：2
 72
     4
 11
234.056163734276
 21
8.13444951887557
 31
0.0
100
AcDbAttribute
  2
FREE
 70
     0
  0
ATTRIB
  5
1B7A
330
1B77
100
AcDbEntity
 67
     1
  8
TEXT
100
AcDbText
 10
205.1985180173093
 20
6.884449518875568
 30
0.0
 40
2.500000000000004
  1
海野
 72
     4
 11
207.865184683976
 21
8.13444951887557
 31
0.0
100
AcDbAttribute
  2
海野
 70
     0
  0
ATTRIB
  5
1B7B
330
1B77
100
AcDbEntity
 67
     1
  8
TEXT
100
AcDbText
 10
222.6686227589094
 20
6.884449518875568
 30
0.0
 40
2.500000000000004
  1
川上
 72
     4
 11
225.3352894255761
 21
8.13444951887557
 31
0.0
100
AcDbAttribute
  2
鳥居
 70
     0
  0
ATTRIB
  5
1B7C
330
1B77
100
AcDbEntity
 67
     1
  8
TEXT
100
AcDbText
 10
213.9476826899094
 20
6.884449518875567
 30
0.0
 40
2.500000000000004
  1
永坂
 72
     4
 11
216.6143493565761
 21
8.13444951887557
 31
0.0
100
AcDbAttribute
  2
永坂
 70
     0
  0
SEQEND
  5
1B7D
330
1B77
100
AcDbEntity
 67
     1
  8
0
  0
VIEWPORT
  5
1B7E
330
1B73
100
AcDbEntity
 67
     1
  8
DEFPOINTS
100
AcDbViewport
 10
148.9498194624239
 20
114.8056013978458
 30
0.0
 40
262.100361075152
 41
113.9828258360509
 68
    -1
 69
     2
1001
ACAD
1000
MVIEW
1002
{
1070
    16
1010
0.0
1020
0.0
1030
0.0
1010
0.0
1020
0.0
1030
1.0
1040
0.0
1040
227.9656511523758
1040
503.6601725267193
1040
133.3632741626028
1040
50.0
1040
0.0
1040
0.0
1070
     0
1070
   100
1070
     1
1070
     3
1070
     0
1070
     0
1070
     0
1070
     0
1040
0.0
1040
0.0
1040
0.0
1040
10.0
1040
10.0
1040
10.0
1040
10.0
1070
     0
1002
{
1003
TITLE
1002
}
1002
}
  0
INSERT
  5
1B7F
330
1B73
100
AcDbEntity
 67
     1
  8
TEXT
100
AcDbBlockReference
  2
1
 10
202.0
 20
40.0
 30
0.0
  0
INSERT
  5
1C22
330
1B73
100
AcDbEntity
 67
     1
  8
TEXT
100
AcDbBlockReference
  2
GSPEC_F2F-15T-10-120
 10
3.0
 20
4.0
 30
0.0
  0
INSERT
  5
1D2E
330
1B73
100
AcDbEntity
 67
     1
  8
TEXT
100
AcDbBlockReference
  2
MSPEC_T40-75
 10
3.0
 20
4.0
 30
0.0
  0
ENDSEC
  0
SECTION
  2
OBJECTS
  0
DICTIONARY
  5
7
330
0
100
AcDbDictionary
  3
ACAD_GROUP
350
75
  3
ACAD_LAYOUT
350
61
  3
ACAD_MLINESTYLE
350
76
  3
ACAD_PLOTSETTINGS
350
77
  3
ACAD_PLOTSTYLENAME
350
6
  3
ACADDIM
350
480
  3
ACDBHEADERROUNDTRIPXREC
350
20C0
  3
ACDBVARIABLEDICTIONARY
350
102
  3
DWGPROPS
350
3D2
  0
DICTIONARY
  5
20E1
330
2
100
AcDbDictionary
280
     1
  3
ACAD_LAYOUTSELFREF
360
20E2
  0
DICTIONARY
  5
20E4
330
1B73
100
AcDbDictionary
280
     1
  3
ACAD_LAYOUTSELFREF
360
20E5
  0
DICTIONARY
  5
75
102
{ACAD_REACTORS
330
7
102
}
330
7
100
AcDbDictionary
  0
DICTIONARY
  5
61
102
{ACAD_REACTORS
330
7
102
}
330
7
100
AcDbDictionary
  0
DICTIONARY
  5
76
102
{ACAD_REACTORS
330
7
102
}
330
7
100
AcDbDictionary
  3
STANDARD
350
78
  0
DICTIONARY
  5
77
102
{ACAD_REACTORS
330
7
102
}
330
7
100
AcDbDictionary
  0
ACDBDICTIONARYWDFLT
  5
6
102
{ACAD_REACTORS
330
7
102
}
330
7
100
AcDbDictionary
281
     1
  3
Normal
350
5
100
AcDbDictionaryWithDefault
340
5
  0
XRECORD
  5
480
102
{ACAD_REACTORS
330
7
102
}
330
7
100
AcDbXrecord
 90
   990106
  3

 60
     0
 61
     0
 62
     1
 63
     3
 64
     1
 65
     0
 66
     0
 67
     3
 68
     1
 69
     0
 70
     0
 71
     0
 72
     0
 40
0.0
170
     2
340
0
  0
DICTIONARY
  5
20C0
102
{ACAD_REACTORS
330
7
102
}
330
7
100
AcDbDictionary
  3
CEPSNTYPE
350
20CA
  3
DIMSTYLEDATA
350
20CE
  3
FINGERPRINTGUID
350
20CB
  3
HYPERLINKBASE
350
20C3
  3
INSUNITS
350
20C9
  3
LAYOUTDICT
350
20C5
  3
LWETCUNION
350
20C8
  3
PLOTSETDICT
350
20C6
  3
PLOTSTYLNAMDICT
350
20C7
  3
PSVPSCALE
350
20CD
  3
PUCSBASE
350
20D1
  3
PUCSORGBACK
350
20D7
  3
PUCSORGBOTTOM
350
20D3
  3
PUCSORGFRONT
350
20D6
  3
PUCSORGLEFT
350
20D4
  3
PUCSORGRIGHT
350
20D5
  3
PUCSORGTOP
350
20D2
  3
PUCSORTHOREF
350
20CF
  3
PUCSORTHOVIEW
350
20D0
  3
STYLESHEET
350
20C4
  3
TSTACKALIGN
350
20C1
  3
TSTACKSIZE
350
20C2
  3
UCSBASE
350
20DA
  3
UCSORGBACK
350
20E0
  3
UCSORGBOTTOM
350
20DC
  3
UCSORGFRONT
350
20DF
  3
UCSORGLEFT
350
20DD
  3
UCSORGRIGHT
350
20DE
  3
UCSORGTOP
350
20DB
  3
UCSORTHOREF
350
20D8
  3
UCSORTHOVIEW
350
20D9
  3
VERSIONGUID
350
20CC
  0
DICTIONARY
  5
102
102
{ACAD_REACTORS
330
7
102
}
330
7
100
AcDbDictionary
  3
DIMASSOC
350
103
  0
XRECORD
  5
3D2
102
{ACAD_REACTORS
330
7
102
}
330
7
100
AcDbXrecord
  1
DWGPROPS COOKIE
  2

  3

  4

  6

  7

  8

  9

300
=
301
=
302
=
303
=
304
=
305
=
306
=
307
=
308
=
309
=
 40
0.5353330671296296
 41
2452052.431989363
 42
2453406.550756377
  1

 90
        0
  0
XRECORD
  5
20E2
102
{ACAD_REACTORS
330
20E1
102
}
330
20E1
100
AcDbXrecord
340
2
  0
XRECORD
  5
20E5
102
{ACAD_REACTORS
330
20E4
102
}
330
20E4
100
AcDbXrecord
340
1B73
  0
MLINESTYLE
  5
78
102
{ACAD_REACTORS
330
76
102
}
330
76
100
AcDbMlineStyle
  2
STANDARD
 70
     0
  3

 62
     0
 51
90.0
 52
90.0
 71
     2
 49
0.5
 62
   256
  6
BYLAYER
 49
-0.5
 62
   256
  6
BYLAYER
  0
ACDBPLACEHOLDER
  5
5
102
{ACAD_REACTORS
330
6
102
}
330
6
100
AcDbPlaceHolder
280
     0
  0
XRECORD
  5
20CA
102
{ACAD_REACTORS
330
20C0
102
}
330
20C0
100
AcDbXrecord
 90
        0
  0
XRECORD
  5
20CE
102
{ACAD_REACTORS
330
20C0
102
}
330
20C0
100
AcDbXrecord
1000
DSTYLE
1002
{
1070
   179
 70
     2
1070
   277
 70
     6
1002
}
  0
XRECORD
  5
20CB
102
{ACAD_REACTORS
330
20C0
102
}
330
20C0
100
AcDbXrecord
  1
{6385560B-F4B1-4644-A7C2-A3E32AC3D232}
  0
XRECORD
  5
20C3
102
{ACAD_REACTORS
330
20C0
102
}
330
20C0
100
AcDbXrecord
  1

  0
XRECORD
  5
20C9
102
{ACAD_REACTORS
330
20C0
102
}
330
20C0
100
AcDbXrecord
 90
        0
  0
XRECORD
  5
20C5
102
{ACAD_REACTORS
330
20C0
102
}
330
20C0
100
AcDbXrecord
340
61
  0
XRECORD
  5
20C8
102
{ACAD_REACTORS
330
20C0
102
}
330
20C0
100
AcDbXrecord
 90
    10781
  0
XRECORD
  5
20C6
102
{ACAD_REACTORS
330
20C0
102
}
330
20C0
100
AcDbXrecord
340
77
  0
XRECORD
  5
20C7
102
{ACAD_REACTORS
330
20C0
102
}
330
20C0
100
AcDbXrecord
340
6
  0
XRECORD
  5
20CD
102
{ACAD_REACTORS
330
20C0
102
}
330
20C0
100
AcDbXrecord
 40
0.0
  0
XRECORD
  5
20D1
102
{ACAD_REACTORS
330
20C0
102
}
330
20C0
100
AcDbXrecord
340
0
  0
XRECORD
  5
20D7
102
{ACAD_REACTORS
330
20C0
102
}
330
20C0
100
AcDbXrecord
 10
0.0
 20
0.0
 30
0.0
  0
XRECORD
  5
20D3
102
{ACAD_REACTORS
330
20C0
102
}
330
20C0
100
AcDbXrecord
 10
0.0
 20
0.0
 30
0.0
  0
XRECORD
  5
20D6
102
{ACAD_REACTORS
330
20C0
102
}
330
20C0
100
AcDbXrecord
 10
0.0
 20
0.0
 30
0.0
  0
XRECORD
  5
20D4
102
{ACAD_REACTORS
330
20C0
102
}
330
20C0
100
AcDbXrecord
 10
0.0
 20
0.0
 30
0.0
  0
XRECORD
  5
20D5
102
{ACAD_REACTORS
330
20C0
102
}
330
20C0
100
AcDbXrecord
 10
0.0
 20
0.0
 30
0.0
  0
XRECORD
  5
20D2
102
{ACAD_REACTORS
330
20C0
102
}
330
20C0
100
AcDbXrecord
 10
0.0
 20
0.0
 30
0.0
  0
XRECORD
  5
20CF
102
{ACAD_REACTORS
330
20C0
102
}
330
20C0
100
AcDbXrecord
340
0
  0
XRECORD
  5
20D0
102
{ACAD_REACTORS
330
20C0
102
}
330
20C0
100
AcDbXrecord
 70
     0
  0
XRECORD
  5
20C4
102
{ACAD_REACTORS
330
20C0
102
}
330
20C0
100
AcDbXrecord
  1
Sekkei.ctb
  0
XRECORD
  5
20C1
102
{ACAD_REACTORS
330
20C0
102
}
330
20C0
100
AcDbXrecord
 90
        1
  0
XRECORD
  5
20C2
102
{ACAD_REACTORS
330
20C0
102
}
330
20C0
100
AcDbXrecord
 90
       70
  0
XRECORD
  5
20DA
102
{ACAD_REACTORS
330
20C0
102
}
330
20C0
100
AcDbXrecord
340
0
  0
XRECORD
  5
20E0
102
{ACAD_REACTORS
330
20C0
102
}
330
20C0
100
AcDbXrecord
 10
0.0
 20
0.0
 30
0.0
  0
XRECORD
  5
20DC
102
{ACAD_REACTORS
330
20C0
102
}
330
20C0
100
AcDbXrecord
 10
0.0
 20
0.0
 30
0.0
  0
XRECORD
  5
20DF
102
{ACAD_REACTORS
330
20C0
102
}
330
20C0
100
AcDbXrecord
 10
0.0
 20
0.0
 30
0.0
  0
XRECORD
  5
20DD
102
{ACAD_REACTORS
330
20C0
102
}
330
20C0
100
AcDbXrecord
 10
0.0
 20
0.0
 30
0.0
  0
XRECORD
  5
20DE
102
{ACAD_REACTORS
330
20C0
102
}
330
20C0
100
AcDbXrecord
 10
0.0
 20
0.0
 30
0.0
  0
XRECORD
  5
20DB
102
{ACAD_REACTORS
330
20C0
102
}
330
20C0
100
AcDbXrecord
 10
0.0
 20
0.0
 30
0.0
  0
XRECORD
  5
20D8
102
{ACAD_REACTORS
330
20C0
102
}
330
20C0
100
AcDbXrecord
340
0
  0
XRECORD
  5
20D9
102
{ACAD_REACTORS
330
20C0
102
}
330
20C0
100
AcDbXrecord
 70
     0
  0
XRECORD
  5
20CC
102
{ACAD_REACTORS
330
20C0
102
}
330
20C0
100
AcDbXrecord
  1
{0E0DC7A7-219E-4F65-9B4F-BE6FA22A594B}
  0
DICTIONARYVAR
  5
103
102
{ACAD_REACTORS
330
102
102
}
330
102
100
DictionaryVariables
280
     0
  1
1
  0
ENDSEC
  0
EOF
