  0
SECTION
  2
HEADER
  9
$ACADVER
  1
AC1014
  9
$ACADMAINTVER
 70
     9
  9
$DWGCODEPAGE
  3
ANSI_932
  9
$INSBASE
 10
0.0
 20
0.0
 30
0.0
  9
$EXTMIN
 10
23.48203847562989
 20
23.09367406143832
 30
0.0
  9
$EXTMAX
 10
709.6340834120983
 20
400.8229355609469
 30
0.0
  9
$LIMMIN
 10
0.0
 20
0.0
  9
$LIMMAX
 10
297.0
 20
210.0
  9
$ORTHOMODE
 70
     1
  9
$REGENMODE
 70
     1
  9
$FILLMODE
 70
     1
  9
$QTEXTMODE
 70
     0
  9
$MIRRTEXT
 70
     0
  9
$DRAGMODE
 70
     2
  9
$LTSCALE
 40
2.0
  9
$OSMODE
 70
    37
  9
$ATTMODE
 70
     1
  9
$TEXTSIZE
 40
2.0
  9
$TRACEWID
 40
1.0
  9
$TEXTSTYLE
  7
STANDARD
  9
$CLAYER
  8
0
  9
$CELTYPE
  6
BYLAYER
  9
$CECOLOR
 62
   256
  9
$CELTSCALE
 40
1.0
  9
$DELOBJ
 70
     1
  9
$DISPSILH
 70
     0
  9
$DIMSCALE
 40
2.0
  9
$DIMASZ
 40
1.8
  9
$DIMEXO
 40
0.625
  9
$DIMDLI
 40
3.75
  9
$DIMRND
 40
0.0
  9
$DIMDLE
 40
0.0
  9
$DIMEXE
 40
0.8
  9
$DIMTP
 40
0.0
  9
$DIMTM
 40
0.0
  9
$DIMTXT
 40
1.8
  9
$DIMCEN
 40
2.5
  9
$DIMTSZ
 40
0.0
  9
$DIMTOL
 70
     0
  9
$DIMLIM
 70
     0
  9
$DIMTIH
 70
     0
  9
$DIMTOH
 70
     0
  9
$DIMSE1
 70
     0
  9
$DIMSE2
 70
     0
  9
$DIMTAD
 70
     1
  9
$DIMZIN
 70
     8
  9
$DIMBLK
  1

  9
$DIMASO
 70
     1
  9
$DIMSHO
 70
     1
  9
$DIMPOST
  1

  9
$DIMAPOST
  1

  9
$DIMALT
 70
     0
  9
$DIMALTD
 70
     4
  9
$DIMALTF
 40
0.0394
  9
$DIMLFAC
 40
1.0
  9
$DIMTOFL
 70
     1
  9
$DIMTVP
 40
0.0
  9
$DIMTIX
 70
     0
  9
$DIMSOXD
 70
     0
  9
$DIMSAH
 70
     0
  9
$DIMBLK1
  1

  9
$DIMBLK2
  1

  9
$DIMSTYLE
  2
STANDARD
  9
$DIMCLRD
 70
     0
  9
$DIMCLRE
 70
     0
  9
$DIMCLRT
 70
     0
  9
$DIMTFAC
 40
1.0
  9
$DIMGAP
 40
0.75
  9
$DIMJUST
 70
     0
  9
$DIMSD1
 70
     0
  9
$DIMSD2
 70
     0
  9
$DIMTOLJ
 70
     1
  9
$DIMTZIN
 70
     0
  9
$DIMALTZ
 70
     0
  9
$DIMALTTZ
 70
     0
  9
$DIMFIT
 70
     3
  9
$DIMUPT
 70
     0
  9
$DIMUNIT
 70
     2
  9
$DIMDEC
 70
     2
  9
$DIMTDEC
 70
     2
  9
$DIMALTU
 70
     8
  9
$DIMALTTD
 70
     4
  9
$DIMTXSTY
  7
STANDARD
  9
$DIMAUNIT
 70
     0
  9
$LUNITS
 70
     2
  9
$LUPREC
 70
     3
  9
$SKETCHINC
 40
1.0
  9
$FILLETRAD
 40
10.0
  9
$AUNITS
 70
     0
  9
$AUPREC
 70
     2
  9
$MENU
  1
.
  9
$ELEVATION
 40
0.0
  9
$PELEVATION
 40
0.0
  9
$THICKNESS
 40
0.0
  9
$LIMCHECK
 70
     0
  9
$BLIPMODE
 70
     0
  9
$CHAMFERA
 40
0.0
  9
$CHAMFERB
 40
0.0
  9
$CHAMFERC
 40
20.0
  9
$CHAMFERD
 40
0.0
  9
$SKPOLY
 70
     0
  9
$TDCREATE
 40
2453557.748493009
  9
$TDUPDATE
 40
2453676.387740880
  9
$TDINDWG
 40
0.3049687269
  9
$TDUSRTIMER
 40
0.3049685417
  9
$USRTIMER
 70
     1
  9
$ANGBASE
 50
0.0
  9
$ANGDIR
 70
     0
  9
$PDMODE
 70
     0
  9
$PDSIZE
 40
-10.0
  9
$PLINEWID
 40
0.0
  9
$COORDS
 70
     0
  9
$SPLFRAME
 70
     0
  9
$SPLINETYPE
 70
     6
  9
$SPLINESEGS
 70
     8
  9
$ATTDIA
 70
     0
  9
$ATTREQ
 70
     1
  9
$HANDLING
 70
-16383
  9
$HANDSEED
  5
2121
  9
$SURFTAB1
 70
     6
  9
$SURFTAB2
 70
     6
  9
$SURFTYPE
 70
     6
  9
$SURFU
 70
     6
  9
$SURFV
 70
     6
  9
$UCSNAME
  2

  9
$UCSORG
 10
0.0
 20
0.0
 30
0.0
  9
$UCSXDIR
 10
1.0
 20
0.0
 30
0.0
  9
$UCSYDIR
 10
0.0
 20
1.0
 30
0.0
  9
$PUCSNAME
  2

  9
$PUCSORG
 10
0.0
 20
0.0
 30
0.0
  9
$PUCSXDIR
 10
1.0
 20
0.0
 30
0.0
  9
$PUCSYDIR
 10
0.0
 20
1.0
 30
0.0
  9
$USERI1
 70
     0
  9
$USERI2
 70
     0
  9
$USERI3
 70
     0
  9
$USERI4
 70
     0
  9
$USERI5
 70
     0
  9
$USERR1
 40
0.0
  9
$USERR2
 40
0.0
  9
$USERR3
 40
0.0
  9
$USERR4
 40
0.0
  9
$USERR5
 40
0.0
  9
$WORLDVIEW
 70
     1
  9
$SHADEDGE
 70
     3
  9
$SHADEDIF
 70
    70
  9
$TILEMODE
 70
     1
  9
$MAXACTVP
 70
    48
  9
$PINSBASE
 10
0.0
 20
0.0
 30
0.0
  9
$PLIMCHECK
 70
     0
  9
$PEXTMIN
 10
0.0
 20
0.0
 30
0.0
  9
$PEXTMAX
 10
0.0
 20
0.0
 30
0.0
  9
$PLIMMIN
 10
0.0
 20
0.0
  9
$PLIMMAX
 10
12.0
 20
9.0
  9
$UNITMODE
 70
     0
  9
$VISRETAIN
 70
     1
  9
$PLINEGEN
 70
     0
  9
$PSLTSCALE
 70
     1
  9
$TREEDEPTH
 70
  3020
  9
$PICKSTYLE
 70
     1
  9
$CMLSTYLE
  2
STANDARD
  9
$CMLJUST
 70
     0
  9
$CMLSCALE
 40
1.0
  9
$PROXYGRAPHICS
 70
     1
  9
$MEASUREMENT
 70
     0
  0
ENDSEC
  0
SECTION
  2
CLASSES
  0
CLASS
  1
DICTIONARYVAR
  2
AcDbDictionaryVar
  3
AutoCAD 2000
 90
        0
280
     0
281
     0
  0
CLASS
  1
ACDBDICTIONARYWDFLT
  2
AcDbDictionaryWithDefault
  3
AutoCAD 2000
 90
        0
280
     0
281
     0
  0
CLASS
  1
ACDBPLACEHOLDER
  2
AcDbPlaceHolder
  3
AutoCAD 2000
 90
        0
280
     0
281
     0
  0
CLASS
  1
LAYOUT
  2
AcDbLayout
  3
AutoCAD 2000
 90
        0
280
     0
281
     0
  0
CLASS
  1
LONG_TRANSACTION
  2
AcDbLongTransaction
  3
AutoCAD 2000
 90
        0
280
     0
281
     0
  0
CLASS
  1
LWPOLYLINE
  2
AcDbPolyline
  3
AutoCAD 2000
 90
        0
280
     0
281
     1
  0
CLASS
  1
HATCH
  2
AcDbHatch
  3
AutoCAD 2000
 90
        0
280
     0
281
     1
  0
CLASS
  1
XRECORD
  2
AcDbXrecord
  3
AutoCAD 2000
 90
        0
280
     0
281
     0
  0
CLASS
  1
LONG_TRANSACTION
  2
AcDbLongTransaction
  3
AutoCAD 2000
 90
        0
280
     0
281
     0
  0
CLASS
  1
LWPOLYLINE
  2
AcDbPolyline
  3
AutoCAD 2000
 90
        0
280
     0
281
     1
  0
CLASS
  1
HATCH
  2
AcDbHatch
  3
AutoCAD 2000
 90
        0
280
     0
281
     1
  0
CLASS
  1
XRECORD
  2
AcDbXrecord
  3
AutoCAD 2000
 90
        0
280
     0
281
     0
  0
ENDSEC
  0
SECTION
  2
TABLES
  0
TABLE
  2
VPORT
  5
6E
330
0
100
AcDbSymbolTable
 70
     2
  0
VPORT
  5
20FC
330
6E
100
AcDbSymbolTableRecord
100
AcDbViewportTableRecord
  2
*ACTIVE
 70
     0
 10
0.0
 20
0.0
 11
1.0
 21
1.0
 12
371.7785718608991
 22
211.9555558070964
 13
0.0
 23
0.0
 14
10.0
 24
10.0
 15
10.0
 25
10.0
 16
0.0
 26
0.0
 36
1.0
 17
0.0
 27
0.0
 37
0.0
 40
446.942551783214
 41
1.566970091027308
 42
50.0
 43
0.0
 44
0.0
 50
0.0
 51
0.0
 71
     0
 72
   100
 73
     1
 74
     3
 75
     0
 76
     0
 77
     0
 78
     0
  0
ENDTAB
  0
TABLE
  2
LTYPE
  5
69
330
0
100
AcDbSymbolTable
 70
     3
  0
LTYPE
  5
6A
330
69
100
AcDbSymbolTableRecord
100
AcDbLinetypeTableRecord
  2
BYBLOCK
 70
     0
  3

 72
    65
 73
     0
 40
0.0
  0
LTYPE
  5
6B
330
69
100
AcDbSymbolTableRecord
100
AcDbLinetypeTableRecord
  2
BYLAYER
 70
     0
  3

 72
    65
 73
     0
 40
0.0
  0
LTYPE
  5
8
330
69
100
AcDbSymbolTableRecord
100
AcDbLinetypeTableRecord
  2
CONTINUOUS
 70
     0
  3
Solid line
 72
    65
 73
     0
 40
0.0
  0
LTYPE
  5
27C
330
69
100
AcDbSymbolTableRecord
100
AcDbLinetypeTableRecord
  2
SEKKEI_A2_
 70
     0
  3
center(A2)  ____ _ ____ _ ____ _ ____ _ ____ _ 
 72
    65
 73
     4
 40
14.28749999999999
 49
9.525
 74
     0
 49
-1.587499999999999
 74
     0
 49
1.587499999999999
 74
     0
 49
-1.587499999999999
 74
     0
  0
LTYPE
  5
2B4
330
69
100
AcDbSymbolTableRecord
100
AcDbLinetypeTableRecord
  2
HIDDEN2
 70
     0
  3
Hidden (.5x) _ _ _ _ _ _ _ _ _ _ _ _ _ _ _ _ _
 72
    65
 73
     2
 40
4.762499999999998
 49
3.174999999999998
 74
     0
 49
-1.587499999999999
 74
     0
  0
ENDTAB
  0
TABLE
  2
LAYER
  5
66
330
0
100
AcDbSymbolTable
 70
     8
  0
LAYER
  5
5E
330
66
100
AcDbSymbolTableRecord
100
AcDbLayerTableRecord
  2
0
 70
     0
 62
     7
  6
CONTINUOUS
  0
LAYER
  5
3E
330
66
100
AcDbSymbolTableRecord
100
AcDbLayerTableRecord
  2
CENTER
 70
     0
 62
     3
  6
SEKKEI_A2_
  0
LAYER
  5
135
330
66
100
AcDbSymbolTableRecord
100
AcDbLayerTableRecord
  2
DEFPOINTS
 70
     0
 62
     7
  6
CONTINUOUS
  0
LAYER
  5
2B5
330
66
100
AcDbSymbolTableRecord
100
AcDbLayerTableRecord
  2
HIDS
 70
     0
 62
     1
  6
HIDDEN2
  0
LAYER
  5
2BA
330
66
100
AcDbSymbolTableRecord
100
AcDbLayerTableRecord
  2
HOJO
 70
     0
 62
     4
  6
CONTINUOUS
  0
LAYER
  5
3FA
330
66
100
AcDbSymbolTableRecord
100
AcDbLayerTableRecord
  2
TITLE
 70
     0
 62
     4
  6
CONTINUOUS
  0
ENDTAB
  0
TABLE
  2
STYLE
  5
67
330
0
100
AcDbSymbolTable
 70
     1
  0
STYLE
  5
16
330
67
100
AcDbSymbolTableRecord
100
AcDbTextStyleTableRecord
  2
STANDARD
 70
     0
 40
0.0
 41
1.0
 50
0.0
 71
     0
 42
2.0
  3
simplex.shx
  4
extfont.shx
  0
ENDTAB
  0
TABLE
  2
VIEW
  5
6C
330
0
100
AcDbSymbolTable
 70
     0
  0
ENDTAB
  0
TABLE
  2
UCS
  5
6D
330
0
100
AcDbSymbolTable
 70
     0
  0
ENDTAB
  0
TABLE
  2
APPID
  5
70
330
0
100
AcDbSymbolTable
 70
     2
  0
APPID
  5
71
330
70
100
AcDbSymbolTableRecord
100
AcDbRegAppTableRecord
  2
ACAD
 70
     0
  0
APPID
  5
20E3
330
70
100
AcDbSymbolTableRecord
100
AcDbRegAppTableRecord
  2
CONTENTBLOCKICON
 70
     0
  0
ENDTAB
  0
TABLE
  2
DIMSTYLE
  5
72
330
0
100
AcDbSymbolTable
 70
     1
  0
DIMSTYLE
105
73
330
72
100
AcDbSymbolTableRecord
100
AcDbDimStyleTableRecord
  2
STANDARD
 70
     0
  3

  4

  5

  6

  7

 40
2.0
 41
1.8
 42
0.625
 43
3.75
 44
0.8
 45
0.0
 46
0.0
 47
0.0
 48
0.0
140
1.8
141
2.5
142
0.0
143
0.0394
144
1.0
145
0.0
146
1.0
147
0.75
 71
     0
 72
     0
 73
     0
 74
     0
 75
     0
 76
     0
 77
     1
 78
     8
170
     0
171
     4
172
     1
173
     0
174
     0
175
     0
176
     0
177
     0
178
     0
270
     2
271
     2
272
     2
273
     8
274
     4
340
16
275
     0
280
     0
281
     0
282
     0
283
     1
284
     0
285
     0
286
     0
287
     3
288
     0
  0
ENDTAB
  0
TABLE
  2
BLOCK_RECORD
  5
1
330
0
100
AcDbSymbolTable
 70
    10
  0
BLOCK_RECORD
  5
2
102
{ACAD_XDICTIONARY
360
20E1
102
}
330
1
100
AcDbSymbolTableRecord
100
AcDbBlockTableRecord
  2
*MODEL_SPACE
  0
BLOCK_RECORD
  5
20F7
102
{ACAD_XDICTIONARY
360
211F
102
}
330
1
100
AcDbSymbolTableRecord
100
AcDbBlockTableRecord
  2
*PAPER_SPACE
  0
ENDTAB
  0
ENDSEC
  0
SECTION
  2
BLOCKS
  0
BLOCK
  5
5D
330
2
100
AcDbEntity
  8
0
100
AcDbBlockBegin
  2
*MODEL_SPACE
 70
     0
 10
0.0
 20
0.0
 30
0.0
  3
*MODEL_SPACE
  1

  0
ENDBLK
  5
5F
330
2
100
AcDbEntity
  8
0
100
AcDbBlockEnd
  0
BLOCK
  5
20F9
330
20F7
100
AcDbEntity
 67
     1
  8
0
100
AcDbBlockBegin
  2
*PAPER_SPACE
 70
     0
 10
0.0
 20
0.0
 30
0.0
  3
*PAPER_SPACE
  1

  0
ENDBLK
  5
20FA
330
20F7
100
AcDbEntity
 67
     1
  8
0
100
AcDbBlockEnd
  0
ENDSEC
  0
SECTION
  2
ENTITIES
  0
LINE
  5
799
330
2
100
AcDbEntity
  8
HIDS
100
AcDbLine
 10
318.5580724438641
 20
160.4312354599731
 30
0.0
 11
338.5580724438641
 21
160.4312354599731
 31
0.0
  0
LINE
  5
79A
330
2
100
AcDbEntity
  8
HIDS
100
AcDbLine
 10
318.5580724438641
 20
168.4312354599731
 30
0.0
 11
338.5580724438641
 21
168.4312354599731
 31
0.0
  0
LINE
  5
79B
330
2
100
AcDbEntity
  8
HOJO
100
AcDbLine
 10
318.5580724438641
 20
93.43123545997327
 30
0.0
 11
338.5580724438641
 21
93.43123545997327
 31
0.0
  0
LINE
  5
79C
330
2
100
AcDbEntity
  8
HOJO
100
AcDbLine
 10
318.5580724438641
 20
101.4312354599731
 30
0.0
 11
338.5580724438641
 21
101.4312354599731
 31
0.0
  0
LINE
  5
79D
330
2
100
AcDbEntity
  8
0
100
AcDbLine
 10
337.2600684438641
 20
119.7576824599732
 30
0.0
 11
318.5580724438641
 21
119.4312354599732
 31
0.0
  0
LINE
  5
79E
330
2
100
AcDbEntity
  8
0
100
AcDbLine
 10
337.2600684438641
 20
142.1047884599731
 30
0.0
 11
318.5580724438641
 21
142.4312354599731
 31
0.0
  0
LINE
  5
79F
330
2
100
AcDbEntity
  8
0
100
AcDbLine
 10
339.5929844438641
 20
146.0640784599733
 30
0.0
 11
318.5580724438641
 21
146.4312354599731
 31
0.0
  0
LINE
  5
7A0
330
2
100
AcDbEntity
  8
0
100
AcDbLine
 10
339.5929844438641
 20
115.7983924599732
 30
0.0
 11
318.5580724438641
 21
115.4312354599732
 31
0.0
  0
LINE
  5
7A1
330
2
100
AcDbEntity
  8
0
100
AcDbLine
 10
318.5580724438641
 20
100.8312294599732
 30
0.0
 11
387.0580724438642
 21
100.8312294599732
 31
0.0
  0
LINE
  5
7A2
330
2
100
AcDbEntity
  8
0
100
AcDbLine
 10
318.5580724438641
 20
94.03124145997328
 30
0.0
 11
387.0580724438642
 21
94.03124145997328
 31
0.0
  0
LINE
  5
7A3
330
2
100
AcDbEntity
  8
HIDS
100
AcDbLine
 10
318.5580724438641
 20
161.0312414599731
 30
0.0
 11
387.0580724438642
 21
161.0312414599731
 31
0.0
  0
LINE
  5
7A4
330
2
100
AcDbEntity
  8
HIDS
100
AcDbLine
 10
318.5580724438641
 20
167.8312294599731
 30
0.0
 11
387.0580724438642
 21
167.8312294599731
 31
0.0
  0
LINE
  5
7A5
330
2
100
AcDbEntity
  8
CENTER
100
AcDbLine
 10
303.5530984438642
 20
164.4312354599731
 30
0.0
 11
390.6018344438642
 21
164.4312354599731
 31
0.0
  0
LINE
  5
7A6
330
2
100
AcDbEntity
  8
CENTER
100
AcDbLine
 10
303.5530984438642
 20
97.43123545997327
 30
0.0
 11
390.6018344438642
 21
97.43123545997327
 31
0.0
  0
LINE
  5
7A7
330
2
100
AcDbEntity
  8
HIDS
100
AcDbLine
 10
325.5231604438642
 20
93.29840745997328
 30
0.0
 11
346.5580724438642
 21
92.93123545997326
 31
0.0
  0
LINE
  5
7A8
330
2
100
AcDbEntity
  8
HIDS
100
AcDbLine
 10
325.5231604438642
 20
168.5640784599731
 30
0.0
 11
346.5580724438642
 21
168.9312354599731
 31
0.0
  0
LINE
  5
7A9
330
2
100
AcDbEntity
  8
0
100
AcDbLine
 10
346.5580724438642
 20
90.43123545997326
 30
0.0
 11
306.0580724438641
 21
91.13815945997329
 31
0.0
  0
LINE
  5
7AA
330
2
100
AcDbEntity
  8
0
100
AcDbLine
 10
346.5580724438642
 20
171.4312354599731
 30
0.0
 11
306.0580724438641
 21
170.7242954599731
 31
0.0
  0
LINE
  5
7AB
330
2
100
AcDbEntity
  8
CENTER
100
AcDbLine
 10
273.6865204438641
 20
130.9312354599732
 30
0.0
 11
419.4296244438642
 21
130.9312354599732
 31
0.0
  0
LINE
  5
7AC
330
2
100
AcDbEntity
  8
0
100
AcDbLine
 10
32.50256844386422
 20
165.9312354599731
 30
0.0
 11
32.50256844386422
 21
95.93123545997327
 31
0.0
  0
LINE
  5
7AD
330
2
100
AcDbEntity
  8
0
100
AcDbLine
 10
32.00256844386422
 20
162.9312354599731
 30
0.0
 11
32.00256844386422
 21
98.93123545997326
 31
0.0
  0
LINE
  5
7AE
330
2
100
AcDbEntity
  8
0
100
AcDbLine
 10
52.50256844386422
 20
168.9312354599731
 30
0.0
 11
52.50256844386422
 21
92.93123545997326
 31
0.0
  0
CIRCLE
  5
7AF
330
2
100
AcDbEntity
  8
0
100
AcDbCircle
 10
186.558072443864
 20
130.9312354599732
 30
0.0
 40
25.002001
  0
CIRCLE
  5
7B0
330
2
100
AcDbEntity
  8
0
100
AcDbCircle
 10
186.558072443864
 20
130.9312354599732
 30
0.0
 40
23.0
  0
CIRCLE
  5
7B1
330
2
100
AcDbEntity
  8
0
100
AcDbCircle
 10
186.558072443864
 20
130.9312354599732
 30
0.0
 40
19.0
  0
ARC
  5
7B2
330
2
100
AcDbEntity
  8
0
100
AcDbCircle
 10
127.5580724438642
 20
113.9312354599731
 30
0.0
 40
2.0
100
AcDbArc
 50
180.0
 51
270.0
  0
ARC
  5
7B4
330
2
100
AcDbEntity
  8
0
100
AcDbCircle
 10
223.5580724438641
 20
113.9312354599731
 30
0.0
 40
2.0
100
AcDbArc
 50
270.0
 51
0.0
  0
ARC
  5
7B6
330
2
100
AcDbEntity
  8
0
100
AcDbCircle
 10
156.5580724438642
 20
117.4312354599732
 30
0.0
 40
22.0
100
AcDbArc
 50
180.0
 51
194.4775090000004
  0
ARC
  5
7B7
330
2
100
AcDbEntity
  8
0
100
AcDbCircle
 10
194.5580724438641
 20
117.4312354599732
 30
0.0
 40
22.0
100
AcDbArc
 50
345.5224880000002
 51
0.0
  0
ARC
  5
7B8
330
2
100
AcDbEntity
  8
0
100
AcDbCircle
 10
136.7843454438641
 20
114.4312354599732
 30
0.0
 40
2.0
100
AcDbArc
 50
188.626923
 51
270.0
  0
LINE
  5
7B9
330
2
100
AcDbEntity
  8
0
100
AcDbLine
 10
139.3937814438642
 20
112.2482524599732
 30
0.0
 11
138.4739204438642
 21
110.2482524599732
 31
0.0
  0
ARC
  5
7BA
330
2
100
AcDbEntity
  8
0
100
AcDbCircle
 10
138.558072443864
 20
110.4312354599731
 30
0.0
 40
2.0
100
AcDbArc
 50
40.60129499999964
 51
90.0
  0
ARC
  5
7BB
330
2
100
AcDbEntity
  8
0
100
AcDbCircle
 10
214.331784443864
 20
114.4312354599732
 30
0.0
 40
2.0
100
AcDbArc
 50
270.0
 51
351.373077
  0
LINE
  5
7BC
330
2
100
AcDbEntity
  8
0
100
AcDbLine
 10
211.722348443864
 20
112.2482524599732
 30
0.0
 11
212.6422394438642
 21
110.2482524599732
 31
0.0
  0
ARC
  5
7BD
330
2
100
AcDbEntity
  8
0
100
AcDbCircle
 10
212.5580724438641
 20
110.4312354599731
 30
0.0
 40
2.0
100
AcDbArc
 50
90.0
 51
139.3987120000005
  0
LINE
  5
7BE
330
2
100
AcDbEntity
  8
0
100
AcDbLine
 10
125.5580724438642
 20
114.6028054599733
 30
0.0
 11
125.5580724438642
 21
97.43123545997327
 31
0.0
  0
LINE
  5
7BF
330
2
100
AcDbEntity
  8
0
100
AcDbLine
 10
225.5580724438641
 20
97.43123545997327
 30
0.0
 11
225.5580724438641
 21
164.4312354599731
 31
0.0
  0
LINE
  5
7C1
330
2
100
AcDbEntity
  8
0
100
AcDbLine
 10
306.0580724438641
 20
170.7242954599731
 30
0.0
 11
306.0580724438641
 21
91.13815945997329
 31
0.0
  0
LINE
  5
7C2
330
2
100
AcDbEntity
  8
0
100
AcDbLine
 10
125.058072443864
 20
156.6216954599733
 30
0.0
 11
125.058072443864
 21
105.2407754599732
 31
0.0
  0
ARC
  5
7C3
330
2
100
AcDbEntity
  8
HIDS
100
AcDbCircle
 10
346.5580724438642
 20
130.9312354599732
 30
0.0
 40
38.0
100
AcDbArc
 50
129.3567050000004
 51
230.6432949999994
  0
LINE
  5
7C4
330
2
100
AcDbEntity
  8
0
100
AcDbLine
 10
318.5580724438641
 20
170.9424964599731
 30
0.0
 11
318.5580724438641
 21
90.91997445997327
 31
0.0
  0
LINE
  5
7C6
330
2
100
AcDbEntity
  8
0
100
AcDbLine
 10
52.50256844386422
 20
100.6822734599732
 30
0.0
 11
125.5580724438642
 21
100.6822734599732
 31
0.0
  0
LINE
  5
7C7
330
2
100
AcDbEntity
  8
0
100
AcDbLine
 10
52.50256844386422
 20
92.93123545997326
 30
0.0
 11
124.1993234438642
 21
92.93123545997326
 31
0.0
  0
LINE
  5
7C8
330
2
100
AcDbEntity
  8
0
100
AcDbLine
 10
34.08416544386421
 20
100.6822424599731
 30
0.0
 11
52.50256844386422
 21
100.6822424599731
 31
0.0
  0
LINE
  5
7C9
330
2
100
AcDbEntity
  8
0
100
AcDbLine
 10
35.96666444386414
 20
92.93123545997326
 30
0.0
 11
52.50256844386422
 21
92.93123545997326
 31
0.0
  0
ARC
  5
7CA
330
2
100
AcDbEntity
  8
0
100
AcDbCircle
 10
35.96666444386414
 20
95.93123545997327
 30
0.0
 40
3.0
100
AcDbArc
 50
209.999602999999
 51
270.0
  0
LINE
  5
7CB
330
2
100
AcDbEntity
  8
0
100
AcDbLine
 10
33.36856544386421
 20
94.43123545997329
 30
0.0
 11
32.50256844386422
 21
95.93123545997327
 31
0.0
  0
LINE
  5
7CC
330
2
100
AcDbEntity
  8
0
100
AcDbLine
 10
32.00256844386422
 20
98.93123545997326
 30
0.0
 11
32.50256844386422
 21
98.43123545997329
 31
0.0
  0
ARC
  5
7CD
330
2
100
AcDbEntity
  8
0
100
AcDbCircle
 10
209.7526834438641
 20
87.86749945997327
 30
0.0
 40
6.0
100
AcDbArc
 50
47.3640670000003
 51
120.3582990000005
  0
LINE
  5
7CE
330
2
100
AcDbEntity
  8
0
100
AcDbLine
 10
211.0395484438641
 20
111.7328104599732
 30
0.0
 11
202.0395634438641
 21
101.2328104599732
 31
0.0
  0
LINE
  5
7CF
330
2
100
AcDbEntity
  8
0
100
AcDbLine
 10
211.9594394438641
 20
109.7328104599732
 30
0.0
 11
204.039548443864
 21
100.4929724599731
 31
0.0
  0
LINE
  5
7D0
330
2
100
AcDbEntity
  8
0
100
AcDbLine
 10
132.5580724438642
 20
90.43123545997326
 30
0.0
 11
218.5580724438641
 21
90.43123545997326
 31
0.0
  0
ARC
  5
7D1
330
2
100
AcDbEntity
  8
0
100
AcDbCircle
 10
149.5580724438642
 20
98.69625045997327
 30
0.0
 40
2.0
100
AcDbArc
 50
180.0
 51
249.5126799999996
  0
LINE
  5
7D2
330
2
100
AcDbEntity
  8
0
100
AcDbLine
 10
149.4338354438641
 20
100.6251134599732
 30
0.0
 11
147.4338354438641
 21
99.88527645997329
 31
0.0
  0
LINE
  5
7D3
330
2
100
AcDbEntity
  8
0
100
AcDbLine
 10
140.0765814438642
 20
111.7328104599732
 30
0.0
 11
149.076581443864
 21
101.2328104599732
 31
0.0
  0
ARC
  5
7D4
330
2
100
AcDbEntity
  8
0
100
AcDbCircle
 10
151.9587374438641
 20
100.4312354599731
 30
0.0
 40
10.0
100
AcDbArc
 50
247.6683579999996
 51
270.0
  0
LINE
  5
7D5
330
2
100
AcDbEntity
  8
0
100
AcDbLine
 10
124.8944524438642
 20
92.80654045997323
 30
0.0
 11
130.1250894438642
 21
90.86765245997327
 31
0.0
  0
ARC
  5
7D6
330
2
100
AcDbEntity
  8
0
100
AcDbCircle
 10
132.5580724438642
 20
97.43123545997327
 30
0.0
 40
7.0
100
AcDbArc
 50
180.0
 51
312.6359249999997
  0
CIRCLE
  5
7D8
330
2
100
AcDbEntity
  8
HOJO
100
AcDbCircle
 10
132.5580724438642
 20
97.43123545997327
 30
0.0
 40
4.0
  0
CIRCLE
  5
7D9
330
2
100
AcDbEntity
  8
0
100
AcDbCircle
 10
132.5580724438642
 20
97.43123545997327
 30
0.0
 40
4.25
  0
CIRCLE
  5
7DB
330
2
100
AcDbEntity
  8
0
100
AcDbCircle
 10
130.0580724438642
 20
107.4312354599731
 30
0.0
 40
3.799999999999998
  0
ARC
  5
7DC
330
2
100
AcDbEntity
  8
0
100
AcDbCircle
 10
130.0580724438642
 20
107.4312354599731
 30
0.0
 40
4.5
100
AcDbArc
 50
270.0
 51
90.0
  0
CIRCLE
  5
7DD
330
2
100
AcDbEntity
  8
0
100
AcDbCircle
 10
132.5580724438642
 20
97.43123545997327
 30
0.0
 40
3.399999999999999
  0
ARC
  5
7DF
330
2
100
AcDbEntity
  8
0
100
AcDbCircle
 10
127.5580724438642
 20
100.9312354599732
 30
0.0
 40
2.0
100
AcDbArc
 50
90.0
 51
180.0
  0
ARC
  5
7E0
330
2
100
AcDbEntity
  8
0
100
AcDbCircle
 10
124.1993234438642
 20
90.93123545997327
 30
0.0
 40
2.0
100
AcDbArc
 50
69.66127000000027
 51
90.0
  0
LINE
  5
7E1
330
2
100
AcDbEntity
  8
0
100
AcDbLine
 10
125.058072443864
 20
105.2407754599732
 30
0.0
 11
125.5580724438642
 21
105.2407754599732
 31
0.0
  0
LINE
  5
7E2
330
2
100
AcDbEntity
  8
0
100
AcDbLine
 10
127.5580724438642
 20
111.9312354599731
 30
0.0
 11
130.0580724438642
 21
111.9312354599731
 31
0.0
  0
LINE
  5
7E3
330
2
100
AcDbEntity
  8
0
100
AcDbLine
 10
130.0580724438642
 20
105.6312474599731
 30
0.0
 11
131.5580724438642
 21
106.4972754599732
 31
0.0
  0
LINE
  5
7E4
330
2
100
AcDbEntity
  8
0
100
AcDbLine
 10
131.5580724438642
 20
108.3652254599732
 30
0.0
 11
131.5580724438642
 21
106.4972754599732
 31
0.0
  0
LINE
  5
7E5
330
2
100
AcDbEntity
  8
0
100
AcDbLine
 10
130.0580724438642
 20
109.2312534599731
 30
0.0
 11
131.5580724438642
 21
108.3652254599732
 31
0.0
  0
LINE
  5
7E6
330
2
100
AcDbEntity
  8
0
100
AcDbLine
 10
130.0580724438642
 20
109.2312534599731
 30
0.0
 11
128.5580724438642
 21
108.3652254599732
 31
0.0
  0
LINE
  5
7E7
330
2
100
AcDbEntity
  8
0
100
AcDbLine
 10
128.5580724438642
 20
108.3652254599732
 30
0.0
 11
128.5580724438642
 21
106.4972754599732
 31
0.0
  0
LINE
  5
7E8
330
2
100
AcDbEntity
  8
0
100
AcDbLine
 10
130.0580724438642
 20
105.6312474599731
 30
0.0
 11
128.5580724438642
 21
106.4972754599732
 31
0.0
  0
CIRCLE
  5
7E9
330
2
100
AcDbEntity
  8
0
100
AcDbCircle
 10
130.0580724438642
 20
107.4312354599731
 30
0.0
 40
3.5
  0
LINE
  5
7EA
330
2
100
AcDbEntity
  8
0
100
AcDbLine
 10
127.5580724438642
 20
102.9312354599732
 30
0.0
 11
130.0580724438642
 21
102.9312354599732
 31
0.0
  0
LINE
  5
7EB
330
2
100
AcDbEntity
  8
0
100
AcDbLine
 10
139.156720443864
 20
109.7328104599732
 30
0.0
 11
147.076581443864
 21
100.4929724599731
 31
0.0
  0
ARC
  5
7EC
330
2
100
AcDbEntity
  8
0
100
AcDbCircle
 10
141.3634614438642
 20
87.86749945997327
 30
0.0
 40
6.0
100
AcDbArc
 50
59.64169699999944
 51
132.6359249999995
  0
ARC
  5
7ED
330
2
100
AcDbEntity
  8
0
100
AcDbCircle
 10
145.5580724438642
 20
99.1913974599733
 30
0.0
 40
2.0
100
AcDbArc
 50
0.0
 51
40.60129499999964
  0
LINE
  5
7EE
330
2
100
AcDbEntity
  8
0
100
AcDbLine
 10
147.5580724438642
 20
99.1913974599733
 30
0.0
 11
147.5580724438642
 21
98.69625045997327
 31
0.0
  0
ARC
  5
7EF
330
2
100
AcDbEntity
  8
0
100
AcDbCircle
 10
159.5580724438642
 20
118.9312354599731
 30
0.0
 40
30.0
100
AcDbArc
 50
239.6417009999995
 51
247.6683579999996
  0
ARC
  5
7F0
330
2
100
AcDbEntity
  8
0
100
AcDbCircle
 10
137.1931584438642
 20
112.4312354599732
 30
0.0
 40
2.0
100
AcDbArc
 50
194.4775090000004
 51
270.0
  0
LINE
  5
7F1
330
2
100
AcDbEntity
  8
0
100
AcDbLine
 10
137.6381964438642
 20
110.4312354599731
 30
0.0
 11
137.1931584438642
 21
110.4312354599731
 31
0.0
  0
ARC
  5
7F2
330
2
100
AcDbEntity
  8
0
100
AcDbCircle
 10
137.6381964438642
 20
108.4312354599731
 30
0.0
 40
2.0
100
AcDbArc
 50
40.60129499999964
 51
90.0
  0
LINE
  5
7F3
330
2
100
AcDbEntity
  8
0
100
AcDbLine
 10
194.5580724438641
 20
95.43123545997326
 30
0.0
 11
156.5580724438642
 21
95.43123545997326
 31
0.0
  0
ARC
  5
7F4
330
2
100
AcDbEntity
  8
0
100
AcDbCircle
 10
156.5580724438642
 20
117.4312354599732
 30
0.0
 40
22.0
100
AcDbArc
 50
249.5126879999995
 51
270.0
  0
ARC
  5
7F5
330
2
100
AcDbEntity
  8
0
100
AcDbCircle
 10
151.5580724438642
 20
98.06630645997323
 30
0.0
 40
2.0
100
AcDbArc
 50
180.0
 51
255.5224909999994
  0
ARC
  5
7F6
330
2
100
AcDbEntity
  8
0
100
AcDbCircle
 10
147.5580724438642
 20
99.93123545997327
 30
0.0
 40
2.0
100
AcDbArc
 50
0.0
 51
40.60129499999964
  0
LINE
  5
7F7
330
2
100
AcDbEntity
  8
0
100
AcDbLine
 10
149.5580724438642
 20
99.93123545997327
 30
0.0
 11
149.5580724438642
 21
98.06630645997323
 31
0.0
  0
ARC
  5
7F8
330
2
100
AcDbEntity
  8
0
100
AcDbCircle
 10
199.1574074438641
 20
100.4312354599731
 30
0.0
 40
10.0
100
AcDbArc
 50
270.0
 51
292.3316420000002
  0
ARC
  5
7F9
330
2
100
AcDbEntity
  8
0
100
AcDbCircle
 10
199.5580724438641
 20
98.06630645997323
 30
0.0
 40
2.0
100
AcDbArc
 50
284.4775090000004
 51
0.0
  0
ARC
  5
7FA
330
2
100
AcDbEntity
  8
0
100
AcDbCircle
 10
194.5580724438641
 20
117.4312354599732
 30
0.0
 40
22.0
100
AcDbArc
 50
270.0
 51
290.4873049999995
  0
ARC
  5
7FB
330
2
100
AcDbEntity
  8
0
100
AcDbCircle
 10
201.5580724438641
 20
98.69625045997327
 30
0.0
 40
2.0
100
AcDbArc
 50
290.4873120000003
 51
0.0
  0
LINE
  5
7FC
330
2
100
AcDbEntity
  8
0
100
AcDbLine
 10
201.6823094438641
 20
100.6251134599732
 30
0.0
 11
203.682309443864
 21
99.88527645997329
 31
0.0
  0
ARC
  5
7FD
330
2
100
AcDbEntity
  8
0
100
AcDbCircle
 10
205.5580724438641
 20
99.1913974599733
 30
0.0
 40
2.0
100
AcDbArc
 50
139.3987120000005
 51
180.0
  0
ARC
  5
7FE
330
2
100
AcDbEntity
  8
0
100
AcDbCircle
 10
203.5580724438641
 20
99.93123545997327
 30
0.0
 40
2.0
100
AcDbArc
 50
139.3987120000005
 51
180.0
  0
LINE
  5
7FF
330
2
100
AcDbEntity
  8
0
100
AcDbLine
 10
201.5580724438641
 20
99.93123545997327
 30
0.0
 11
201.5580724438641
 21
98.06630645997323
 31
0.0
  0
LINE
  5
800
330
2
100
AcDbEntity
  8
0
100
AcDbLine
 10
203.5580724438641
 20
99.1913974599733
 30
0.0
 11
203.5580724438641
 21
98.69625045997327
 31
0.0
  0
ARC
  5
801
330
2
100
AcDbEntity
  8
0
100
AcDbCircle
 10
191.558072443864
 20
118.9312354599731
 30
0.0
 40
30.0
100
AcDbArc
 50
292.3316420000002
 51
300.3583030000005
  0
ARC
  5
802
330
2
100
AcDbEntity
  8
0
100
AcDbCircle
 10
218.5580724438641
 20
97.43123545997327
 30
0.0
 40
7.0
100
AcDbArc
 50
227.3640750000002
 51
0.0
  0
CIRCLE
  5
804
330
2
100
AcDbEntity
  8
0
100
AcDbCircle
 10
218.5580724438641
 20
97.43123545997327
 30
0.0
 40
4.25
  0
LINE
  5
805
330
2
100
AcDbEntity
  8
0
100
AcDbLine
 10
223.5580724438641
 20
111.9312354599731
 30
0.0
 11
221.0580724438641
 21
111.9312354599731
 31
0.0
  0
LINE
  5
806
330
2
100
AcDbEntity
  8
0
100
AcDbLine
 10
223.5580724438641
 20
102.9312354599732
 30
0.0
 11
221.0580724438641
 21
102.9312354599732
 31
0.0
  0
CIRCLE
  5
808
330
2
100
AcDbEntity
  8
0
100
AcDbCircle
 10
221.0580724438641
 20
107.4312354599731
 30
0.0
 40
3.5
  0
CIRCLE
  5
809
330
2
100
AcDbEntity
  8
0
100
AcDbCircle
 10
221.0580724438641
 20
107.4312354599731
 30
0.0
 40
3.799999999999998
  0
CIRCLE
  5
80B
330
2
100
AcDbEntity
  8
HOJO
100
AcDbCircle
 10
218.5580724438641
 20
97.43123545997327
 30
0.0
 40
4.0
  0
CIRCLE
  5
80C
330
2
100
AcDbEntity
  8
0
100
AcDbCircle
 10
218.5580724438641
 20
97.43123545997327
 30
0.0
 40
3.399999999999999
  0
ARC
  5
80D
330
2
100
AcDbEntity
  8
0
100
AcDbCircle
 10
213.9230014438641
 20
112.4312354599732
 30
0.0
 40
2.0
100
AcDbArc
 50
270.0
 51
345.5224909999996
  0
LINE
  5
80E
330
2
100
AcDbEntity
  8
0
100
AcDbLine
 10
213.477933443864
 20
110.4312354599731
 30
0.0
 11
213.9230014438641
 21
110.4312354599731
 31
0.0
  0
ARC
  5
80F
330
2
100
AcDbEntity
  8
0
100
AcDbCircle
 10
213.477933443864
 20
108.4312354599731
 30
0.0
 40
2.0
100
AcDbArc
 50
90.0
 51
139.3987120000005
  0
ARC
  5
810
330
2
100
AcDbEntity
  8
0
100
AcDbCircle
 10
221.0580724438641
 20
107.4312354599731
 30
0.0
 40
4.5
100
AcDbArc
 50
90.0
 51
270.0
  0
LINE
  5
811
330
2
100
AcDbEntity
  8
0
100
AcDbLine
 10
221.0580724438641
 20
109.2312534599731
 30
0.0
 11
219.5580724438641
 21
108.3652254599732
 31
0.0
  0
LINE
  5
812
330
2
100
AcDbEntity
  8
0
100
AcDbLine
 10
221.0580724438641
 20
109.2312534599731
 30
0.0
 11
222.5580724438641
 21
108.3652254599732
 31
0.0
  0
LINE
  5
813
330
2
100
AcDbEntity
  8
0
100
AcDbLine
 10
221.0580724438641
 20
105.6312474599731
 30
0.0
 11
222.5580724438641
 21
106.4972754599732
 31
0.0
  0
LINE
  5
814
330
2
100
AcDbEntity
  8
0
100
AcDbLine
 10
221.0580724438641
 20
105.6312474599731
 30
0.0
 11
219.5580724438641
 21
106.4972754599732
 31
0.0
  0
LINE
  5
815
330
2
100
AcDbEntity
  8
0
100
AcDbLine
 10
222.5580724438641
 20
108.3652254599732
 30
0.0
 11
222.5580724438641
 21
106.4972754599732
 31
0.0
  0
LINE
  5
816
330
2
100
AcDbEntity
  8
0
100
AcDbLine
 10
219.5580724438641
 20
108.3652254599732
 30
0.0
 11
219.5580724438641
 21
106.4972754599732
 31
0.0
  0
ARC
  5
817
330
2
100
AcDbEntity
  8
0
100
AcDbCircle
 10
223.5580724438641
 20
100.9312354599732
 30
0.0
 40
2.0
100
AcDbArc
 50
0.0
 51
90.0
  0
LINE
  5
819
330
2
100
AcDbEntity
  8
0
100
AcDbLine
 10
306.0580724438641
 20
93.18123545997329
 30
0.0
 11
318.5580724438641
 21
93.18123545997329
 31
0.0
  0
LINE
  5
81A
330
2
100
AcDbEntity
  8
0
100
AcDbLine
 10
306.0580724438641
 20
101.6812354599732
 30
0.0
 11
318.5580724438641
 21
101.6812354599732
 31
0.0
  0
LINE
  5
81B
330
2
100
AcDbEntity
  8
0
100
AcDbLine
 10
306.0580724438641
 20
112.1014324599733
 30
0.0
 11
312.5580724438641
 21
111.9312354599731
 31
0.0
  0
LINE
  5
81C
330
2
100
AcDbEntity
  8
0
100
AcDbLine
 10
311.5580414438641
 20
111.2312234599732
 30
0.0
 11
312.5580724438641
 21
111.2312234599732
 31
0.0
  0
LINE
  5
81D
330
2
100
AcDbEntity
  8
CENTER
100
AcDbLine
 10
305.6183754438642
 20
107.4312354599731
 30
0.0
 11
313.6030854438641
 21
107.4312354599731
 31
0.0
  0
LINE
  5
821
330
2
100
AcDbEntity
  8
0
100
AcDbLine
 10
307.5580414438641
 20
110.9312354599731
 30
0.0
 11
311.5580414438641
 21
110.9312664599731
 31
0.0
  0
LINE
  5
822
330
2
100
AcDbEntity
  8
0
100
AcDbLine
 10
307.5580414438641
 20
105.3580851998576
 30
0.0
 11
307.5580414438641
 21
110.9312354599731
 31
0.0
  0
LINE
  5
824
330
2
100
AcDbEntity
  8
0
100
AcDbLine
 10
311.5580414438641
 20
105.6060962722862
 30
0.0
 11
311.5580414438641
 21
111.2312234599732
 31
0.0
  0
ARC
  5
825
330
2
100
AcDbEntity
  8
HIDS
100
AcDbCircle
 10
320.5580724438641
 20
99.22951445997325
 30
0.0
 40
3.0
100
AcDbArc
 50
0.0
 51
50.64329900000029
  0
ARC
  5
826
330
2
100
AcDbEntity
  8
HIDS
100
AcDbCircle
 10
325.5580724438641
 20
95.29810245997323
 30
0.0
 40
2.0
100
AcDbArc
 50
180.0
 51
268.9999999999998
  0
LINE
  5
827
330
2
100
AcDbEntity
  8
HIDS
100
AcDbLine
 10
323.5580724438641
 20
95.29810245997323
 30
0.0
 11
323.5580724438641
 21
99.22951445997325
 31
0.0
  0
LINE
  5
82A
330
2
100
AcDbEntity
  8
0
100
AcDbLine
 10
312.5580724438641
 20
105.7453807813101
 30
0.0
 11
312.5580724438641
 21
111.9312354599731
 31
0.0
  0
LINE
  5
82C
330
2
100
AcDbEntity
  8
0
100
AcDbLine
 10
52.50256844386422
 20
161.1801974599731
 30
0.0
 11
125.5580724438642
 21
161.1801974599731
 31
0.0
  0
LINE
  5
82D
330
2
100
AcDbEntity
  8
0
100
AcDbLine
 10
52.50256844386422
 20
168.9312354599731
 30
0.0
 11
124.1993234438642
 21
168.9312354599731
 31
0.0
  0
LINE
  5
82E
330
2
100
AcDbEntity
  8
CENTER
100
AcDbLine
 10
233.0988434438642
 20
130.9312354599732
 30
0.0
 11
23.48203847562989
 21
130.9312354599732
 31
0.0
  0
LINE
  5
833
330
2
100
AcDbEntity
  8
0
100
AcDbLine
 10
34.08416544386421
 20
161.1802284599733
 30
0.0
 11
52.50256844386422
 21
161.1802284599733
 31
0.0
  0
LINE
  5
834
330
2
100
AcDbEntity
  8
0
100
AcDbLine
 10
35.96666444386414
 20
168.9312354599731
 30
0.0
 11
52.50256844386422
 21
168.9312354599731
 31
0.0
  0
LINE
  5
835
330
2
100
AcDbEntity
  8
0
100
AcDbLine
 10
32.00256844386422
 20
162.9312354599731
 30
0.0
 11
32.50256844386422
 21
163.4312354599731
 31
0.0
  0
ARC
  5
836
330
2
100
AcDbEntity
  8
0
100
AcDbCircle
 10
35.96666444386414
 20
165.9312664599731
 30
0.0
 40
3.0
100
AcDbArc
 50
90.0
 51
150.0003970000008
  0
LINE
  5
837
330
2
100
AcDbEntity
  8
0
100
AcDbLine
 10
33.36856544386421
 20
167.4312354599731
 30
0.0
 11
32.50256844386422
 21
165.9312354599731
 31
0.0
  0
ARC
  5
83F
330
2
100
AcDbEntity
  8
0
100
AcDbCircle
 10
209.7526834438641
 20
173.9949864599731
 30
0.0
 40
6.0
100
AcDbArc
 50
239.6417009999995
 51
312.6359329999996
  0
LINE
  5
840
330
2
100
AcDbEntity
  8
0
100
AcDbLine
 10
211.0395484438641
 20
150.1296604599732
 30
0.0
 11
202.0395634438641
 21
160.6296604599732
 31
0.0
  0
LINE
  5
841
330
2
100
AcDbEntity
  8
0
100
AcDbLine
 10
211.9594394438641
 20
152.1296604599732
 30
0.0
 11
204.039548443864
 21
161.3694984599731
 31
0.0
  0
LINE
  5
842
330
2
100
AcDbEntity
  8
0
100
AcDbLine
 10
132.5580724438642
 20
171.4312354599731
 30
0.0
 11
218.5580724438641
 21
171.4312354599731
 31
0.0
  0
ARC
  5
843
330
2
100
AcDbEntity
  8
0
100
AcDbCircle
 10
149.5580724438642
 20
163.1662204599731
 30
0.0
 40
2.0
100
AcDbArc
 50
110.4873120000003
 51
180.0
  0
LINE
  5
844
330
2
100
AcDbEntity
  8
0
100
AcDbLine
 10
149.4338354438641
 20
161.2373574599732
 30
0.0
 11
147.4338354438641
 21
161.9771944599731
 31
0.0
  0
LINE
  5
845
330
2
100
AcDbEntity
  8
0
100
AcDbLine
 10
140.0765814438642
 20
150.1296604599732
 30
0.0
 11
149.076581443864
 21
160.6296604599732
 31
0.0
  0
ARC
  5
846
330
2
100
AcDbEntity
  8
0
100
AcDbCircle
 10
151.9587374438641
 20
161.4312354599731
 30
0.0
 40
10.0
100
AcDbArc
 50
90.0
 51
112.331642
  0
ARC
  5
848
330
2
100
AcDbEntity
  8
0
100
AcDbCircle
 10
130.0580724438642
 20
154.4312354599731
 30
0.0
 40
4.5
100
AcDbArc
 50
270.0
 51
90.0
  0
LINE
  5
849
330
2
100
AcDbEntity
  8
0
100
AcDbLine
 10
128.5580724438642
 20
153.4972454599731
 30
0.0
 11
128.5580724438642
 21
155.3651954599732
 31
0.0
  0
LINE
  5
84A
330
2
100
AcDbEntity
  8
0
100
AcDbLine
 10
131.5580724438642
 20
153.4972454599731
 30
0.0
 11
131.5580724438642
 21
155.3651954599732
 31
0.0
  0
CIRCLE
  5
84B
330
2
100
AcDbEntity
  8
0
100
AcDbCircle
 10
130.0580724438642
 20
154.4312354599731
 30
0.0
 40
3.5
  0
CIRCLE
  5
84C
330
2
100
AcDbEntity
  8
0
100
AcDbCircle
 10
130.0580724438642
 20
154.4312354599731
 30
0.0
 40
3.799999999999998
  0
LINE
  5
84D
330
2
100
AcDbEntity
  8
0
100
AcDbLine
 10
139.156720443864
 20
152.1296604599732
 30
0.0
 11
147.076581443864
 21
161.3694984599731
 31
0.0
  0
LINE
  5
84E
330
2
100
AcDbEntity
  8
0
100
AcDbLine
 10
125.5580724438642
 20
164.4312354599731
 30
0.0
 11
125.5580724438642
 21
147.2596654599731
 31
0.0
  0
LINE
  5
84F
330
2
100
AcDbEntity
  8
0
100
AcDbLine
 10
134.5580724438642
 20
144.4312354599731
 30
0.0
 11
134.5580724438642
 21
117.4312354599732
 31
0.0
  0
LINE
  5
850
330
2
100
AcDbEntity
  8
0
100
AcDbLine
 10
129.5580724438642
 20
120.2596654599732
 30
0.0
 11
129.5580724438642
 21
141.6028054599733
 31
0.0
  0
LINE
  5
851
330
2
100
AcDbEntity
  8
0
100
AcDbLine
 10
128.9722874438641
 20
118.8454504599732
 30
0.0
 11
126.1438574438642
 21
116.0170204599731
 31
0.0
  0
ARC
  5
852
330
2
100
AcDbEntity
  8
0
100
AcDbCircle
 10
127.5580724438642
 20
114.6028054599733
 30
0.0
 40
2.0
100
AcDbArc
 50
135.0
 51
180.0
  0
ARC
  5
853
330
2
100
AcDbEntity
  8
0
100
AcDbCircle
 10
127.5580724438642
 20
120.2596654599732
 30
0.0
 40
2.0
100
AcDbArc
 50
315.0
 51
0.0
  0
LINE
  5
854
330
2
100
AcDbEntity
  8
0
100
AcDbLine
 10
138.558072443864
 20
112.4312354599732
 30
0.0
 11
136.7843454438641
 21
112.4312354599732
 31
0.0
  0
LINE
  5
856
330
2
100
AcDbEntity
  8
0
100
AcDbLine
 10
128.9722874438641
 20
143.0170204599732
 30
0.0
 11
126.1438574438642
 21
145.8454504599731
 31
0.0
  0
ARC
  5
857
330
2
100
AcDbEntity
  8
0
100
AcDbCircle
 10
127.5580724438642
 20
141.6028054599733
 30
0.0
 40
2.0
100
AcDbArc
 50
0.0
 51
45.0
  0
ARC
  5
858
330
2
100
AcDbEntity
  8
0
100
AcDbCircle
 10
127.5580724438642
 20
147.9312354599731
 30
0.0
 40
2.0
100
AcDbArc
 50
90.0
 51
180.0
  0
ARC
  5
859
330
2
100
AcDbEntity
  8
0
100
AcDbCircle
 10
127.5580724438642
 20
147.2596654599731
 30
0.0
 40
2.0
100
AcDbArc
 50
180.0
 51
225.0
  0
LINE
  5
85A
330
2
100
AcDbEntity
  8
0
100
AcDbLine
 10
127.5580724438642
 20
149.9312354599731
 30
0.0
 11
130.0580724438642
 21
149.9312354599731
 31
0.0
  0
LINE
  5
85B
330
2
100
AcDbEntity
  8
0
100
AcDbLine
 10
130.0580724438642
 20
152.6312174599731
 30
0.0
 11
131.5580724438642
 21
153.4972454599731
 31
0.0
  0
LINE
  5
85C
330
2
100
AcDbEntity
  8
0
100
AcDbLine
 10
130.0580724438642
 20
152.6312174599731
 30
0.0
 11
128.5580724438642
 21
153.4972454599731
 31
0.0
  0
ARC
  5
85D
330
2
100
AcDbEntity
  8
0
100
AcDbCircle
 10
156.5580724438642
 20
144.4312354599731
 30
0.0
 40
22.0
100
AcDbArc
 50
165.5224909999994
 51
180.0
  0
ARC
  5
85E
330
2
100
AcDbEntity
  8
0
100
AcDbCircle
 10
137.1931584438642
 20
149.4312354599731
 30
0.0
 40
2.0
100
AcDbArc
 50
90.0
 51
165.5224909999994
  0
ARC
  5
85F
330
2
100
AcDbEntity
  8
0
100
AcDbCircle
 10
136.7843454438641
 20
147.4312354599731
 30
0.0
 40
2.0
100
AcDbArc
 50
90.0
 51
171.3730769999999
  0
LINE
  5
860
330
2
100
AcDbEntity
  8
0
100
AcDbLine
 10
137.6381964438642
 20
151.4312354599731
 30
0.0
 11
137.1931584438642
 21
151.4312354599731
 31
0.0
  0
LINE
  5
861
330
2
100
AcDbEntity
  8
0
100
AcDbLine
 10
138.558072443864
 20
149.4312354599731
 30
0.0
 11
136.7843454438641
 21
149.4312354599731
 31
0.0
  0
LINE
  5
862
330
2
100
AcDbEntity
  8
0
100
AcDbLine
 10
139.3937814438642
 20
149.6142184599733
 30
0.0
 11
138.4739204438642
 21
151.6142184599733
 31
0.0
  0
ARC
  5
863
330
2
100
AcDbEntity
  8
0
100
AcDbCircle
 10
138.558072443864
 20
151.4312354599731
 30
0.0
 40
2.0
100
AcDbArc
 50
270.0
 51
319.3987050000003
  0
ARC
  5
864
330
2
100
AcDbEntity
  8
0
100
AcDbCircle
 10
137.6381964438642
 20
153.4312354599731
 30
0.0
 40
2.0
100
AcDbArc
 50
270.0
 51
319.3987050000003
  0
CIRCLE
  5
865
330
2
100
AcDbEntity
  8
HOJO
100
AcDbCircle
 10
132.5580724438642
 20
164.4312354599731
 30
0.0
 40
4.0
  0
CIRCLE
  5
866
330
2
100
AcDbEntity
  8
0
100
AcDbCircle
 10
132.5580724438642
 20
164.4312354599731
 30
0.0
 40
4.25
  0
ARC
  5
867
330
2
100
AcDbEntity
  8
0
100
AcDbCircle
 10
132.5580724438642
 20
164.4312354599731
 30
0.0
 40
7.0
100
AcDbArc
 50
47.3640670000003
 51
180.0
  0
CIRCLE
  5
868
330
2
100
AcDbEntity
  8
0
100
AcDbCircle
 10
132.5580724438642
 20
164.4312354599731
 30
0.0
 40
3.399999999999999
  0
ARC
  5
86B
330
2
100
AcDbEntity
  8
0
100
AcDbCircle
 10
127.5580724438642
 20
160.9312354599731
 30
0.0
 40
2.0
100
AcDbArc
 50
180.0
 51
270.0
  0
LINE
  5
86C
330
2
100
AcDbEntity
  8
0
100
AcDbLine
 10
125.058072443864
 20
156.6216954599733
 30
0.0
 11
125.5580724438642
 21
156.6216954599733
 31
0.0
  0
LINE
  5
86D
330
2
100
AcDbEntity
  8
0
100
AcDbLine
 10
127.5580724438642
 20
158.9312354599731
 30
0.0
 11
130.0580724438642
 21
158.9312354599731
 31
0.0
  0
LINE
  5
86E
330
2
100
AcDbEntity
  8
0
100
AcDbLine
 10
130.0580724438642
 20
156.2312234599732
 30
0.0
 11
128.5580724438642
 21
155.3651954599732
 31
0.0
  0
LINE
  5
86F
330
2
100
AcDbEntity
  8
0
100
AcDbLine
 10
130.0580724438642
 20
156.2312234599732
 30
0.0
 11
131.5580724438642
 21
155.3651954599732
 31
0.0
  0
LINE
  5
870
330
2
100
AcDbEntity
  8
0
100
AcDbLine
 10
124.8944524438642
 20
169.0559304599731
 30
0.0
 11
130.1250894438642
 21
170.9948034599733
 31
0.0
  0
ARC
  5
871
330
2
100
AcDbEntity
  8
0
100
AcDbCircle
 10
124.1993234438642
 20
170.9312354599731
 30
0.0
 40
2.0
100
AcDbArc
 50
270.0
 51
290.3387299999997
  0
ARC
  5
872
330
2
100
AcDbEntity
  8
0
100
AcDbCircle
 10
145.5580724438642
 20
162.6710734599731
 30
0.0
 40
2.0
100
AcDbArc
 50
319.3987050000003
 51
0.0
  0
LINE
  5
873
330
2
100
AcDbEntity
  8
0
100
AcDbLine
 10
147.5580724438642
 20
162.6710734599731
 30
0.0
 11
147.5580724438642
 21
163.1662204599731
 31
0.0
  0
ARC
  5
874
330
2
100
AcDbEntity
  8
0
100
AcDbCircle
 10
141.3634614438642
 20
173.9949864599731
 30
0.0
 40
6.0
100
AcDbArc
 50
227.3640750000002
 51
300.3583030000005
  0
ARC
  5
875
330
2
100
AcDbEntity
  8
0
100
AcDbCircle
 10
159.5580724438642
 20
142.9312354599731
 30
0.0
 40
30.0
100
AcDbArc
 50
112.331642
 51
120.3582990000005
  0
ARC
  5
876
330
2
100
AcDbEntity
  8
0
100
AcDbCircle
 10
186.558072443864
 20
130.9312354599732
 30
0.0
 40
8.5
100
AcDbArc
 50
17.1046349999994
 51
342.8953549999997
  0
CIRCLE
  5
877
330
2
100
AcDbEntity
  8
0
100
AcDbCircle
 10
186.558072443864
 20
130.9312354599732
 30
0.0
 40
15.0
  0
LINE
  5
878
330
2
100
AcDbEntity
  8
0
100
AcDbLine
 10
191.0580724438641
 20
133.4312354599732
 30
0.0
 11
191.0580724438641
 21
128.4312354599732
 31
0.0
  0
LINE
  5
879
330
2
100
AcDbEntity
  8
0
100
AcDbLine
 10
196.0580724438641
 20
133.4312354599732
 30
0.0
 11
196.0580724438641
 21
128.4312354599732
 31
0.0
  0
ARC
  5
87A
330
2
100
AcDbEntity
  8
0
100
AcDbCircle
 10
186.558072443864
 20
130.9312354599732
 30
0.0
 40
7.5
100
AcDbArc
 50
19.47122199999956
 51
340.5287780000004
  0
LINE
  5
87B
330
2
100
AcDbEntity
  8
0
100
AcDbLine
 10
191.0580724438641
 20
128.4312354599732
 30
0.0
 11
196.0580724438641
 21
128.4312354599732
 31
0.0
  0
LINE
  5
87C
330
2
100
AcDbEntity
  8
0
100
AcDbLine
 10
191.0580724438641
 20
133.4312354599732
 30
0.0
 11
196.0580724438641
 21
133.4312354599732
 31
0.0
  0
LINE
  5
87D
330
2
100
AcDbEntity
  8
0
100
AcDbLine
 10
194.5580724438641
 20
166.4312354599731
 30
0.0
 11
156.5580724438642
 21
166.4312354599731
 31
0.0
  0
ARC
  5
87E
330
2
100
AcDbEntity
  8
0
100
AcDbCircle
 10
151.5580724438642
 20
163.7961644599731
 30
0.0
 40
2.0
100
AcDbArc
 50
104.4775090000003
 51
180.0
  0
ARC
  5
87F
330
2
100
AcDbEntity
  8
0
100
AcDbCircle
 10
156.5580724438642
 20
144.4312354599731
 30
0.0
 40
22.0
100
AcDbArc
 50
90.0
 51
110.4873120000003
  0
ARC
  5
880
330
2
100
AcDbEntity
  8
0
100
AcDbCircle
 10
147.5580724438642
 20
161.9312354599731
 30
0.0
 40
2.0
100
AcDbArc
 50
319.3987050000003
 51
0.0
  0
LINE
  5
881
330
2
100
AcDbEntity
  8
0
100
AcDbLine
 10
149.5580724438642
 20
161.9312354599731
 30
0.0
 11
149.5580724438642
 21
163.7961644599731
 31
0.0
  0
ARC
  5
882
330
2
100
AcDbEntity
  8
0
100
AcDbCircle
 10
201.5580724438641
 20
163.1662204599731
 30
0.0
 40
2.0
100
AcDbArc
 50
0.0
 51
69.51268799999964
  0
ARC
  5
883
330
2
100
AcDbEntity
  8
0
100
AcDbCircle
 10
199.5580724438641
 20
163.7961644599731
 30
0.0
 40
2.0
100
AcDbArc
 50
0.0
 51
75.52249099999959
  0
ARC
  5
884
330
2
100
AcDbEntity
  8
0
100
AcDbCircle
 10
194.5580724438641
 20
144.4312354599731
 30
0.0
 40
22.0
100
AcDbArc
 50
69.51268799999964
 51
90.0
  0
LINE
  5
885
330
2
100
AcDbEntity
  8
0
100
AcDbLine
 10
201.6823094438641
 20
161.2373574599732
 30
0.0
 11
203.682309443864
 21
161.9771944599731
 31
0.0
  0
ARC
  5
886
330
2
100
AcDbEntity
  8
0
100
AcDbCircle
 10
205.5580724438641
 20
162.6710734599731
 30
0.0
 40
2.0
100
AcDbArc
 50
180.0
 51
220.6012879999994
  0
ARC
  5
887
330
2
100
AcDbEntity
  8
0
100
AcDbCircle
 10
203.5580724438641
 20
161.9312354599731
 30
0.0
 40
2.0
100
AcDbArc
 50
180.0
 51
220.6012879999994
  0
LINE
  5
888
330
2
100
AcDbEntity
  8
0
100
AcDbLine
 10
201.5580724438641
 20
161.9312354599731
 30
0.0
 11
201.5580724438641
 21
163.7961644599731
 31
0.0
  0
LINE
  5
889
330
2
100
AcDbEntity
  8
0
100
AcDbLine
 10
203.5580724438641
 20
162.6710734599731
 30
0.0
 11
203.5580724438641
 21
163.1662204599731
 31
0.0
  0
ARC
  5
88A
330
2
100
AcDbEntity
  8
0
100
AcDbCircle
 10
199.1574074438641
 20
161.4312354599731
 30
0.0
 40
10.0
100
AcDbArc
 50
67.66835799999981
 51
90.0
  0
ARC
  5
88B
330
2
100
AcDbEntity
  8
0
100
AcDbCircle
 10
191.558072443864
 20
142.9312354599731
 30
0.0
 40
30.0
100
AcDbArc
 50
59.64169699999944
 51
67.66835799999981
  0
ARC
  5
88C
330
2
100
AcDbEntity
  8
0
100
AcDbCircle
 10
221.0580724438641
 20
154.4312354599731
 30
0.0
 40
4.5
100
AcDbArc
 50
90.0
 51
270.0
  0
LINE
  5
88E
330
2
100
AcDbEntity
  8
0
100
AcDbLine
 10
222.5580724438641
 20
153.4972454599731
 30
0.0
 11
222.5580724438641
 21
155.3651954599732
 31
0.0
  0
LINE
  5
88F
330
2
100
AcDbEntity
  8
0
100
AcDbLine
 10
219.5580724438641
 20
153.4972454599731
 30
0.0
 11
219.5580724438641
 21
155.3651954599732
 31
0.0
  0
CIRCLE
  5
890
330
2
100
AcDbEntity
  8
0
100
AcDbCircle
 10
221.0580724438641
 20
154.4312354599731
 30
0.0
 40
3.5
  0
CIRCLE
  5
891
330
2
100
AcDbEntity
  8
0
100
AcDbCircle
 10
221.0580724438641
 20
154.4312354599731
 30
0.0
 40
3.799999999999998
  0
LINE
  5
892
330
2
100
AcDbEntity
  8
0
100
AcDbLine
 10
216.5580724438641
 20
144.4312354599731
 30
0.0
 11
216.5580724438641
 21
117.4312354599732
 31
0.0
  0
LINE
  5
893
330
2
100
AcDbEntity
  8
0
100
AcDbLine
 10
221.5580724438641
 20
120.2596654599732
 30
0.0
 11
221.5580724438641
 21
141.6028054599733
 31
0.0
  0
LINE
  5
894
330
2
100
AcDbEntity
  8
0
100
AcDbLine
 10
222.1438574438641
 20
118.8454504599732
 30
0.0
 11
224.9722874438641
 21
116.0170204599731
 31
0.0
  0
LINE
  5
895
330
2
100
AcDbEntity
  8
0
100
AcDbLine
 10
212.5580724438641
 20
112.4312354599732
 30
0.0
 11
214.331784443864
 21
112.4312354599732
 31
0.0
  0
ARC
  5
896
330
2
100
AcDbEntity
  8
0
100
AcDbCircle
 10
223.5580724438641
 20
120.2596654599732
 30
0.0
 40
2.0
100
AcDbArc
 50
180.0
 51
225.0
  0
ARC
  5
897
330
2
100
AcDbEntity
  8
0
100
AcDbCircle
 10
223.5580724438641
 20
114.6028054599733
 30
0.0
 40
2.0
100
AcDbArc
 50
0.0
 51
45.0
  0
LINE
  5
899
330
2
100
AcDbEntity
  8
0
100
AcDbLine
 10
223.5580724438641
 20
149.9312354599731
 30
0.0
 11
221.0580724438641
 21
149.9312354599731
 31
0.0
  0
LINE
  5
89A
330
2
100
AcDbEntity
  8
0
100
AcDbLine
 10
222.1438574438641
 20
143.0170204599732
 30
0.0
 11
224.9722874438641
 21
145.8454504599731
 31
0.0
  0
ARC
  5
89B
330
2
100
AcDbEntity
  8
0
100
AcDbCircle
 10
223.5580724438641
 20
141.6028054599733
 30
0.0
 40
2.0
100
AcDbArc
 50
135.0
 51
180.0
  0
ARC
  5
89C
330
2
100
AcDbEntity
  8
0
100
AcDbCircle
 10
213.9230014438641
 20
149.4312354599731
 30
0.0
 40
2.0
100
AcDbArc
 50
14.47751199999975
 51
90.0
  0
ARC
  5
89D
330
2
100
AcDbEntity
  8
0
100
AcDbCircle
 10
214.331784443864
 20
147.4312354599731
 30
0.0
 40
2.0
100
AcDbArc
 50
8.626927000000565
 51
90.0
  0
LINE
  5
89E
330
2
100
AcDbEntity
  8
0
100
AcDbLine
 10
213.477933443864
 20
151.4312354599731
 30
0.0
 11
213.9230014438641
 21
151.4312354599731
 31
0.0
  0
LINE
  5
89F
330
2
100
AcDbEntity
  8
0
100
AcDbLine
 10
212.5580724438641
 20
149.4312354599731
 30
0.0
 11
214.331784443864
 21
149.4312354599731
 31
0.0
  0
LINE
  5
8A0
330
2
100
AcDbEntity
  8
0
100
AcDbLine
 10
211.722348443864
 20
149.6142184599733
 30
0.0
 11
212.6422394438642
 21
151.6142184599733
 31
0.0
  0
ARC
  5
8A1
330
2
100
AcDbEntity
  8
0
100
AcDbCircle
 10
212.5580724438641
 20
151.4312354599731
 30
0.0
 40
2.0
100
AcDbArc
 50
220.6012879999994
 51
270.0
  0
ARC
  5
8A2
330
2
100
AcDbEntity
  8
0
100
AcDbCircle
 10
213.477933443864
 20
153.4312354599731
 30
0.0
 40
2.0
100
AcDbArc
 50
220.6012879999994
 51
270.0
  0
LINE
  5
8A3
330
2
100
AcDbEntity
  8
0
100
AcDbLine
 10
221.0580724438641
 20
152.6312174599731
 30
0.0
 11
219.5580724438641
 21
153.4972454599731
 31
0.0
  0
LINE
  5
8A4
330
2
100
AcDbEntity
  8
0
100
AcDbLine
 10
221.0580724438641
 20
152.6312174599731
 30
0.0
 11
222.5580724438641
 21
153.4972454599731
 31
0.0
  0
ARC
  5
8A5
330
2
100
AcDbEntity
  8
0
100
AcDbCircle
 10
194.5580724438641
 20
144.4312354599731
 30
0.0
 40
22.0
100
AcDbArc
 50
0.0
 51
14.47751199999975
  0
ARC
  5
8A6
330
2
100
AcDbEntity
  8
0
100
AcDbCircle
 10
223.5580724438641
 20
147.9312354599731
 30
0.0
 40
2.0
100
AcDbArc
 50
0.0
 51
90.0
  0
ARC
  5
8A7
330
2
100
AcDbEntity
  8
0
100
AcDbCircle
 10
223.5580724438641
 20
147.2596654599731
 30
0.0
 40
2.0
100
AcDbArc
 50
315.0
 51
0.0
  0
CIRCLE
  5
8A8
330
2
100
AcDbEntity
  8
0
100
AcDbCircle
 10
218.5580724438641
 20
164.4312354599731
 30
0.0
 40
4.25
  0
LINE
  5
8A9
330
2
100
AcDbEntity
  8
0
100
AcDbLine
 10
223.5580724438641
 20
158.9312354599731
 30
0.0
 11
221.0580724438641
 21
158.9312354599731
 31
0.0
  0
ARC
  5
8AA
330
2
100
AcDbEntity
  8
0
100
AcDbCircle
 10
218.5580724438641
 20
164.4312354599731
 30
0.0
 40
7.0
100
AcDbArc
 50
0.0
 51
132.6359249999995
  0
CIRCLE
  5
8AC
330
2
100
AcDbEntity
  8
HOJO
100
AcDbCircle
 10
218.5580724438641
 20
164.4312354599731
 30
0.0
 40
4.0
  0
CIRCLE
  5
8AD
330
2
100
AcDbEntity
  8
0
100
AcDbCircle
 10
218.5580724438641
 20
164.4312354599731
 30
0.0
 40
3.399999999999999
  0
LINE
  5
8AF
330
2
100
AcDbEntity
  8
0
100
AcDbLine
 10
221.0580724438641
 20
156.2312234599732
 30
0.0
 11
222.5580724438641
 21
155.3651954599732
 31
0.0
  0
LINE
  5
8B0
330
2
100
AcDbEntity
  8
0
100
AcDbLine
 10
221.0580724438641
 20
156.2312234599732
 30
0.0
 11
219.5580724438641
 21
155.3651954599732
 31
0.0
  0
ARC
  5
8B1
330
2
100
AcDbEntity
  8
0
100
AcDbCircle
 10
223.5580724438641
 20
160.9312354599731
 30
0.0
 40
2.0
100
AcDbArc
 50
270.0
 51
0.0
  0
LINE
  5
8B2
330
2
100
AcDbEntity
  8
0
100
AcDbLine
 10
312.5580724438641
 20
158.9312354599731
 30
0.0
 11
312.5580724438641
 21
149.9312354599731
 31
0.0
  0
LINE
  5
8B3
330
2
100
AcDbEntity
  8
0
100
AcDbLine
 10
307.5580414438641
 20
157.9312354599731
 30
0.0
 11
307.5580414438641
 21
150.9312354599731
 31
0.0
  0
LINE
  5
8B4
330
2
100
AcDbEntity
  8
0
100
AcDbLine
 10
311.5580414438641
 20
158.2312234599732
 30
0.0
 11
311.5580414438641
 21
150.6312474599732
 31
0.0
  0
LINE
  5
8B5
330
2
100
AcDbEntity
  8
0
100
AcDbLine
 10
278.0580724438641
 20
128.4312354599732
 30
0.0
 11
299.5580724438641
 21
128.4312354599732
 31
0.0
  0
LINE
  5
8B6
330
2
100
AcDbEntity
  8
0
100
AcDbLine
 10
278.0580724438641
 20
133.4312354599732
 30
0.0
 11
299.5580724438641
 21
133.4312354599732
 31
0.0
  0
LINE
  5
8B7
330
2
100
AcDbEntity
  8
0
100
AcDbLine
 10
278.0580724438641
 20
123.4312354599731
 30
0.0
 11
305.0580724438641
 21
123.4312354599731
 31
0.0
  0
LINE
  5
8B8
330
2
100
AcDbEntity
  8
0
100
AcDbLine
 10
278.0580724438641
 20
138.4312354599732
 30
0.0
 11
305.0580724438641
 21
138.4312354599732
 31
0.0
  0
LINE
  5
8B9
330
2
100
AcDbEntity
  8
0
100
AcDbLine
 10
278.0580724438641
 20
138.4312354599732
 30
0.0
 11
278.0580724438641
 21
123.4312354599731
 31
0.0
  0
LINE
  5
8BA
330
2
100
AcDbEntity
  8
0
100
AcDbLine
 10
305.0580724438641
 20
138.7425754599732
 30
0.0
 11
305.0580724438641
 21
123.1198954599733
 31
0.0
  0
ARC
  5
8BB
330
2
100
AcDbEntity
  8
0
100
AcDbCircle
 10
299.5580724438641
 20
130.9312354599732
 30
0.0
 40
2.5
100
AcDbArc
 50
270.0
 51
90.0
  0
LINE
  5
8BC
330
2
100
AcDbEntity
  8
0
100
AcDbLine
 10
318.5580724438641
 20
115.4312354599732
 30
0.0
 11
306.0580724438641
 21
115.4312354599732
 31
0.0
  0
LINE
  5
8BD
330
2
100
AcDbEntity
  8
0
100
AcDbLine
 10
318.5580724438641
 20
119.4312354599732
 30
0.0
 11
306.0580724438641
 21
119.4312354599732
 31
0.0
  0
ARC
  5
8BE
330
2
100
AcDbEntity
  8
0
100
AcDbCircle
 10
305.5580724438641
 20
123.1198954599733
 30
0.0
 40
0.5
100
AcDbArc
 50
180.0
 51
239.9999999999998
  0
LINE
  5
8BF
330
2
100
AcDbEntity
  8
0
100
AcDbLine
 10
306.0580724438641
 20
122.4312354599731
 30
0.0
 11
305.8355074438641
 21
122.4312354599731
 31
0.0
  0
LINE
  5
8C0
330
2
100
AcDbEntity
  8
0
100
AcDbLine
 10
305.3080724438641
 20
122.6869114599732
 30
0.0
 11
305.4599894438641
 21
122.5991734599731
 31
0.0
  0
ARC
  5
8C1
330
2
100
AcDbEntity
  8
0
100
AcDbCircle
 10
306.4599894438641
 20
124.3312294599732
 30
0.0
 40
2.0
100
AcDbArc
 50
239.9999999999998
 51
251.8051300000001
  0
LINE
  5
8C2
330
2
100
AcDbEntity
  8
0
100
AcDbLine
 10
318.5580724438641
 20
142.4312354599731
 30
0.0
 11
306.0580724438641
 21
142.4312354599731
 31
0.0
  0
LINE
  5
8C3
330
2
100
AcDbEntity
  8
0
100
AcDbLine
 10
318.5580724438641
 20
146.4312354599731
 30
0.0
 11
306.0580724438641
 21
146.4312354599731
 31
0.0
  0
LINE
  5
8C4
330
2
100
AcDbEntity
  8
0
100
AcDbLine
 10
306.0580724438641
 20
149.7610384599731
 30
0.0
 11
312.5580724438641
 21
149.9312354599731
 31
0.0
  0
LINE
  5
8C5
330
2
100
AcDbEntity
  8
0
100
AcDbLine
 10
311.5580414438641
 20
150.6312474599732
 30
0.0
 11
312.5580724438641
 21
150.6312474599732
 31
0.0
  0
LINE
  5
8C6
330
2
100
AcDbEntity
  8
CENTER
100
AcDbLine
 10
305.6183754438642
 20
154.4312354599731
 30
0.0
 11
313.6030854438641
 21
154.4312354599731
 31
0.0
  0
LINE
  5
8C7
330
2
100
AcDbEntity
  8
0
100
AcDbLine
 10
306.0580724438641
 20
139.4312354599732
 30
0.0
 11
305.8355074438641
 21
139.4312354599732
 31
0.0
  0
ARC
  5
8C8
330
2
100
AcDbEntity
  8
0
100
AcDbCircle
 10
306.4599894438641
 20
137.5312414599731
 30
0.0
 40
2.0
100
AcDbArc
 50
108.1948699999996
 51
120.0000000000001
  0
LINE
  5
8C9
330
2
100
AcDbEntity
  8
0
100
AcDbLine
 10
305.3080724438641
 20
139.1755594599732
 30
0.0
 11
305.4599894438641
 21
139.2632974599731
 31
0.0
  0
ARC
  5
8CA
330
2
100
AcDbEntity
  8
0
100
AcDbCircle
 10
305.5580724438641
 20
138.7425754599732
 30
0.0
 40
0.5
100
AcDbArc
 50
120.0000000000001
 51
180.0
  0
LINE
  5
8CB
330
2
100
AcDbEntity
  8
0
100
AcDbLine
 10
307.5580414438641
 20
150.9312354599731
 30
0.0
 11
311.5580414438641
 21
150.9312044599733
 31
0.0
  0
LINE
  5
8CD
330
2
100
AcDbEntity
  8
HIDS
100
AcDbLine
 10
306.0580724438641
 20
160.1812354599731
 30
0.0
 11
318.5580724438641
 21
160.1812354599731
 31
0.0
  0
LINE
  5
8CE
330
2
100
AcDbEntity
  8
HIDS
100
AcDbLine
 10
306.0580724438641
 20
168.6812354599731
 30
0.0
 11
318.5580724438641
 21
168.6812354599731
 31
0.0
  0
LINE
  5
8CF
330
2
100
AcDbEntity
  8
0
100
AcDbLine
 10
306.0580724438641
 20
159.1014324599733
 30
0.0
 11
312.5580724438641
 21
158.9312354599731
 31
0.0
  0
LINE
  5
8D0
330
2
100
AcDbEntity
  8
0
100
AcDbLine
 10
311.5580414438641
 20
158.2312234599732
 30
0.0
 11
312.5580724438641
 21
158.2312234599732
 31
0.0
  0
LINE
  5
8D2
330
2
100
AcDbEntity
  8
0
100
AcDbLine
 10
307.5580414438641
 20
157.9312354599731
 30
0.0
 11
311.5580414438641
 21
157.9312664599731
 31
0.0
  0
LINE
  5
8D3
330
2
100
AcDbEntity
  8
HIDS
100
AcDbLine
 10
323.5580724438641
 20
166.5643834599731
 30
0.0
 11
323.5580724438641
 21
162.6329564599731
 31
0.0
  0
ARC
  5
8D7
330
2
100
AcDbEntity
  8
HIDS
100
AcDbCircle
 10
320.5580724438641
 20
162.6329564599731
 30
0.0
 40
3.0
100
AcDbArc
 50
309.3567009999997
 51
0.0
  0
ARC
  5
8D8
330
2
100
AcDbEntity
  8
HIDS
100
AcDbCircle
 10
325.5580724438641
 20
166.5643834599731
 30
0.0
 40
2.0
100
AcDbArc
 50
91.00000000000013
 51
180.0
  0
LINE
  5
8D9
330
2
100
AcDbEntity
  8
0
100
AcDbLine
 10
700.6135534438642
 20
165.9312354599731
 30
0.0
 11
700.6135534438642
 21
95.93123545997327
 31
0.0
  0
LINE
  5
8DA
330
2
100
AcDbEntity
  8
0
100
AcDbLine
 10
701.1135534438643
 20
162.9312354599731
 30
0.0
 11
701.1135534438643
 21
98.93123545997326
 31
0.0
  0
LINE
  5
8DB
330
2
100
AcDbEntity
  8
0
100
AcDbLine
 10
680.6135534438642
 20
168.9312354599731
 30
0.0
 11
680.6135534438642
 21
92.93123545997326
 31
0.0
  0
CIRCLE
  5
8DC
330
2
100
AcDbEntity
  8
0
100
AcDbCircle
 10
546.5580724438641
 20
130.9312354599732
 30
0.0
 40
25.002001
  0
CIRCLE
  5
8DD
330
2
100
AcDbEntity
  8
0
100
AcDbCircle
 10
546.5580724438641
 20
130.9312354599732
 30
0.0
 40
23.0
  0
CIRCLE
  5
8DE
330
2
100
AcDbEntity
  8
0
100
AcDbCircle
 10
546.5580724438641
 20
130.9312354599732
 30
0.0
 40
19.0
  0
ARC
  5
8DF
330
2
100
AcDbEntity
  8
0
100
AcDbCircle
 10
576.5580724438641
 20
117.4312354599732
 30
0.0
 40
22.0
100
AcDbArc
 50
345.5224880000002
 51
0.0
  0
ARC
  5
8E0
330
2
100
AcDbEntity
  8
0
100
AcDbCircle
 10
538.5580724438641
 20
117.4312354599732
 30
0.0
 40
22.0
100
AcDbArc
 50
180.0
 51
194.4775090000004
  0
ARC
  5
8E1
330
2
100
AcDbEntity
  8
0
100
AcDbCircle
 10
596.3318154438641
 20
114.4312354599732
 30
0.0
 40
2.0
100
AcDbArc
 50
270.0
 51
351.373077
  0
LINE
  5
8E2
330
2
100
AcDbEntity
  8
0
100
AcDbLine
 10
593.7223794438641
 20
112.2482524599732
 30
0.0
 11
594.642239443864
 21
110.2482524599732
 31
0.0
  0
ARC
  5
8E3
330
2
100
AcDbEntity
  8
0
100
AcDbCircle
 10
594.5580724438641
 20
110.4312354599731
 30
0.0
 40
2.0
100
AcDbArc
 50
90.0
 51
139.3987120000005
  0
ARC
  5
8E4
330
2
100
AcDbEntity
  8
0
100
AcDbCircle
 10
518.7843294438642
 20
114.4312354599732
 30
0.0
 40
2.0
100
AcDbArc
 50
188.626923
 51
270.0
  0
LINE
  5
8E5
330
2
100
AcDbEntity
  8
0
100
AcDbLine
 10
521.3937654438641
 20
112.2482524599732
 30
0.0
 11
520.4739054438642
 21
110.2482524599732
 31
0.0
  0
ARC
  5
8E6
330
2
100
AcDbEntity
  8
0
100
AcDbCircle
 10
520.5580724438641
 20
110.4312354599731
 30
0.0
 40
2.0
100
AcDbArc
 50
40.60129499999964
 51
90.0
  0
LINE
  5
8E7
330
2
100
AcDbEntity
  8
0
100
AcDbLine
 10
607.5580724438641
 20
114.6028054599733
 30
0.0
 11
607.5580724438641
 21
97.43123545997327
 31
0.0
  0
LINE
  5
8E8
330
2
100
AcDbEntity
  8
0
100
AcDbLine
 10
507.5580724438641
 20
97.43123545997327
 30
0.0
 11
507.5580724438641
 21
164.4312354599731
 31
0.0
  0
ARC
  5
8EA
330
2
100
AcDbEntity
  8
HIDS
100
AcDbCircle
 10
346.5580724438642
 20
130.9312354599732
 30
0.0
 40
38.0
100
AcDbArc
 50
309.3567009999997
 51
50.64329900000029
  0
LINE
  5
8EB
330
2
100
AcDbEntity
  8
0
100
AcDbLine
 10
387.0580724438642
 20
170.7242954599731
 30
0.0
 11
387.0580724438642
 21
91.13815945997329
 31
0.0
  0
LINE
  5
8EC
330
2
100
AcDbEntity
  8
CENTER
100
AcDbLine
 10
346.5580724438642
 20
206.8187334599731
 30
0.0
 11
346.5580724438642
 21
83.3831094599733
 31
0.0
  0
LINE
  5
8ED
330
2
100
AcDbEntity
  8
0
100
AcDbLine
 10
538.5580724438641
 20
95.43123545997326
 30
0.0
 11
576.5580724438641
 21
95.43123545997326
 31
0.0
  0
LINE
  5
8EE
330
2
100
AcDbEntity
  8
0
100
AcDbLine
 10
600.5580724438641
 20
90.43123545997326
 30
0.0
 11
514.5580724438641
 21
90.43123545997326
 31
0.0
  0
LINE
  5
8F0
330
2
100
AcDbEntity
  8
HOJO
100
AcDbLine
 10
354.5580724438642
 20
93.43123545997327
 30
0.0
 11
387.0580724438642
 21
93.43123545997327
 31
0.0
  0
LINE
  5
8F1
330
2
100
AcDbEntity
  8
HOJO
100
AcDbLine
 10
354.5580724438642
 20
101.4312354599731
 30
0.0
 11
387.0580724438642
 21
101.4312354599731
 31
0.0
  0
LINE
  5
8F2
330
2
100
AcDbEntity
  8
0
100
AcDbLine
 10
346.5580724438642
 20
90.43123545997326
 30
0.0
 11
387.0580724438642
 21
91.13815945997329
 31
0.0
  0
LINE
  5
8F4
330
2
100
AcDbEntity
  8
HIDS
100
AcDbLine
 10
367.5929844438642
 20
93.29840745997328
 30
0.0
 11
346.5580724438642
 21
92.93123545997326
 31
0.0
  0
LINE
  5
8F6
330
2
100
AcDbEntity
  8
HOJO
100
AcDbLine
 10
338.5580724438641
 20
101.4312354599731
 30
0.0
 11
338.5580724438641
 21
93.43123545997327
 31
0.0
  0
LINE
  5
8F9
330
2
100
AcDbEntity
  8
HOJO
100
AcDbLine
 10
354.5580724438642
 20
101.4312354599731
 30
0.0
 11
354.5580724438642
 21
93.43123545997327
 31
0.0
  0
ARC
  5
8FE
330
2
100
AcDbEntity
  8
HIDS
100
AcDbCircle
 10
372.5580724438642
 20
99.22951445997325
 30
0.0
 40
3.0
100
AcDbArc
 50
129.3567050000004
 51
180.0
  0
ARC
  5
8FF
330
2
100
AcDbEntity
  8
HIDS
100
AcDbCircle
 10
367.5580724438642
 20
95.29810245997323
 30
0.0
 40
2.0
100
AcDbArc
 50
271.0
 51
0.0
  0
LINE
  5
900
330
2
100
AcDbEntity
  8
HIDS
100
AcDbLine
 10
369.5580724438642
 20
95.29810245997323
 30
0.0
 11
369.5580724438642
 21
99.22951445997325
 31
0.0
  0
ARC
  5
906
330
2
100
AcDbEntity
  8
0
100
AcDbCircle
 10
538.5580724438641
 20
117.4312354599732
 30
0.0
 40
22.0
100
AcDbArc
 50
249.5126879999995
 51
270.0
  0
ARC
  5
907
330
2
100
AcDbEntity
  8
0
100
AcDbCircle
 10
533.958707443864
 20
100.4312354599731
 30
0.0
 40
10.0
100
AcDbArc
 50
247.6683499999999
 51
270.0
  0
ARC
  5
908
330
2
100
AcDbEntity
  8
0
100
AcDbCircle
 10
514.5580724438641
 20
97.43123545997327
 30
0.0
 40
7.0
100
AcDbArc
 50
180.0
 51
312.6359249999997
  0
ARC
  5
90A
330
2
100
AcDbEntity
  8
0
100
AcDbCircle
 10
523.3634314438639
 20
87.86749945997327
 30
0.0
 40
6.0
100
AcDbArc
 50
59.64169699999944
 51
132.6359249999995
  0
ARC
  5
90B
330
2
100
AcDbEntity
  8
0
100
AcDbCircle
 10
519.6382114438639
 20
108.4312354599731
 30
0.0
 40
2.0
100
AcDbArc
 50
40.60129499999964
 51
90.0
  0
CIRCLE
  5
90D
330
2
100
AcDbEntity
  8
HOJO
100
AcDbCircle
 10
514.5580724438641
 20
97.43123545997327
 30
0.0
 40
4.0
  0
CIRCLE
  5
90E
330
2
100
AcDbEntity
  8
0
100
AcDbCircle
 10
514.5580724438641
 20
97.43123545997327
 30
0.0
 40
3.399999999999999
  0
ARC
  5
90F
330
2
100
AcDbEntity
  8
0
100
AcDbCircle
 10
519.1931434438641
 20
112.4312354599732
 30
0.0
 40
2.0
100
AcDbArc
 50
194.4775090000004
 51
270.0
  0
LINE
  5
910
330
2
100
AcDbEntity
  8
0
100
AcDbLine
 10
519.6382114438639
 20
110.4312354599731
 30
0.0
 11
519.1931434438641
 21
110.4312354599731
 31
0.0
  0
LINE
  5
911
330
2
100
AcDbEntity
  8
0
100
AcDbLine
 10
522.0765664438641
 20
111.7328104599732
 30
0.0
 11
531.0765664438641
 21
101.2328104599732
 31
0.0
  0
LINE
  5
912
330
2
100
AcDbEntity
  8
0
100
AcDbLine
 10
521.1567054438642
 20
109.7328104599732
 30
0.0
 11
529.0765664438643
 21
100.4929724599731
 31
0.0
  0
ARC
  5
913
330
2
100
AcDbEntity
  8
0
100
AcDbCircle
 10
541.5580724438641
 20
118.9312354599731
 30
0.0
 40
30.0
100
AcDbArc
 50
239.6416930000005
 51
247.6683499999999
  0
ARC
  5
914
330
2
100
AcDbEntity
  8
0
100
AcDbCircle
 10
531.5580724438641
 20
98.69625045997327
 30
0.0
 40
2.0
100
AcDbArc
 50
180.0
 51
249.5126799999996
  0
ARC
  5
915
330
2
100
AcDbEntity
  8
0
100
AcDbCircle
 10
533.5580724438641
 20
98.06630645997323
 30
0.0
 40
2.0
100
AcDbArc
 50
180.0
 51
255.5224909999994
  0
LINE
  5
916
330
2
100
AcDbEntity
  8
0
100
AcDbLine
 10
531.4338654438642
 20
100.6251134599732
 30
0.0
 11
529.4338654438639
 21
99.88527645997329
 31
0.0
  0
ARC
  5
917
330
2
100
AcDbEntity
  8
0
100
AcDbCircle
 10
527.5580724438641
 20
99.1913974599733
 30
0.0
 40
2.0
100
AcDbArc
 50
0.0
 51
40.60129499999964
  0
ARC
  5
918
330
2
100
AcDbEntity
  8
0
100
AcDbCircle
 10
529.5580724438641
 20
99.93123545997327
 30
0.0
 40
2.0
100
AcDbArc
 50
0.0
 51
40.60129499999964
  0
LINE
  5
919
330
2
100
AcDbEntity
  8
0
100
AcDbLine
 10
531.5580724438641
 20
99.93123545997327
 30
0.0
 11
531.5580724438641
 21
98.06630645997323
 31
0.0
  0
LINE
  5
91A
330
2
100
AcDbEntity
  8
0
100
AcDbLine
 10
529.5580724438641
 20
99.1913974599733
 30
0.0
 11
529.5580724438641
 21
98.69625045997327
 31
0.0
  0
LINE
  5
91B
330
2
100
AcDbEntity
  8
0
100
AcDbLine
 10
699.0319494438639
 20
100.6822424599731
 30
0.0
 11
680.6135534438642
 21
100.6822424599731
 31
0.0
  0
LINE
  5
91C
330
2
100
AcDbEntity
  8
0
100
AcDbLine
 10
697.1495034438643
 20
92.93123545997326
 30
0.0
 11
680.6135534438642
 21
92.93123545997326
 31
0.0
  0
LINE
  5
91D
330
2
100
AcDbEntity
  8
0
100
AcDbLine
 10
680.6135534438642
 20
100.6822734599732
 30
0.0
 11
607.5580724438641
 21
100.6822734599732
 31
0.0
  0
LINE
  5
91E
330
2
100
AcDbEntity
  8
0
100
AcDbLine
 10
680.6135534438642
 20
92.93123545997326
 30
0.0
 11
608.9168374438642
 21
92.93123545997326
 31
0.0
  0
ARC
  5
91F
330
2
100
AcDbEntity
  8
0
100
AcDbCircle
 10
591.7527134438642
 20
87.86749945997327
 30
0.0
 40
6.0
100
AcDbArc
 50
47.3640670000003
 51
120.3582990000005
  0
ARC
  5
920
330
2
100
AcDbEntity
  8
0
100
AcDbCircle
 10
595.4779334438642
 20
108.4312354599731
 30
0.0
 40
2.0
100
AcDbArc
 50
90.0
 51
139.3987120000005
  0
LINE
  5
921
330
2
100
AcDbEntity
  8
0
100
AcDbLine
 10
593.9594394438641
 20
109.7328104599732
 30
0.0
 11
586.0395784438642
 21
100.4929724599731
 31
0.0
  0
ARC
  5
923
330
2
100
AcDbEntity
  8
0
100
AcDbCircle
 10
581.1574374438642
 20
100.4312354599731
 30
0.0
 40
10.0
100
AcDbArc
 50
270.0
 51
292.3316350000003
  0
ARC
  5
924
330
2
100
AcDbEntity
  8
0
100
AcDbCircle
 10
576.5580724438641
 20
117.4312354599732
 30
0.0
 40
22.0
100
AcDbArc
 50
270.0
 51
290.4873049999995
  0
LINE
  5
925
330
2
100
AcDbEntity
  8
0
100
AcDbLine
 10
593.0395784438642
 20
111.7328104599732
 30
0.0
 11
584.0395784438642
 21
101.2328104599732
 31
0.0
  0
ARC
  5
926
330
2
100
AcDbEntity
  8
0
100
AcDbCircle
 10
573.5580724438641
 20
118.9312354599731
 30
0.0
 40
30.0
100
AcDbArc
 50
292.3316350000003
 51
300.3583069999994
  0
ARC
  5
927
330
2
100
AcDbEntity
  8
0
100
AcDbCircle
 10
583.5580724438641
 20
98.69625045997327
 30
0.0
 40
2.0
100
AcDbArc
 50
290.4873120000003
 51
0.0
  0
ARC
  5
928
330
2
100
AcDbEntity
  8
0
100
AcDbCircle
 10
581.5580724438641
 20
98.06630645997323
 30
0.0
 40
2.0
100
AcDbArc
 50
284.4775090000004
 51
0.0
  0
LINE
  5
929
330
2
100
AcDbEntity
  8
0
100
AcDbLine
 10
583.6822794438642
 20
100.6251134599732
 30
0.0
 11
585.6822794438642
 21
99.88527645997329
 31
0.0
  0
ARC
  5
92A
330
2
100
AcDbEntity
  8
0
100
AcDbCircle
 10
587.5580724438641
 20
99.1913974599733
 30
0.0
 40
2.0
100
AcDbArc
 50
139.3987120000005
 51
180.0
  0
ARC
  5
92B
330
2
100
AcDbEntity
  8
0
100
AcDbCircle
 10
585.5580724438641
 20
99.93123545997327
 30
0.0
 40
2.0
100
AcDbArc
 50
139.3987120000005
 51
180.0
  0
LINE
  5
92C
330
2
100
AcDbEntity
  8
0
100
AcDbLine
 10
583.5580724438641
 20
99.93123545997327
 30
0.0
 11
583.5580724438641
 21
98.06630645997323
 31
0.0
  0
LINE
  5
92D
330
2
100
AcDbEntity
  8
0
100
AcDbLine
 10
585.5580724438641
 20
99.1913974599733
 30
0.0
 11
585.5580724438641
 21
98.69625045997327
 31
0.0
  0
LINE
  5
92E
330
2
100
AcDbEntity
  8
0
100
AcDbLine
 10
608.2217074438642
 20
92.80654045997323
 30
0.0
 11
602.9910554438641
 21
90.86765245997327
 31
0.0
  0
ARC
  5
92F
330
2
100
AcDbEntity
  8
0
100
AcDbCircle
 10
600.5580724438641
 20
97.43123545997327
 30
0.0
 40
7.0
100
AcDbArc
 50
227.3640750000002
 51
0.0
  0
ARC
  5
931
330
2
100
AcDbEntity
  8
0
100
AcDbCircle
 10
608.9168374438642
 20
90.93123545997327
 30
0.0
 40
2.0
100
AcDbArc
 50
90.0
 51
110.3387299999996
  0
CIRCLE
  5
932
330
2
100
AcDbEntity
  8
HOJO
100
AcDbCircle
 10
600.5580724438641
 20
97.43123545997327
 30
0.0
 40
4.0
  0
CIRCLE
  5
933
330
2
100
AcDbEntity
  8
0
100
AcDbCircle
 10
600.5580724438641
 20
97.43123545997327
 30
0.0
 40
3.399999999999999
  0
ARC
  5
934
330
2
100
AcDbEntity
  8
0
100
AcDbCircle
 10
595.9230014438642
 20
112.4312354599732
 30
0.0
 40
2.0
100
AcDbArc
 50
270.0
 51
345.5224909999996
  0
LINE
  5
935
330
2
100
AcDbEntity
  8
0
100
AcDbLine
 10
595.4779334438642
 20
110.4312354599731
 30
0.0
 11
595.9230014438642
 21
110.4312354599731
 31
0.0
  0
ARC
  5
936
330
2
100
AcDbEntity
  8
0
100
AcDbCircle
 10
697.1495034438643
 20
95.93123545997327
 30
0.0
 40
3.0
100
AcDbArc
 50
270.0
 51
330.0003970000009
  0
LINE
  5
937
330
2
100
AcDbEntity
  8
0
100
AcDbLine
 10
699.7475864438642
 20
94.43123545997329
 30
0.0
 11
700.6135534438642
 21
95.93123545997327
 31
0.0
  0
LINE
  5
938
330
2
100
AcDbEntity
  8
0
100
AcDbLine
 10
701.1135534438643
 20
98.93123545997326
 30
0.0
 11
700.6135534438642
 21
98.43123545997329
 31
0.0
  0
LINE
  5
939
330
2
100
AcDbEntity
  8
0
100
AcDbLine
 10
508.2649814438641
 20
368.4513835609468
 30
0.0
 11
606.8511634438642
 21
368.4513835609468
 31
0.0
  0
LINE
  5
93A
330
2
100
AcDbEntity
  8
0
100
AcDbLine
 10
608.5580724438641
 20
355.9513835609468
 30
0.0
 11
508.0468424438643
 21
355.9513835609468
 31
0.0
  0
LINE
  5
93B
330
2
100
AcDbEntity
  8
0
100
AcDbLine
 10
606.8511634438642
 20
287.4513835609468
 30
0.0
 11
508.2649814438641
 21
287.4513835609468
 31
0.0
  0
LINE
  5
93C
330
2
100
AcDbEntity
  8
CENTER
100
AcDbLine
 10
500.0173014438642
 20
327.9513835609467
 30
0.0
 11
709.6340834120983
 21
327.9513835609467
 31
0.0
  0
LINE
  5
93D
330
2
100
AcDbEntity
  8
0
100
AcDbLine
 10
538.5580724438641
 20
166.4312354599731
 30
0.0
 11
576.5580724438641
 21
166.4312354599731
 31
0.0
  0
LINE
  5
93E
330
2
100
AcDbEntity
  8
0
100
AcDbLine
 10
600.5580724438641
 20
171.4312354599731
 30
0.0
 11
514.5580724438641
 21
171.4312354599731
 31
0.0
  0
LINE
  5
93F
330
2
100
AcDbEntity
  8
CENTER
100
AcDbLine
 10
500.0173014438642
 20
130.9312354599732
 30
0.0
 11
709.6340834120983
 21
130.9312354599732
 31
0.0
  0
LINE
  5
940
330
2
100
AcDbEntity
  8
HIDS
100
AcDbLine
 10
518.5580724438641
 20
287.4513835609468
 30
0.0
 11
518.5580724438641
 21
319.9513835609467
 31
0.0
  0
LINE
  5
941
330
2
100
AcDbEntity
  8
HIDS
100
AcDbLine
 10
510.5580724438641
 20
287.4513835609468
 30
0.0
 11
510.5580724438641
 21
319.9513835609467
 31
0.0
  0
LINE
  5
942
330
2
100
AcDbEntity
  8
HIDS
100
AcDbLine
 10
517.9580964438641
 20
355.9513835609468
 30
0.0
 11
517.9580964438641
 21
287.4513835609468
 31
0.0
  0
LINE
  5
943
330
2
100
AcDbEntity
  8
HIDS
100
AcDbLine
 10
511.1580484438641
 20
355.9513835609468
 30
0.0
 11
511.1580484438641
 21
287.4513835609468
 31
0.0
  0
LINE
  5
944
330
2
100
AcDbEntity
  8
0
100
AcDbLine
 10
532.1905794438642
 20
322.9513835609468
 30
0.0
 11
532.1905794438642
 21
287.4513835609468
 31
0.0
  0
LINE
  5
945
330
2
100
AcDbEntity
  8
0
100
AcDbLine
 10
523.2160924438642
 20
320.7473735609468
 30
0.0
 11
523.2160924438642
 21
287.4513835609468
 31
0.0
  0
LINE
  5
946
330
2
100
AcDbEntity
  8
0
100
AcDbLine
 10
507.5580724438641
 20
327.9513835609467
 30
0.0
 11
508.2649814438641
 21
287.4513835609468
 31
0.0
  0
LINE
  5
947
330
2
100
AcDbEntity
  8
CENTER
100
AcDbLine
 10
514.5580724438641
 20
284.0924665609468
 30
0.0
 11
514.5580724438641
 21
371.7674845609467
 31
0.0
  0
LINE
  5
948
330
2
100
AcDbEntity
  8
CENTER
100
AcDbLine
 10
546.5580724438641
 20
400.8229355609469
 30
0.0
 11
546.5580724438641
 21
255.0798315609468
 31
0.0
  0
LINE
  5
94A
330
2
100
AcDbEntity
  8
HIDS
100
AcDbLine
 10
354.5580724438642
 20
160.4312354599731
 30
0.0
 11
387.0580724438642
 21
160.4312354599731
 31
0.0
  0
LINE
  5
94B
330
2
100
AcDbEntity
  8
HIDS
100
AcDbLine
 10
354.5580724438642
 20
168.4312354599731
 30
0.0
 11
387.0580724438642
 21
168.4312354599731
 31
0.0
  0
LINE
  5
94C
330
2
100
AcDbEntity
  8
0
100
AcDbLine
 10
355.8560764438642
 20
141.8865884599731
 30
0.0
 11
387.0580724438642
 21
142.4312354599731
 31
0.0
  0
LINE
  5
94D
330
2
100
AcDbEntity
  8
0
100
AcDbLine
 10
353.5231604438641
 20
145.8458774599731
 30
0.0
 11
387.0580724438642
 21
146.4312354599731
 31
0.0
  0
LINE
  5
94E
330
2
100
AcDbEntity
  8
0
100
AcDbLine
 10
355.8560764438642
 20
119.9758824599732
 30
0.0
 11
387.0580724438642
 21
119.4312354599732
 31
0.0
  0
LINE
  5
94F
330
2
100
AcDbEntity
  8
0
100
AcDbLine
 10
353.5231604438641
 20
116.0165934599732
 30
0.0
 11
387.0580724438642
 21
115.4312354599732
 31
0.0
  0
LINE
  5
950
330
2
100
AcDbEntity
  8
0
100
AcDbLine
 10
346.5580724438642
 20
171.4312354599731
 30
0.0
 11
387.0580724438642
 21
170.7242954599731
 31
0.0
  0
LINE
  5
951
330
2
100
AcDbEntity
  8
0
100
AcDbLine
 10
353.8909884438642
 20
139.8868934599732
 30
0.0
 11
353.8909884438642
 21
121.9755774599732
 31
0.0
  0
LINE
  5
952
330
2
100
AcDbEntity
  8
0
100
AcDbLine
 10
339.2251564438641
 20
140.1050944599732
 30
0.0
 11
339.2251564438641
 21
121.7573764599731
 31
0.0
  0
LINE
  5
953
330
2
100
AcDbEntity
  8
0
100
AcDbLine
 10
341.5580724438641
 20
117.7980874599731
 30
0.0
 11
341.5580724438641
 21
144.0643834599731
 31
0.0
  0
LINE
  5
954
330
2
100
AcDbEntity
  8
0
100
AcDbLine
 10
351.5580724438642
 20
143.8461834599731
 30
0.0
 11
351.5580724438642
 21
118.0162874599732
 31
0.0
  0
ARC
  5
955
330
2
100
AcDbEntity
  8
0
100
AcDbCircle
 10
339.5580724438641
 20
117.7980874599731
 30
0.0
 40
2.0
100
AcDbArc
 50
271.0
 51
0.0
  0
ARC
  5
956
330
2
100
AcDbEntity
  8
0
100
AcDbCircle
 10
337.2251564438641
 20
121.7573764599731
 30
0.0
 40
2.0
100
AcDbArc
 50
271.0
 51
0.0
  0
LINE
  5
957
330
2
100
AcDbEntity
  8
0
100
AcDbLine
 10
341.1292084438641
 20
116.5605384599732
 30
0.0
 11
338.7962924438641
 21
120.5198284599731
 31
0.0
  0
ARC
  5
958
330
2
100
AcDbEntity
  8
0
100
AcDbCircle
 10
355.8909884438642
 20
121.9755774599732
 30
0.0
 40
2.0
100
AcDbArc
 50
180.0
 51
268.9999999999998
  0
ARC
  5
959
330
2
100
AcDbEntity
  8
0
100
AcDbCircle
 10
353.5580724438641
 20
118.0162874599732
 30
0.0
 40
2.0
100
AcDbArc
 50
180.0
 51
268.9999999999998
  0
LINE
  5
95A
330
2
100
AcDbEntity
  8
0
100
AcDbLine
 10
354.3198524438642
 20
120.7380284599733
 30
0.0
 11
351.9869364438642
 21
116.7787394599731
 31
0.0
  0
ARC
  5
95B
330
2
100
AcDbEntity
  8
0
100
AcDbCircle
 10
339.5580724438641
 20
144.0643834599731
 30
0.0
 40
2.0
100
AcDbArc
 50
0.0
 51
88.99999999999987
  0
LINE
  5
95C
330
2
100
AcDbEntity
  8
0
100
AcDbLine
 10
338.7962924438641
 20
141.3426424599731
 30
0.0
 11
341.1292084438641
 21
145.3019324599731
 31
0.0
  0
ARC
  5
95D
330
2
100
AcDbEntity
  8
0
100
AcDbCircle
 10
337.2251564438641
 20
140.1050944599732
 30
0.0
 40
2.0
100
AcDbArc
 50
0.0
 51
88.99999999999987
  0
ARC
  5
95E
330
2
100
AcDbEntity
  8
0
100
AcDbCircle
 10
353.5580724438641
 20
143.8461834599731
 30
0.0
 40
2.0
100
AcDbArc
 50
91.00000000000013
 51
180.0
  0
LINE
  5
95F
330
2
100
AcDbEntity
  8
0
100
AcDbLine
 10
354.3198524438642
 20
141.1244724599731
 30
0.0
 11
351.9869364438642
 21
145.0837314599731
 31
0.0
  0
ARC
  5
960
330
2
100
AcDbEntity
  8
0
100
AcDbCircle
 10
355.8909884438642
 20
139.8868934599732
 30
0.0
 40
2.0
100
AcDbArc
 50
91.00000000000013
 51
180.0
  0
LINE
  5
962
330
2
100
AcDbEntity
  8
HIDS
100
AcDbLine
 10
367.5929844438642
 20
168.5640784599731
 30
0.0
 11
346.5580724438642
 21
168.9312354599731
 31
0.0
  0
LINE
  5
964
330
2
100
AcDbEntity
  8
HIDS
100
AcDbLine
 10
338.5580724438641
 20
168.4312354599731
 30
0.0
 11
338.5580724438641
 21
160.4312354599731
 31
0.0
  0
LINE
  5
967
330
2
100
AcDbEntity
  8
HIDS
100
AcDbLine
 10
354.5580724438642
 20
168.4312354599731
 30
0.0
 11
354.5580724438642
 21
160.4312354599731
 31
0.0
  0
LINE
  5
96C
330
2
100
AcDbEntity
  8
HIDS
100
AcDbLine
 10
369.5580724438642
 20
166.5643834599731
 30
0.0
 11
369.5580724438642
 21
162.6329564599731
 31
0.0
  0
ARC
  5
96F
330
2
100
AcDbEntity
  8
HIDS
100
AcDbCircle
 10
372.5580724438642
 20
162.6329564599731
 30
0.0
 40
3.0
100
AcDbArc
 50
180.0
 51
230.6432949999994
  0
ARC
  5
970
330
2
100
AcDbEntity
  8
HIDS
100
AcDbCircle
 10
367.5580724438642
 20
166.5643834599731
 30
0.0
 40
2.0
100
AcDbArc
 50
0.0
 51
88.99999999999987
  0
LINE
  5
974
330
2
100
AcDbEntity
  8
0
100
AcDbLine
 10
388.0580724438642
 20
123.1198954599733
 30
0.0
 11
388.0580724438642
 21
138.7425754599732
 31
0.0
  0
ARC
  5
975
330
2
100
AcDbEntity
  8
0
100
AcDbCircle
 10
393.5580724438642
 20
130.9312354599732
 30
0.0
 40
2.5
100
AcDbArc
 50
90.0
 51
270.0
  0
LINE
  5
976
330
2
100
AcDbEntity
  8
0
100
AcDbLine
 10
415.0580724438642
 20
138.4312354599732
 30
0.0
 11
415.0580724438642
 21
123.4312354599731
 31
0.0
  0
LINE
  5
977
330
2
100
AcDbEntity
  8
0
100
AcDbLine
 10
415.0580724438642
 20
128.4312354599732
 30
0.0
 11
393.5580724438642
 21
128.4312354599732
 31
0.0
  0
LINE
  5
978
330
2
100
AcDbEntity
  8
0
100
AcDbLine
 10
415.0580724438642
 20
123.4312354599731
 30
0.0
 11
388.0580724438642
 21
123.4312354599731
 31
0.0
  0
ARC
  5
979
330
2
100
AcDbEntity
  8
0
100
AcDbCircle
 10
387.5580724438642
 20
123.1198954599733
 30
0.0
 40
0.5
100
AcDbArc
 50
299.9999999999997
 51
0.0
  0
LINE
  5
97A
330
2
100
AcDbEntity
  8
0
100
AcDbLine
 10
387.2806374438642
 20
122.4312354599731
 30
0.0
 11
387.0580724438642
 21
122.4312354599731
 31
0.0
  0
ARC
  5
97B
330
2
100
AcDbEntity
  8
0
100
AcDbCircle
 10
386.6561554438642
 20
124.3312294599732
 30
0.0
 40
2.0
100
AcDbArc
 50
288.1948699999997
 51
299.9999999999997
  0
LINE
  5
97C
330
2
100
AcDbEntity
  8
0
100
AcDbLine
 10
387.8080724438642
 20
122.6869114599732
 30
0.0
 11
387.6561554438642
 21
122.5991734599731
 31
0.0
  0
LINE
  5
97D
330
2
100
AcDbEntity
  8
0
100
AcDbLine
 10
415.0580724438642
 20
133.4312354599732
 30
0.0
 11
393.5580724438642
 21
133.4312354599732
 31
0.0
  0
LINE
  5
97E
330
2
100
AcDbEntity
  8
0
100
AcDbLine
 10
415.0580724438642
 20
138.4312354599732
 30
0.0
 11
388.0580724438642
 21
138.4312354599732
 31
0.0
  0
LINE
  5
97F
330
2
100
AcDbEntity
  8
0
100
AcDbLine
 10
387.2806374438642
 20
139.4312354599732
 30
0.0
 11
387.0580724438642
 21
139.4312354599732
 31
0.0
  0
ARC
  5
980
330
2
100
AcDbEntity
  8
0
100
AcDbCircle
 10
386.6561554438642
 20
137.5312414599731
 30
0.0
 40
2.0
100
AcDbArc
 50
60.00000000000028
 51
71.8051300000003
  0
ARC
  5
981
330
2
100
AcDbEntity
  8
0
100
AcDbCircle
 10
387.5580724438642
 20
138.7425754599732
 30
0.0
 40
0.5
100
AcDbArc
 50
0.0
 51
60.00000000000028
  0
LINE
  5
982
330
2
100
AcDbEntity
  8
0
100
AcDbLine
 10
387.8080724438642
 20
139.1755594599732
 30
0.0
 11
387.6561554438642
 21
139.2632974599731
 31
0.0
  0
LINE
  5
983
330
2
100
AcDbEntity
  8
0
100
AcDbLine
 10
522.0765664438641
 20
150.1296604599732
 30
0.0
 11
531.0765664438641
 21
160.6296604599732
 31
0.0
  0
LINE
  5
984
330
2
100
AcDbEntity
  8
0
100
AcDbLine
 10
521.1567054438642
 20
152.1296604599732
 30
0.0
 11
529.0765664438643
 21
161.3694984599731
 31
0.0
  0
CIRCLE
  5
985
330
2
100
AcDbEntity
  8
0
100
AcDbCircle
 10
546.5580724438641
 20
130.9312354599732
 30
0.0
 40
15.0
  0
LINE
  5
986
330
2
100
AcDbEntity
  8
0
100
AcDbLine
 10
516.5580724438641
 20
144.4312354599731
 30
0.0
 11
516.5580724438641
 21
117.4312354599732
 31
0.0
  0
LINE
  5
987
330
2
100
AcDbEntity
  8
0
100
AcDbLine
 10
511.5580724438641
 20
120.2596654599732
 30
0.0
 11
511.5580724438641
 21
141.6028054599733
 31
0.0
  0
LINE
  5
988
330
2
100
AcDbEntity
  8
0
100
AcDbLine
 10
520.5580724438641
 20
112.4312354599732
 30
0.0
 11
518.7843294438642
 21
112.4312354599732
 31
0.0
  0
ARC
  5
989
330
2
100
AcDbEntity
  8
0
100
AcDbCircle
 10
509.5580724438641
 20
120.2596654599732
 30
0.0
 40
2.0
100
AcDbArc
 50
315.0
 51
0.0
  0
ARC
  5
98A
330
2
100
AcDbEntity
  8
0
100
AcDbCircle
 10
509.5580724438641
 20
114.6028054599733
 30
0.0
 40
2.0
100
AcDbArc
 50
135.0
 51
180.0
  0
LINE
  5
98B
330
2
100
AcDbEntity
  8
0
100
AcDbLine
 10
510.9722574438642
 20
118.8454504599732
 30
0.0
 11
508.1438874438642
 21
116.0170204599731
 31
0.0
  0
LINE
  5
98C
330
2
100
AcDbEntity
  8
0
100
AcDbLine
 10
520.5580724438641
 20
149.4312354599731
 30
0.0
 11
518.7843294438642
 21
149.4312354599731
 31
0.0
  0
ARC
  5
98D
330
2
100
AcDbEntity
  8
0
100
AcDbCircle
 10
519.6382114438639
 20
153.4312354599731
 30
0.0
 40
2.0
100
AcDbArc
 50
270.0
 51
319.3987050000003
  0
LINE
  5
98E
330
2
100
AcDbEntity
  8
0
100
AcDbLine
 10
510.9722574438642
 20
143.0170204599732
 30
0.0
 11
508.1438874438642
 21
145.8454504599731
 31
0.0
  0
ARC
  5
98F
330
2
100
AcDbEntity
  8
0
100
AcDbCircle
 10
509.5580724438641
 20
141.6028054599733
 30
0.0
 40
2.0
100
AcDbArc
 50
0.0
 51
45.0
  0
ARC
  5
990
330
2
100
AcDbEntity
  8
0
100
AcDbCircle
 10
509.5580724438641
 20
147.2596654599731
 30
0.0
 40
2.0
100
AcDbArc
 50
180.0
 51
225.0
  0
ARC
  5
991
330
2
100
AcDbEntity
  8
0
100
AcDbCircle
 10
538.5580724438641
 20
144.4312354599731
 30
0.0
 40
22.0
100
AcDbArc
 50
165.5224909999994
 51
180.0
  0
ARC
  5
992
330
2
100
AcDbEntity
  8
0
100
AcDbCircle
 10
519.1931434438641
 20
149.4312354599731
 30
0.0
 40
2.0
100
AcDbArc
 50
90.0
 51
165.5224909999994
  0
ARC
  5
993
330
2
100
AcDbEntity
  8
0
100
AcDbCircle
 10
518.7843294438642
 20
147.4312354599731
 30
0.0
 40
2.0
100
AcDbArc
 50
90.0
 51
171.3730769999999
  0
LINE
  5
994
330
2
100
AcDbEntity
  8
0
100
AcDbLine
 10
519.6382114438639
 20
151.4312354599731
 30
0.0
 11
519.1931434438641
 21
151.4312354599731
 31
0.0
  0
LINE
  5
995
330
2
100
AcDbEntity
  8
0
100
AcDbLine
 10
521.3937654438641
 20
149.6142184599733
 30
0.0
 11
520.4739054438642
 21
151.6142184599733
 31
0.0
  0
ARC
  5
996
330
2
100
AcDbEntity
  8
0
100
AcDbCircle
 10
520.5580724438641
 20
151.4312354599731
 30
0.0
 40
2.0
100
AcDbArc
 50
270.0
 51
319.3987050000003
  0
ARC
  5
997
330
2
100
AcDbEntity
  8
0
100
AcDbCircle
 10
546.5580724438641
 20
130.9312354599732
 30
0.0
 40
7.5
100
AcDbArc
 50
199.4712219999995
 51
160.5287780000004
  0
LINE
  5
998
330
2
100
AcDbEntity
  8
0
100
AcDbLine
 10
542.0580724438641
 20
133.4312354599732
 30
0.0
 11
542.0580724438641
 21
128.4312354599732
 31
0.0
  0
LINE
  5
999
330
2
100
AcDbEntity
  8
0
100
AcDbLine
 10
537.0580724438641
 20
133.4312354599732
 30
0.0
 11
537.0580724438641
 21
128.4312354599732
 31
0.0
  0
ARC
  5
99A
330
2
100
AcDbEntity
  8
0
100
AcDbCircle
 10
546.5580724438641
 20
130.9312354599732
 30
0.0
 40
8.5
100
AcDbArc
 50
197.1046299999993
 51
162.8953700000005
  0
LINE
  5
99B
330
2
100
AcDbEntity
  8
0
100
AcDbLine
 10
542.0580724438641
 20
128.4312354599732
 30
0.0
 11
537.0580724438641
 21
128.4312354599732
 31
0.0
  0
LINE
  5
99C
330
2
100
AcDbEntity
  8
0
100
AcDbLine
 10
542.0580724438641
 20
133.4312354599732
 30
0.0
 11
537.0580724438641
 21
133.4312354599732
 31
0.0
  0
ARC
  5
99D
330
2
100
AcDbEntity
  8
0
100
AcDbCircle
 10
538.5580724438641
 20
144.4312354599731
 30
0.0
 40
22.0
100
AcDbArc
 50
90.0
 51
110.4873120000003
  0
ARC
  5
99E
330
2
100
AcDbEntity
  8
0
100
AcDbCircle
 10
523.3634314438639
 20
173.9949864599731
 30
0.0
 40
6.0
100
AcDbArc
 50
227.3640750000002
 51
300.3583069999994
  0
CIRCLE
  5
9A0
330
2
100
AcDbEntity
  8
HOJO
100
AcDbCircle
 10
514.5580724438641
 20
164.4312354599731
 30
0.0
 40
4.0
  0
ARC
  5
9A1
330
2
100
AcDbEntity
  8
0
100
AcDbCircle
 10
514.5580724438641
 20
164.4312354599731
 30
0.0
 40
7.0
100
AcDbArc
 50
47.3640670000003
 51
180.0
  0
CIRCLE
  5
9A2
330
2
100
AcDbEntity
  8
0
100
AcDbCircle
 10
514.5580724438641
 20
164.4312354599731
 30
0.0
 40
3.399999999999999
  0
ARC
  5
9A4
330
2
100
AcDbEntity
  8
0
100
AcDbCircle
 10
531.5580724438641
 20
163.1662204599731
 30
0.0
 40
2.0
100
AcDbArc
 50
110.4873120000003
 51
180.0
  0
ARC
  5
9A5
330
2
100
AcDbEntity
  8
0
100
AcDbCircle
 10
533.5580724438641
 20
163.7961644599731
 30
0.0
 40
2.0
100
AcDbArc
 50
104.4775090000003
 51
180.0
  0
LINE
  5
9A6
330
2
100
AcDbEntity
  8
0
100
AcDbLine
 10
531.4338654438642
 20
161.2373574599732
 30
0.0
 11
529.4338654438639
 21
161.9771944599731
 31
0.0
  0
ARC
  5
9A7
330
2
100
AcDbEntity
  8
0
100
AcDbCircle
 10
527.5580724438641
 20
162.6710734599731
 30
0.0
 40
2.0
100
AcDbArc
 50
319.3987050000003
 51
0.0
  0
ARC
  5
9A8
330
2
100
AcDbEntity
  8
0
100
AcDbCircle
 10
529.5580724438641
 20
161.9312354599731
 30
0.0
 40
2.0
100
AcDbArc
 50
319.3987050000003
 51
0.0
  0
LINE
  5
9A9
330
2
100
AcDbEntity
  8
0
100
AcDbLine
 10
531.5580724438641
 20
161.9312354599731
 30
0.0
 11
531.5580724438641
 21
163.7961644599731
 31
0.0
  0
LINE
  5
9AA
330
2
100
AcDbEntity
  8
0
100
AcDbLine
 10
529.5580724438641
 20
162.6710734599731
 30
0.0
 11
529.5580724438641
 21
163.1662204599731
 31
0.0
  0
ARC
  5
9AB
330
2
100
AcDbEntity
  8
0
100
AcDbCircle
 10
541.5580724438641
 20
142.9312354599731
 30
0.0
 40
30.0
100
AcDbArc
 50
112.331642
 51
120.3582990000005
  0
ARC
  5
9AC
330
2
100
AcDbEntity
  8
0
100
AcDbCircle
 10
533.958707443864
 20
161.4312354599731
 30
0.0
 40
10.0
100
AcDbArc
 50
90.0
 51
112.331642
  0
LINE
  5
9AD
330
2
100
AcDbEntity
  8
0
100
AcDbLine
 10
539.4870274438642
 20
259.4513835609467
 30
0.0
 11
539.4870274438642
 21
280.9513835609468
 31
0.0
  0
LINE
  5
9AE
330
2
100
AcDbEntity
  8
0
100
AcDbLine
 10
537.0580724438641
 20
259.4513835609467
 30
0.0
 11
537.0580724438641
 21
283.4513835609468
 31
0.0
  0
LINE
  5
9AF
330
2
100
AcDbEntity
  8
0
100
AcDbLine
 10
554.0580724438641
 20
286.4513835609468
 30
0.0
 11
554.0580724438641
 21
259.4513835609467
 31
0.0
  0
LINE
  5
9B0
330
2
100
AcDbEntity
  8
0
100
AcDbLine
 10
537.0580724438641
 20
259.4513835609467
 30
0.0
 11
554.0580724438641
 21
259.4513835609467
 31
0.0
  0
LINE
  5
9B1
330
2
100
AcDbEntity
  8
0
100
AcDbLine
 10
538.7467324438642
 20
286.4513835609468
 30
0.0
 11
554.3694124438642
 21
286.4513835609468
 31
0.0
  0
LINE
  5
9B2
330
2
100
AcDbEntity
  8
0
100
AcDbLine
 10
538.0580724438641
 20
287.2288185609468
 30
0.0
 11
538.0580724438641
 21
287.4513835609468
 31
0.0
  0
ARC
  5
9B3
330
2
100
AcDbEntity
  8
0
100
AcDbCircle
 10
539.9580964438642
 20
287.8533005609468
 30
0.0
 40
2.0
100
AcDbArc
 50
198.1948700000006
 51
210.0
  0
ARC
  5
9B4
330
2
100
AcDbEntity
  8
0
100
AcDbCircle
 10
538.7467324438642
 20
286.9513835609467
 30
0.0
 40
0.5
100
AcDbArc
 50
210.0
 51
270.0
  0
LINE
  5
9B5
330
2
100
AcDbEntity
  8
0
100
AcDbLine
 10
538.3137484438641
 20
286.7013835609467
 30
0.0
 11
538.2260414438642
 21
286.8533005609468
 31
0.0
  0
ARC
  5
9B6
330
2
100
AcDbEntity
  8
0
100
AcDbCircle
 10
531.9870274438642
 20
280.9513835609468
 30
0.0
 40
7.500003999999998
100
AcDbArc
 50
0.0
 51
19.47121200000053
  0
LINE
  5
9B7
330
2
100
AcDbEntity
  8
0
100
AcDbLine
 10
539.0580724438641
 20
283.4513835609468
 30
0.0
 11
539.0580724438641
 21
286.4513835609468
 31
0.0
  0
LINE
  5
9B8
330
2
100
AcDbEntity
  8
0
100
AcDbLine
 10
537.0580724438641
 20
283.4513835609468
 30
0.0
 11
539.0580724438641
 21
283.4513835609468
 31
0.0
  0
LINE
  5
9B9
330
2
100
AcDbEntity
  8
0
100
AcDbLine
 10
555.0580724438641
 20
287.2288185609468
 30
0.0
 11
555.0580724438641
 21
287.4513835609468
 31
0.0
  0
ARC
  5
9BA
330
2
100
AcDbEntity
  8
0
100
AcDbCircle
 10
553.1580484438641
 20
287.8533005609468
 30
0.0
 40
2.0
100
AcDbArc
 50
329.9999999999998
 51
341.8051279999994
  0
ARC
  5
9BB
330
2
100
AcDbEntity
  8
0
100
AcDbCircle
 10
554.3694124438642
 20
286.9513835609467
 30
0.0
 40
0.5
100
AcDbArc
 50
270.0
 51
329.9999999999998
  0
LINE
  5
9BC
330
2
100
AcDbEntity
  8
0
100
AcDbLine
 10
554.8023964438641
 20
286.7013835609467
 30
0.0
 11
554.8901034438642
 21
286.8533005609468
 31
0.0
  0
LINE
  5
9BD
330
2
100
AcDbEntity
  8
0
100
AcDbLine
 10
539.4870274438642
 20
396.4513835609468
 30
0.0
 11
539.4870274438642
 21
374.9513835609468
 31
0.0
  0
LINE
  5
9BE
330
2
100
AcDbEntity
  8
0
100
AcDbLine
 10
537.0580724438641
 20
396.4513835609468
 30
0.0
 11
537.0580724438641
 21
372.4513835609467
 31
0.0
  0
LINE
  5
9BF
330
2
100
AcDbEntity
  8
0
100
AcDbLine
 10
554.0580724438641
 20
369.4513835609467
 30
0.0
 11
554.0580724438641
 21
396.4513835609468
 31
0.0
  0
LINE
  5
9C0
330
2
100
AcDbEntity
  8
HIDS
100
AcDbLine
 10
510.5580724438641
 20
355.9513835609468
 30
0.0
 11
510.5580724438641
 21
335.9513835609468
 31
0.0
  0
LINE
  5
9C1
330
2
100
AcDbEntity
  8
HIDS
100
AcDbLine
 10
518.5580724438641
 20
355.9513835609468
 30
0.0
 11
518.5580724438641
 21
335.9513835609468
 31
0.0
  0
LINE
  5
9C2
330
2
100
AcDbEntity
  8
0
100
AcDbLine
 10
523.2160924438642
 20
368.4513835609468
 30
0.0
 11
523.2160924438642
 21
335.1553935609468
 31
0.0
  0
LINE
  5
9C3
330
2
100
AcDbEntity
  8
0
100
AcDbLine
 10
532.1905794438642
 20
368.4513835609468
 30
0.0
 11
532.1905794438642
 21
332.9513835609468
 31
0.0
  0
LINE
  5
9C4
330
2
100
AcDbEntity
  8
0
100
AcDbLine
 10
507.5580724438641
 20
327.9513835609467
 30
0.0
 11
508.2649814438641
 21
368.4513835609468
 31
0.0
  0
ARC
  5
9C5
330
2
100
AcDbEntity
  8
0
100
AcDbCircle
 10
523.2160924438642
 20
331.7473735609468
 30
0.0
 40
11.0
100
AcDbArc
 50
244.2822720000001
 51
291.0753169999998
  0
LINE
  5
9C6
330
2
100
AcDbEntity
  8
0
100
AcDbLine
 10
532.1905794438642
 20
322.9513835609468
 30
0.0
 11
514.6453524438641
 21
322.9513835609468
 31
0.0
  0
ARC
  5
9C7
330
2
100
AcDbEntity
  8
0
100
AcDbCircle
 10
523.2160924438642
 20
324.1553935609468
 30
0.0
 40
11.0
100
AcDbArc
 50
68.92466700000015
 51
115.7177279999995
  0
LINE
  5
9C8
330
2
100
AcDbEntity
  8
0
100
AcDbLine
 10
532.1905794438642
 20
332.9513835609468
 30
0.0
 11
514.6453524438641
 21
332.9513835609468
 31
0.0
  0
LINE
  5
9C9
330
2
100
AcDbEntity
  8
HIDS
100
AcDbLine
 10
510.5580724438641
 20
319.9513835609467
 30
0.0
 11
518.5580724438641
 21
319.9513835609467
 31
0.0
  0
LINE
  5
9CA
330
2
100
AcDbEntity
  8
0
100
AcDbLine
 10
518.4427774438639
 20
321.8370035609467
 30
0.0
 11
517.4659704438643
 21
322.3075235609468
 31
0.0
  0
ARC
  5
9CB
330
2
100
AcDbEntity
  8
0
100
AcDbCircle
 10
514.6453524438641
 20
316.4513835609468
 30
0.0
 40
6.5
100
AcDbArc
 50
64.28227200000036
 51
90.0
  0
LINE
  5
9CC
330
2
100
AcDbEntity
  8
HIDS
100
AcDbLine
 10
510.5580724438641
 20
335.9513835609468
 30
0.0
 11
518.5580724438641
 21
335.9513835609468
 31
0.0
  0
LINE
  5
9CD
330
2
100
AcDbEntity
  8
0
100
AcDbLine
 10
518.4427774438639
 20
334.0657635609468
 30
0.0
 11
517.4659704438643
 21
333.5952435609468
 31
0.0
  0
ARC
  5
9CE
330
2
100
AcDbEntity
  8
0
100
AcDbCircle
 10
514.6453524438641
 20
339.4513835609468
 30
0.0
 40
6.5
100
AcDbArc
 50
270.0
 51
295.7177279999996
  0
ARC
  5
9CF
330
2
100
AcDbEntity
  8
0
100
AcDbCircle
 10
532.1905794438642
 20
316.4513835609468
 30
0.0
 40
6.5
100
AcDbArc
 50
90.0
 51
111.0753329999997
  0
LINE
  5
9D0
330
2
100
AcDbEntity
  8
0
100
AcDbLine
 10
529.8531774438641
 20
322.5165995609468
 30
0.0
 11
527.1716584438641
 21
321.4831825609469
 31
0.0
  0
ARC
  5
9D1
330
2
100
AcDbEntity
  8
0
100
AcDbCircle
 10
532.1905794438642
 20
339.4513835609468
 30
0.0
 40
6.5
100
AcDbArc
 50
248.924667
 51
270.0
  0
LINE
  5
9D2
330
2
100
AcDbEntity
  8
0
100
AcDbLine
 10
529.8531774438641
 20
333.3861675609468
 30
0.0
 11
527.1716584438641
 21
334.4195845609468
 31
0.0
  0
LINE
  5
9D3
330
2
100
AcDbEntity
  8
HIDS
100
AcDbLine
 10
518.8080724438641
 20
355.9513835609468
 30
0.0
 11
518.8080724438641
 21
368.4513835609468
 31
0.0
  0
LINE
  5
9D4
330
2
100
AcDbEntity
  8
HIDS
100
AcDbLine
 10
510.3080724438641
 20
355.9513835609468
 30
0.0
 11
510.3080724438641
 21
368.4513835609468
 31
0.0
  0
LINE
  5
9D5
330
2
100
AcDbEntity
  8
0
100
AcDbLine
 10
554.3694124438642
 20
369.4513835609467
 30
0.0
 11
538.7467324438642
 21
369.4513835609467
 31
0.0
  0
ARC
  5
9D6
330
2
100
AcDbEntity
  8
0
100
AcDbCircle
 10
531.9870274438642
 20
374.9513835609468
 30
0.0
 40
7.500003999999998
100
AcDbArc
 50
340.5287879999994
 51
0.0
  0
LINE
  5
9D7
330
2
100
AcDbEntity
  8
0
100
AcDbLine
 10
538.0580724438641
 20
368.4513835609468
 30
0.0
 11
538.0580724438641
 21
368.6739485609468
 31
0.0
  0
ARC
  5
9D8
330
2
100
AcDbEntity
  8
0
100
AcDbCircle
 10
538.7467324438642
 20
368.9513835609468
 30
0.0
 40
0.5
100
AcDbArc
 50
90.0
 51
149.9999999999998
  0
LINE
  5
9D9
330
2
100
AcDbEntity
  8
0
100
AcDbLine
 10
538.3137484438641
 20
369.2013835609468
 30
0.0
 11
538.2260414438642
 21
369.0494665609469
 31
0.0
  0
ARC
  5
9DA
330
2
100
AcDbEntity
  8
0
100
AcDbCircle
 10
539.9580964438642
 20
368.0494665609468
 30
0.0
 40
2.0
100
AcDbArc
 50
149.9999999999998
 51
161.8051299999991
  0
LINE
  5
9DB
330
2
100
AcDbEntity
  8
0
100
AcDbLine
 10
539.0580724438641
 20
372.4513835609467
 30
0.0
 11
539.0580724438641
 21
369.4513835609467
 31
0.0
  0
LINE
  5
9DC
330
2
100
AcDbEntity
  8
0
100
AcDbLine
 10
537.0580724438641
 20
372.4513835609467
 30
0.0
 11
539.0580724438641
 21
372.4513835609467
 31
0.0
  0
LINE
  5
9DD
330
2
100
AcDbEntity
  8
0
100
AcDbLine
 10
555.0580724438641
 20
368.4513835609468
 30
0.0
 11
555.0580724438641
 21
368.6739485609468
 31
0.0
  0
ARC
  5
9DE
330
2
100
AcDbEntity
  8
0
100
AcDbCircle
 10
553.1580484438641
 20
368.0494665609468
 30
0.0
 40
2.0
100
AcDbArc
 50
18.19487200000064
 51
30.00000000000014
  0
LINE
  5
9DF
330
2
100
AcDbEntity
  8
0
100
AcDbLine
 10
554.8023964438641
 20
369.2013835609468
 30
0.0
 11
554.8901034438642
 21
369.0494665609469
 31
0.0
  0
ARC
  5
9E0
330
2
100
AcDbEntity
  8
0
100
AcDbCircle
 10
554.3694124438642
 20
368.9513835609468
 30
0.0
 40
0.5
100
AcDbArc
 50
30.00000000000014
 51
90.0
  0
LINE
  5
9E1
330
2
100
AcDbEntity
  8
0
100
AcDbLine
 10
537.0580724438641
 20
396.4513835609468
 30
0.0
 11
554.0580724438641
 21
396.4513835609468
 31
0.0
  0
LINE
  5
9E2
330
2
100
AcDbEntity
  8
HIDS
100
AcDbLine
 10
604.5580724438641
 20
287.4513835609468
 30
0.0
 11
604.5580724438641
 21
319.9513835609467
 31
0.0
  0
LINE
  5
9E3
330
2
100
AcDbEntity
  8
HIDS
100
AcDbLine
 10
596.5580724438641
 20
287.4513835609468
 30
0.0
 11
596.5580724438641
 21
319.9513835609467
 31
0.0
  0
LINE
  5
9E4
330
2
100
AcDbEntity
  8
HIDS
100
AcDbLine
 10
603.9580964438641
 20
355.9513835609468
 30
0.0
 11
603.9580964438641
 21
287.4513835609468
 31
0.0
  0
LINE
  5
9E5
330
2
100
AcDbEntity
  8
HIDS
100
AcDbLine
 10
597.1580484438641
 20
355.9513835609468
 30
0.0
 11
597.1580484438641
 21
287.4513835609468
 31
0.0
  0
LINE
  5
9E6
330
2
100
AcDbEntity
  8
0
100
AcDbLine
 10
700.6135534438642
 20
362.9513835609468
 30
0.0
 11
700.6135534438642
 21
292.9513835609467
 31
0.0
  0
LINE
  5
9E7
330
2
100
AcDbEntity
  8
0
100
AcDbLine
 10
701.1135534438643
 20
359.9513835609467
 30
0.0
 11
701.1135534438643
 21
295.9513835609468
 31
0.0
  0
LINE
  5
9E8
330
2
100
AcDbEntity
  8
0
100
AcDbLine
 10
591.9000524438642
 20
320.7473735609468
 30
0.0
 11
591.9000524438642
 21
287.4513835609468
 31
0.0
  0
LINE
  5
9E9
330
2
100
AcDbEntity
  8
0
100
AcDbLine
 10
582.925565443864
 20
322.9513835609468
 30
0.0
 11
582.925565443864
 21
287.4513835609468
 31
0.0
  0
LINE
  5
9EA
330
2
100
AcDbEntity
  8
0
100
AcDbLine
 10
606.8511634438642
 20
287.4513835609468
 30
0.0
 11
607.1565834438642
 21
304.9513835609467
 31
0.0
  0
LINE
  5
9EB
330
2
100
AcDbEntity
  8
CENTER
100
AcDbLine
 10
600.5580724438641
 20
284.0924665609468
 30
0.0
 11
600.5580724438641
 21
371.7674845609467
 31
0.0
  0
LINE
  5
9EC
330
2
100
AcDbEntity
  8
0
100
AcDbLine
 10
680.6135534438642
 20
289.9513835609468
 30
0.0
 11
680.6135534438642
 21
302.9513835609467
 31
0.0
  0
LINE
  5
9ED
330
2
100
AcDbEntity
  8
0
100
AcDbLine
 10
699.0319494438639
 20
161.1802284599733
 30
0.0
 11
680.6135534438642
 21
161.1802284599733
 31
0.0
  0
LINE
  5
9EE
330
2
100
AcDbEntity
  8
0
100
AcDbLine
 10
697.1495034438643
 20
168.9312354599731
 30
0.0
 11
680.6135534438642
 21
168.9312354599731
 31
0.0
  0
LINE
  5
9EF
330
2
100
AcDbEntity
  8
0
100
AcDbLine
 10
697.1495034438643
 20
289.9513835609468
 30
0.0
 11
680.6135534438642
 21
289.9513835609468
 31
0.0
  0
LINE
  5
9F2
330
2
100
AcDbEntity
  8
0
100
AcDbLine
 10
680.6135534438642
 20
161.1801974599731
 30
0.0
 11
607.5580724438641
 21
161.1801974599731
 31
0.0
  0
LINE
  5
9F3
330
2
100
AcDbEntity
  8
0
100
AcDbLine
 10
680.6135534438642
 20
168.9312354599731
 30
0.0
 11
608.9168374438642
 21
168.9312354599731
 31
0.0
  0
LINE
  5
9F4
330
2
100
AcDbEntity
  8
0
100
AcDbLine
 10
593.0395784438642
 20
150.1296604599732
 30
0.0
 11
584.0395784438642
 21
160.6296604599732
 31
0.0
  0
LINE
  5
9F5
330
2
100
AcDbEntity
  8
0
100
AcDbLine
 10
593.9594394438641
 20
152.1296604599732
 30
0.0
 11
586.0395784438642
 21
161.3694984599731
 31
0.0
  0
LINE
  5
9F6
330
2
100
AcDbEntity
  8
0
100
AcDbLine
 10
607.5580724438641
 20
164.4312354599731
 30
0.0
 11
607.5580724438641
 21
147.2596654599731
 31
0.0
  0
LINE
  5
9F7
330
2
100
AcDbEntity
  8
0
100
AcDbLine
 10
593.7223794438641
 20
149.6142184599733
 30
0.0
 11
594.642239443864
 21
151.6142184599733
 31
0.0
  0
ARC
  5
9F8
330
2
100
AcDbEntity
  8
0
100
AcDbCircle
 10
594.5580724438641
 20
151.4312354599731
 30
0.0
 40
2.0
100
AcDbArc
 50
220.6012879999994
 51
270.0
  0
ARC
  5
9F9
330
2
100
AcDbEntity
  8
0
100
AcDbCircle
 10
595.4779334438642
 20
153.4312354599731
 30
0.0
 40
2.0
100
AcDbArc
 50
220.6012879999994
 51
270.0
  0
LINE
  5
9FA
330
2
100
AcDbEntity
  8
0
100
AcDbLine
 10
598.5580724438641
 20
144.4312354599731
 30
0.0
 11
598.5580724438641
 21
117.4312354599732
 31
0.0
  0
LINE
  5
9FB
330
2
100
AcDbEntity
  8
0
100
AcDbLine
 10
603.5580724438641
 20
120.2596654599732
 30
0.0
 11
603.5580724438641
 21
141.6028054599733
 31
0.0
  0
LINE
  5
9FC
330
2
100
AcDbEntity
  8
0
100
AcDbLine
 10
594.5580724438641
 20
112.4312354599732
 30
0.0
 11
596.3318154438641
 21
112.4312354599732
 31
0.0
  0
ARC
  5
9FD
330
2
100
AcDbEntity
  8
0
100
AcDbCircle
 10
605.5580724438641
 20
120.2596654599732
 30
0.0
 40
2.0
100
AcDbArc
 50
180.0
 51
225.0
  0
ARC
  5
9FE
330
2
100
AcDbEntity
  8
0
100
AcDbCircle
 10
605.5580724438641
 20
114.6028054599733
 30
0.0
 40
2.0
100
AcDbArc
 50
0.0
 51
45.0
  0
LINE
  5
9FF
330
2
100
AcDbEntity
  8
0
100
AcDbLine
 10
604.1438874438641
 20
118.8454504599732
 30
0.0
 11
606.9722574438642
 21
116.0170204599731
 31
0.0
  0
LINE
  5
A00
330
2
100
AcDbEntity
  8
0
100
AcDbLine
 10
604.1438874438641
 20
143.0170204599732
 30
0.0
 11
606.9722574438642
 21
145.8454504599731
 31
0.0
  0
ARC
  5
A01
330
2
100
AcDbEntity
  8
0
100
AcDbCircle
 10
605.5580724438641
 20
141.6028054599733
 30
0.0
 40
2.0
100
AcDbArc
 50
135.0
 51
180.0
  0
ARC
  5
A02
330
2
100
AcDbEntity
  8
0
100
AcDbCircle
 10
576.5580724438641
 20
144.4312354599731
 30
0.0
 40
22.0
100
AcDbArc
 50
0.0
 51
14.47751199999975
  0
ARC
  5
A03
330
2
100
AcDbEntity
  8
0
100
AcDbCircle
 10
595.9230014438642
 20
149.4312354599731
 30
0.0
 40
2.0
100
AcDbArc
 50
14.47751199999975
 51
90.0
  0
ARC
  5
A04
330
2
100
AcDbEntity
  8
0
100
AcDbCircle
 10
596.3318154438641
 20
147.4312354599731
 30
0.0
 40
2.0
100
AcDbArc
 50
8.626927000000565
 51
90.0
  0
LINE
  5
A05
330
2
100
AcDbEntity
  8
0
100
AcDbLine
 10
595.4779334438642
 20
151.4312354599731
 30
0.0
 11
595.9230014438642
 21
151.4312354599731
 31
0.0
  0
LINE
  5
A06
330
2
100
AcDbEntity
  8
0
100
AcDbLine
 10
594.5580724438641
 20
149.4312354599731
 30
0.0
 11
596.3318154438641
 21
149.4312354599731
 31
0.0
  0
ARC
  5
A07
330
2
100
AcDbEntity
  8
0
100
AcDbCircle
 10
605.5580724438641
 20
147.2596654599731
 30
0.0
 40
2.0
100
AcDbArc
 50
315.0
 51
0.0
  0
ARC
  5
A08
330
2
100
AcDbEntity
  8
0
100
AcDbCircle
 10
591.7527134438642
 20
173.9949864599731
 30
0.0
 40
6.0
100
AcDbArc
 50
239.6416930000005
 51
312.6359249999997
  0
ARC
  5
A0A
330
2
100
AcDbEntity
  8
0
100
AcDbCircle
 10
576.5580724438641
 20
144.4312354599731
 30
0.0
 40
22.0
100
AcDbArc
 50
69.51268799999964
 51
90.0
  0
ARC
  5
A0B
330
2
100
AcDbEntity
  8
0
100
AcDbCircle
 10
583.5580724438641
 20
163.1662204599731
 30
0.0
 40
2.0
100
AcDbArc
 50
0.0
 51
69.51268799999964
  0
ARC
  5
A0C
330
2
100
AcDbEntity
  8
0
100
AcDbCircle
 10
581.5580724438641
 20
163.7961644599731
 30
0.0
 40
2.0
100
AcDbArc
 50
0.0
 51
75.52249099999959
  0
LINE
  5
A0D
330
2
100
AcDbEntity
  8
0
100
AcDbLine
 10
583.6822794438642
 20
161.2373574599732
 30
0.0
 11
585.6822794438642
 21
161.9771944599731
 31
0.0
  0
ARC
  5
A0E
330
2
100
AcDbEntity
  8
0
100
AcDbCircle
 10
587.5580724438641
 20
162.6710734599731
 30
0.0
 40
2.0
100
AcDbArc
 50
180.0
 51
220.6012879999994
  0
ARC
  5
A0F
330
2
100
AcDbEntity
  8
0
100
AcDbCircle
 10
585.5580724438641
 20
161.9312354599731
 30
0.0
 40
2.0
100
AcDbArc
 50
180.0
 51
220.6012879999994
  0
LINE
  5
A10
330
2
100
AcDbEntity
  8
0
100
AcDbLine
 10
583.5580724438641
 20
161.9312354599731
 30
0.0
 11
583.5580724438641
 21
163.7961644599731
 31
0.0
  0
LINE
  5
A11
330
2
100
AcDbEntity
  8
0
100
AcDbLine
 10
585.5580724438641
 20
162.6710734599731
 30
0.0
 11
585.5580724438641
 21
163.1662204599731
 31
0.0
  0
ARC
  5
A12
330
2
100
AcDbEntity
  8
0
100
AcDbCircle
 10
573.5580724438641
 20
142.9312354599731
 30
0.0
 40
30.0
100
AcDbArc
 50
59.64169699999944
 51
67.66835799999981
  0
ARC
  5
A13
330
2
100
AcDbEntity
  8
0
100
AcDbCircle
 10
581.1574374438642
 20
161.4312354599731
 30
0.0
 40
10.0
100
AcDbArc
 50
67.66835799999981
 51
90.0
  0
ARC
  5
A14
330
2
100
AcDbEntity
  8
0
100
AcDbCircle
 10
608.9168374438642
 20
170.9312354599731
 30
0.0
 40
2.0
100
AcDbArc
 50
249.6612700000003
 51
270.0
  0
ARC
  5
A15
330
2
100
AcDbEntity
  8
0
100
AcDbCircle
 10
600.5580724438641
 20
164.4312354599731
 30
0.0
 40
7.0
100
AcDbArc
 50
0.0
 51
132.6359249999995
  0
CIRCLE
  5
A16
330
2
100
AcDbEntity
  8
HOJO
100
AcDbCircle
 10
600.5580724438641
 20
164.4312354599731
 30
0.0
 40
4.0
  0
CIRCLE
  5
A17
330
2
100
AcDbEntity
  8
0
100
AcDbCircle
 10
600.5580724438641
 20
164.4312354599731
 30
0.0
 40
3.399999999999999
  0
LINE
  5
A19
330
2
100
AcDbEntity
  8
0
100
AcDbLine
 10
608.2217074438642
 20
169.0559304599731
 30
0.0
 11
602.9910554438641
 21
170.9948034599733
 31
0.0
  0
LINE
  5
A1F
330
2
100
AcDbEntity
  8
0
100
AcDbLine
 10
608.8601964438642
 20
289.9513835609468
 30
0.0
 11
680.6135534438642
 21
289.9513835609468
 31
0.0
  0
ARC
  5
A20
330
2
100
AcDbEntity
  8
0
100
AcDbCircle
 10
608.8601964438642
 20
287.9513835609468
 30
0.0
 40
2.0
100
AcDbArc
 50
90.0
 51
178.9999999999998
  0
ARC
  5
A23
330
2
100
AcDbEntity
  8
0
100
AcDbCircle
 10
697.1495034438643
 20
165.9312664599731
 30
0.0
 40
3.0
100
AcDbArc
 50
29.99959899999904
 51
90.0
  0
LINE
  5
A25
330
2
100
AcDbEntity
  8
0
100
AcDbLine
 10
701.1135534438643
 20
162.9312354599731
 30
0.0
 11
700.6135534438642
 21
163.4312354599731
 31
0.0
  0
LINE
  5
A26
330
2
100
AcDbEntity
  8
0
100
AcDbLine
 10
699.7475864438642
 20
167.4312354599731
 30
0.0
 11
700.6135534438642
 21
165.9312354599731
 31
0.0
  0
ARC
  5
A28
330
2
100
AcDbEntity
  8
0
100
AcDbCircle
 10
697.1495034438643
 20
292.9513835609467
 30
0.0
 40
3.0
100
AcDbArc
 50
270.0
 51
330.0003970000009
  0
LINE
  5
A29
330
2
100
AcDbEntity
  8
0
100
AcDbLine
 10
699.7475864438642
 20
291.4513835609468
 30
0.0
 11
700.6135534438642
 21
292.9513835609467
 31
0.0
  0
LINE
  5
A2A
330
2
100
AcDbEntity
  8
0
100
AcDbLine
 10
701.1135534438643
 20
295.9513835609468
 30
0.0
 11
700.6135534438642
 21
295.4513835609467
 31
0.0
  0
LINE
  5
A2B
330
2
100
AcDbEntity
  8
0
100
AcDbLine
 10
697.1495034438643
 20
365.9513835609467
 30
0.0
 11
680.6135534438642
 21
365.9513835609467
 31
0.0
  0
LINE
  5
A2C
330
2
100
AcDbEntity
  8
0
100
AcDbLine
 10
699.0319494438639
 20
304.9513835609467
 30
0.0
 11
689.6135534438641
 21
304.9513835609467
 31
0.0
  0
LINE
  5
A2D
330
2
100
AcDbEntity
  8
0
100
AcDbLine
 10
699.0319494438639
 20
350.9513835609467
 30
0.0
 11
689.6135534438641
 21
350.9513835609467
 31
0.0
  0
LINE
  5
A32
330
2
100
AcDbEntity
  8
0
100
AcDbLine
 10
639.6136534438642
 20
304.9513835609467
 30
0.0
 11
604.5549594438641
 21
304.9513835609467
 31
0.0
  0
LINE
  5
A33
330
2
100
AcDbEntity
  8
0
100
AcDbLine
 10
639.6136534438642
 20
350.9513835609467
 30
0.0
 11
604.5549594438641
 21
350.9513835609467
 31
0.0
  0
LINE
  5
A34
330
2
100
AcDbEntity
  8
0
100
AcDbLine
 10
610.0063754438641
 20
365.9513835609467
 30
0.0
 11
680.6135534438642
 21
365.9513835609467
 31
0.0
  0
LINE
  5
A35
330
2
100
AcDbEntity
  8
HIDS
100
AcDbLine
 10
596.5580724438641
 20
355.9513835609468
 30
0.0
 11
596.5580724438641
 21
335.9513835609468
 31
0.0
  0
LINE
  5
A36
330
2
100
AcDbEntity
  8
HIDS
100
AcDbLine
 10
604.5580724438641
 20
355.9513835609468
 30
0.0
 11
604.5580724438641
 21
335.9513835609468
 31
0.0
  0
LINE
  5
A37
330
2
100
AcDbEntity
  8
0
100
AcDbLine
 10
591.9000524438642
 20
368.4513835609468
 30
0.0
 11
591.9000524438642
 21
335.1553935609468
 31
0.0
  0
LINE
  5
A38
330
2
100
AcDbEntity
  8
0
100
AcDbLine
 10
582.925565443864
 20
368.4513835609468
 30
0.0
 11
582.925565443864
 21
332.9513835609468
 31
0.0
  0
LINE
  5
A39
330
2
100
AcDbEntity
  8
0
100
AcDbLine
 10
602.9910554438641
 20
327.9513835609467
 30
0.0
 11
602.5552644438642
 21
352.9164715609468
 31
0.0
  0
LINE
  5
A3A
330
2
100
AcDbEntity
  8
0
100
AcDbLine
 10
608.5580724438641
 20
350.9513835609467
 30
0.0
 11
608.5580724438641
 21
304.9513835609467
 31
0.0
  0
ARC
  5
A3B
330
2
100
AcDbEntity
  8
0
100
AcDbCircle
 10
591.9000524438642
 20
331.7473735609468
 30
0.0
 40
11.0
100
AcDbArc
 50
248.924667
 51
295.7177279999996
  0
LINE
  5
A3C
330
2
100
AcDbEntity
  8
0
100
AcDbLine
 10
582.925565443864
 20
322.9513835609468
 30
0.0
 11
600.4707924438641
 21
322.9513835609468
 31
0.0
  0
ARC
  5
A3D
330
2
100
AcDbEntity
  8
0
100
AcDbCircle
 10
591.9000524438642
 20
324.1553935609468
 30
0.0
 40
11.0
100
AcDbArc
 50
64.28227200000036
 51
111.0753329999997
  0
LINE
  5
A3E
330
2
100
AcDbEntity
  8
0
100
AcDbLine
 10
582.925565443864
 20
332.9513835609468
 30
0.0
 11
600.4707924438641
 21
332.9513835609468
 31
0.0
  0
LINE
  5
A3F
330
2
100
AcDbEntity
  8
0
100
AcDbLine
 10
585.2629064438643
 20
322.5165995609468
 30
0.0
 11
587.9444864438641
 21
321.4831825609469
 31
0.0
  0
ARC
  5
A40
330
2
100
AcDbEntity
  8
0
100
AcDbCircle
 10
582.925565443864
 20
316.4513835609468
 30
0.0
 40
6.5
100
AcDbArc
 50
68.92466700000015
 51
90.0
  0
LINE
  5
A41
330
2
100
AcDbEntity
  8
0
100
AcDbLine
 10
585.2629064438643
 20
333.3861675609468
 30
0.0
 11
587.9444864438641
 21
334.4195845609468
 31
0.0
  0
ARC
  5
A42
330
2
100
AcDbEntity
  8
0
100
AcDbCircle
 10
582.925565443864
 20
339.4513835609468
 30
0.0
 40
6.5
100
AcDbArc
 50
270.0
 51
291.0753169999998
  0
LINE
  5
A43
330
2
100
AcDbEntity
  8
0
100
AcDbLine
 10
602.9910554438641
 20
327.9513835609467
 30
0.0
 11
602.5552644438642
 21
302.9862955609468
 31
0.0
  0
ARC
  5
A44
330
2
100
AcDbEntity
  8
0
100
AcDbCircle
 10
604.5549594438641
 20
302.9513835609467
 30
0.0
 40
2.0
100
AcDbArc
 50
90.0
 51
178.9999999999998
  0
LINE
  5
A45
330
2
100
AcDbEntity
  8
HIDS
100
AcDbLine
 10
596.5580724438641
 20
319.9513835609467
 30
0.0
 11
604.5580724438641
 21
319.9513835609467
 31
0.0
  0
LINE
  5
A46
330
2
100
AcDbEntity
  8
0
100
AcDbLine
 10
596.6733674438642
 20
321.8370035609467
 30
0.0
 11
597.6501744438642
 21
322.3075235609468
 31
0.0
  0
ARC
  5
A47
330
2
100
AcDbEntity
  8
0
100
AcDbCircle
 10
600.4707924438641
 20
316.4513835609468
 30
0.0
 40
6.5
100
AcDbArc
 50
90.0
 51
115.7177279999995
  0
LINE
  5
A48
330
2
100
AcDbEntity
  8
HIDS
100
AcDbLine
 10
596.5580724438641
 20
335.9513835609468
 30
0.0
 11
604.5580724438641
 21
335.9513835609468
 31
0.0
  0
LINE
  5
A49
330
2
100
AcDbEntity
  8
0
100
AcDbLine
 10
596.6733674438642
 20
334.0657635609468
 30
0.0
 11
597.6501744438642
 21
333.5952435609468
 31
0.0
  0
ARC
  5
A4A
330
2
100
AcDbEntity
  8
0
100
AcDbCircle
 10
600.4707924438641
 20
339.4513835609468
 30
0.0
 40
6.5
100
AcDbArc
 50
244.2822720000001
 51
270.0
  0
LINE
  5
A4B
330
2
100
AcDbEntity
  8
HIDS
100
AcDbLine
 10
604.8080724438641
 20
355.9513835609468
 30
0.0
 11
604.8080724438641
 21
368.4513835609468
 31
0.0
  0
LINE
  5
A4C
330
2
100
AcDbEntity
  8
HIDS
100
AcDbLine
 10
596.3080724438641
 20
355.9513835609468
 30
0.0
 11
596.3080724438641
 21
368.4513835609468
 31
0.0
  0
LINE
  5
A4D
330
2
100
AcDbEntity
  8
0
100
AcDbLine
 10
606.8511634438642
 20
368.4513835609468
 30
0.0
 11
607.1565834438642
 21
350.9513835609467
 31
0.0
  0
LINE
  5
A4E
330
2
100
AcDbEntity
  8
0
100
AcDbLine
 10
608.5580724438641
 20
365.3306555609468
 30
0.0
 11
608.5580724438641
 21
355.9513835609468
 31
0.0
  0
ARC
  5
A4F
330
2
100
AcDbEntity
  8
0
100
AcDbCircle
 10
604.5549594438641
 20
352.9513835609467
 30
0.0
 40
2.0
100
AcDbArc
 50
181.0
 51
270.0
  0
ARC
  5
A50
330
2
100
AcDbEntity
  8
0
100
AcDbCircle
 10
610.0063754438641
 20
363.9513835609467
 30
0.0
 40
2.0
100
AcDbArc
 50
90.0
 51
136.3987580000002
  0
LINE
  5
A51
330
2
100
AcDbEntity
  8
0
100
AcDbLine
 10
680.6135534438642
 20
352.9513835609467
 30
0.0
 11
680.6135534438642
 21
365.9513835609467
 31
0.0
  0
LINE
  5
A5A
330
2
100
AcDbEntity
  8
0
100
AcDbLine
 10
701.1135534438643
 20
359.9513835609467
 30
0.0
 11
700.6135534438642
 21
360.4513835609468
 31
0.0
  0
ARC
  5
A5B
330
2
100
AcDbEntity
  8
0
100
AcDbCircle
 10
697.1495034438643
 20
362.9514145609468
 30
0.0
 40
3.0
100
AcDbArc
 50
29.99959899999904
 51
90.0
  0
LINE
  5
A5C
330
2
100
AcDbEntity
  8
0
100
AcDbLine
 10
699.7475864438642
 20
364.4513835609468
 30
0.0
 11
700.6135534438642
 21
362.9513835609468
 31
0.0
  0
TEXT
  5
E6F
330
2
100
AcDbEntity
  8
TITLE
100
AcDbText
 10
135.6185551095815
 20
50.0658835517841
 30
0.0
 40
5.0
  1
F2FM-15T-10～240-S15WT
 41
0.9
100
AcDbText
  0
TEXT
  5
E70
330
2
100
AcDbEntity
  8
TITLE
100
AcDbText
 10
135.6185551095815
 20
59.0658835517841
 30
0.0
 40
5.0
  1
F2FM-15T-10～240-S15T
 41
0.9
100
AcDbText
  0
TEXT
  5
E71
330
2
100
AcDbEntity
  8
TITLE
100
AcDbText
 10
135.6185551095815
 20
41.06588355178411
 30
0.0
 40
5.0
  1
F2FM-15T-10～240-S25T
 41
0.9
100
AcDbText
  0
TEXT
  5
E72
330
2
100
AcDbEntity
  8
TITLE
100
AcDbText
 10
135.6185551095815
 20
32.06588355178411
 30
0.0
 40
5.0
  1
F2FM-15T-10～240-S25WT
 41
0.9
100
AcDbText
  0
LINE
  5
E78
330
2
100
AcDbEntity
  8
CENTER
100
AcDbLine
 10
132.558072443864
 20
105.4098734599731
 30
0.0
 11
132.558072443864
 21
89.45259745997326
 31
0.0
  0
TEXT
  5
E81
330
2
100
AcDbEntity
  8
TITLE
100
AcDbText
 10
30.33937607216262
 20
59.09367406143832
 30
0.0
 40
5.0
  1
F2FM-15T-10～240-T15T
 41
0.9
100
AcDbText
  0
TEXT
  5
E82
330
2
100
AcDbEntity
  8
TITLE
100
AcDbText
 10
30.33937607216262
 20
50.09367406143832
 30
0.0
 40
5.0
  1
F2FM-15T-10～240-T15WT
 41
0.9
100
AcDbText
  0
TEXT
  5
E83
330
2
100
AcDbEntity
  8
TITLE
100
AcDbText
 10
30.33937607216262
 20
32.09367406143832
 30
0.0
 40
5.0
  1
F2FM-15T-10～240-T25WT
 41
0.9
100
AcDbText
  0
TEXT
  5
E84
330
2
100
AcDbEntity
  8
TITLE
100
AcDbText
 10
30.33937607216262
 20
41.09367406143832
 30
0.0
 40
5.0
  1
F2FM-15T-10～240-T25T
 41
0.9
100
AcDbText
  0
TEXT
  5
E85
330
2
100
AcDbEntity
  8
TITLE
100
AcDbText
 10
30.33937607216262
 20
23.09367406143832
 30
0.0
 40
5.0
  1
F2FM-15T-10～120-T40T
 41
0.9
100
AcDbText
  0
LINE
  5
EA5
330
2
100
AcDbEntity
  8
CENTER
100
AcDbLine
 10
130.058072443864
 20
148.8588934599731
 30
0.0
 11
130.058072443864
 21
160.0035774599731
 31
0.0
  0
LINE
  5
EAD
330
2
100
AcDbEntity
  8
CENTER
100
AcDbLine
 10
140.5367104438641
 20
97.43123545997327
 30
0.0
 11
124.5794344438641
 21
97.43123545997327
 31
0.0
  0
LINE
  5
EB0
330
2
100
AcDbEntity
  8
CENTER
100
AcDbLine
 10
130.058072443864
 20
101.8588934599732
 30
0.0
 11
130.058072443864
 21
113.0035774599732
 31
0.0
  0
LINE
  5
EB5
330
2
100
AcDbEntity
  8
CENTER
100
AcDbLine
 10
124.4857304438642
 20
107.4312354599731
 30
0.0
 11
135.630414443864
 21
107.4312354599731
 31
0.0
  0
LINE
  5
ED5
330
2
100
AcDbEntity
  8
CENTER
100
AcDbLine
 10
140.5367104438641
 20
164.4312354599731
 30
0.0
 11
124.5794344438641
 21
164.4312354599731
 31
0.0
  0
LINE
  5
ED9
330
2
100
AcDbEntity
  8
CENTER
100
AcDbLine
 10
132.558072443864
 20
172.4098734599731
 30
0.0
 11
132.558072443864
 21
156.4525974599732
 31
0.0
  0
LINE
  5
EDD
330
2
100
AcDbEntity
  8
CENTER
100
AcDbLine
 10
124.4857304438642
 20
154.4312354599731
 30
0.0
 11
135.630414443864
 21
154.4312354599731
 31
0.0
  0
LINE
  5
EFF
330
2
100
AcDbEntity
  8
CENTER
100
AcDbLine
 10
218.558072443864
 20
105.4098734599731
 30
0.0
 11
218.558072443864
 21
89.45259745997326
 31
0.0
  0
SPLINE
  5
F28
330
2
100
AcDbEntity
  8
HOJO
100
AcDbSpline
210
0.0
220
0.0
230
1.0
 70
     8
 71
     3
 72
    27
 73
    23
 74
    21
 42
0.0000000001
 43
0.0000000001
 44
0.0000000001
 40
0.0
 40
0.0
 40
0.0
 40
0.0
 40
3.539268772771698
 40
7.287513562995791
 40
11.09046033223701
 40
14.62599423816975
 40
18.69227008921793
 40
22.26802890950275
 40
26.82672101949673
 40
31.55579532198595
 40
36.2806662474383
 40
40.14414690074356
 40
45.48003284016018
 40
49.44095400921188
 40
54.14226030623291
 40
58.62868909724449
 40
62.7842617122356
 40
66.26314687902696
 40
70.60953379849476
 40
74.30511416613946
 40
78.24621988074816
 40
82.00437648752251
 40
82.00437648752251
 40
82.00437648752251
 40
82.00437648752251
 10
306.0580724438641
 20
105.5492482620205
 30
0.0
 10
307.2371388096135
 20
105.383549240442
 30
0.0
 10
309.6648894789533
 20
105.0423675035765
 30
0.0
 10
313.3207699648642
 20
106.1883227482111
 30
0.0
 10
317.0072070594353
 20
104.9287474055808
 30
0.0
 10
320.7596773674308
 20
106.3787284311273
 30
0.0
 10
324.4660308091671
 20
104.8195991856938
 30
0.0
 10
328.4664486252399
 20
106.4461356732344
 30
0.0
 10
332.747386023895
 20
104.7970990900655
 30
0.0
 10
337.3630800220301
 20
106.6649910807846
 30
0.0
 10
341.7846777385385
 20
104.8569067518472
 30
0.0
 10
346.3402483433693
 20
106.690861411105
 30
0.0
 10
350.7443491222744
 20
104.8822143040088
 30
0.0
 10
355.3309697522206
 20
106.9212172144185
 30
0.0
 10
359.6456910068188
 20
104.5028275970424
 30
0.0
 10
364.0135183449242
 20
107.0934753586992
 30
0.0
 10
367.9751741093254
 20
104.5482070207333
 30
0.0
 10
371.8207505765048
 20
106.9864069183841
 30
0.0
 10
375.6361527095588
 20
104.6780703401975
 30
0.0
 10
379.5412667966578
 20
106.8047609497528
 30
0.0
 10
383.2738499686281
 20
104.9585996237808
 30
0.0
 10
385.8168067813281
 20
105.643372551409
 30
0.0
 10
387.0580724438641
 20
105.9776232620204
 30
0.0
 11
306.0580724438641
 21
105.5492482620205
 31
0.0
 11
309.5892614438641
 21
105.3102342620204
 31
0.0
 11
313.3080724438641
 21
105.7790452620203
 31
0.0
 11
317.0892614438642
 21
105.3728262620204
 31
0.0
 11
320.5892614438642
 21
105.8728262620205
 31
0.0
 11
324.6206644438641
 21
105.3414232620204
 31
0.0
 11
328.1518834438641
 21
105.9040452620203
 31
0.0
 11
332.6830724438641
 21
105.4040452620204
 31
0.0
 11
337.3706644438641
 21
106.0290452620204
 31
0.0
 11
342.0580724438641
 21
105.4352342620204
 31
0.0
 11
345.8706644438641
 21
106.0602342620204
 31
0.0
 11
351.1830724438641
 21
105.5602342620204
 31
0.0
 11
355.0892614438641
 21
106.2164232620204
 31
0.0
 11
359.7142614438642
 21
105.3728262620204
 31
0.0
 11
364.1206644438641
 21
106.2164232620204
 31
0.0
 11
368.1830724438641
 21
105.3414232620204
 31
0.0
 11
371.5580724438641
 21
106.1852342620204
 31
0.0
 11
375.8392614438641
 21
105.4352342620204
 31
0.0
 11
379.4642614438641
 21
106.1540452620204
 31
0.0
 11
383.3392614438642
 21
105.4352342620204
 31
0.0
 11
387.0580724438641
 21
105.9776232620204
 31
0.0
  0
LINE
  5
F38
330
2
100
AcDbEntity
  8
CENTER
100
AcDbLine
 10
221.058072443864
 20
148.8588934599731
 30
0.0
 11
221.058072443864
 21
160.0035774599731
 31
0.0
  0
LINE
  5
F39
330
2
100
AcDbEntity
  8
CENTER
100
AcDbLine
 10
186.558072443864
 20
100.8243624599731
 30
0.0
 11
186.558072443864
 21
161.0381084599731
 31
0.0
  0
LINE
  5
F44
330
2
100
AcDbEntity
  8
CENTER
100
AcDbLine
 10
215.4857304438642
 20
107.4312354599731
 30
0.0
 11
226.6304144438639
 21
107.4312354599731
 31
0.0
  0
LINE
  5
F45
330
2
100
AcDbEntity
  8
CENTER
100
AcDbLine
 10
226.5367104438641
 20
97.43123545997327
 30
0.0
 11
210.5794344438641
 21
97.43123545997327
 31
0.0
  0
LINE
  5
F59
330
2
100
AcDbEntity
  8
CENTER
100
AcDbLine
 10
221.058072443864
 20
101.8588934599732
 30
0.0
 11
221.058072443864
 21
113.0035774599732
 31
0.0
  0
LINE
  5
F6C
330
2
100
AcDbEntity
  8
CENTER
100
AcDbLine
 10
215.4857304438642
 20
154.4312354599731
 30
0.0
 11
226.6304144438639
 21
154.4312354599731
 31
0.0
  0
LINE
  5
F6D
330
2
100
AcDbEntity
  8
CENTER
100
AcDbLine
 10
226.5367104438641
 20
164.4312354599731
 30
0.0
 11
210.5794344438641
 21
164.4312354599731
 31
0.0
  0
LINE
  5
F75
330
2
100
AcDbEntity
  8
CENTER
100
AcDbLine
 10
218.558072443864
 20
172.4098734599731
 30
0.0
 11
218.558072443864
 21
156.4525974599732
 31
0.0
  0
LINE
  5
FF9
330
2
100
AcDbEntity
  8
CENTER
100
AcDbLine
 10
600.5580724438641
 20
105.4098734599731
 30
0.0
 11
600.5580724438641
 21
89.45259745997326
 31
0.0
  0
LINE
  5
FFA
330
2
100
AcDbEntity
  8
CENTER
100
AcDbLine
 10
514.5580724438641
 20
105.4098734599731
 30
0.0
 11
514.5580724438641
 21
89.45259745997326
 31
0.0
  0
LINE
  5
1029
330
2
100
AcDbEntity
  8
CENTER
100
AcDbLine
 10
546.5580724438641
 20
100.7247229599733
 30
0.0
 11
546.5580724438641
 21
161.1377479599731
 31
0.0
  0
LINE
  5
1031
330
2
100
AcDbEntity
  8
CENTER
100
AcDbLine
 10
522.5367104438642
 20
97.43123545997327
 30
0.0
 11
506.5794344438641
 21
97.43123545997327
 31
0.0
  0
LINE
  5
1053
330
2
100
AcDbEntity
  8
CENTER
100
AcDbLine
 10
522.5367104438642
 20
164.4312354599731
 30
0.0
 11
506.5794344438641
 21
164.4312354599731
 31
0.0
  0
LINE
  5
1057
330
2
100
AcDbEntity
  8
CENTER
100
AcDbLine
 10
514.5580724438641
 20
172.4098734599731
 30
0.0
 11
514.5580724438641
 21
156.4525974599732
 31
0.0
  0
LINE
  5
1074
330
2
100
AcDbEntity
  8
CENTER
100
AcDbLine
 10
608.5367104438642
 20
97.43123545997327
 30
0.0
 11
592.579434443864
 21
97.43123545997327
 31
0.0
  0
LINE
  5
1090
330
2
100
AcDbEntity
  8
CENTER
100
AcDbLine
 10
600.5580724438641
 20
172.4098734599731
 30
0.0
 11
600.5580724438641
 21
156.4525974599732
 31
0.0
  0
LINE
  5
1099
330
2
100
AcDbEntity
  8
CENTER
100
AcDbLine
 10
608.5367104438642
 20
164.4312354599731
 30
0.0
 11
592.579434443864
 21
164.4312354599731
 31
0.0
  0
LINE
  5
1EF2
330
2
100
AcDbEntity
  8
0
100
AcDbLine
 10
321.5580724438641
 20
182.4312354599733
 30
0.0
 11
371.5580574438642
 21
182.4312354599733
 31
0.0
  0
LINE
  5
1EF3
330
2
100
AcDbEntity
  8
0
100
AcDbLine
 10
321.5580724438641
 20
172.4312354599732
 30
0.0
 11
371.5580574438642
 21
172.4312354599732
 31
0.0
  0
LINE
  5
1EF4
330
2
100
AcDbEntity
  8
0
100
AcDbLine
 10
322.5580724438641
 20
201.4312334599733
 30
0.0
 11
366.7201636278381
 21
201.4312334599731
 31
0.0
  0
LINE
  5
1EF5
330
2
100
AcDbEntity
  8
0
100
AcDbLine
 10
321.5580724438641
 20
200.4312334599732
 30
0.0
 11
364.0580574438641
 21
200.4312334599732
 31
0.0
  0
LINE
  5
1EF7
330
2
100
AcDbEntity
  8
CENTER
100
AcDbLine
 10
316.5144654626556
 20
191.9312334599732
 30
0.0
 11
376.6016794250726
 21
191.9312334599732
 31
0.0
  0
LINE
  5
1F1D
330
2
100
AcDbEntity
  8
0
100
AcDbLine
 10
48.34048425988975
 20
201.4312334599731
 30
0.0
 11
92.50257544386423
 21
201.4312334599731
 31
0.0
  0
LINE
  5
1F1E
330
2
100
AcDbEntity
  8
0
100
AcDbLine
 10
45.00256844386422
 20
170.4312354599731
 30
0.0
 11
91.50257544386423
 21
170.4312354599731
 31
0.0
  0
LINE
  5
1F1F
330
2
100
AcDbEntity
  8
0
100
AcDbLine
 10
41.50256844386421
 20
182.4312354599731
 30
0.0
 11
93.50257544386423
 21
182.4312354599731
 31
0.0
  0
LINE
  5
1F20
330
2
100
AcDbEntity
  8
0
100
AcDbLine
 10
43.50256844386422
 20
172.4312354599731
 30
0.0
 11
93.50257544386423
 21
172.4312354599731
 31
0.0
  0
LINE
  5
1F21
330
2
100
AcDbEntity
  8
0
100
AcDbLine
 10
51.00256887243517
 20
200.4312334599732
 30
0.0
 11
93.50258244386422
 21
200.4312334599732
 31
0.0
  0
LINE
  5
1F22
330
2
100
AcDbEntity
  8
CENTER
100
AcDbLine
 10
35.55881944386421
 20
191.9312334599731
 30
0.0
 11
97.45487840760231
 21
191.9312334599731
 31
0.0
  0
ARC
  5
1F24
330
2
100
AcDbEntity
  8
0
100
AcDbCircle
 10
42.50258344386423
 20
198.4312334599731
 30
0.0
 40
1.0
100
AcDbArc
 50
90.0
 51
180.0
  0
LINE
  5
1F25
330
2
100
AcDbEntity
  8
0
100
AcDbLine
 10
41.50258344386424
 20
198.4312334599731
 30
0.0
 11
41.50256844386421
 21
182.4312354599731
 31
0.0
  0
LINE
  5
1F26
330
2
100
AcDbEntity
  8
0
100
AcDbLine
 10
38.00258344386421
 20
195.9312334599731
 30
0.0
 11
38.00258344386421
 21
187.9312334599731
 31
0.0
  0
LINE
  5
1F27
330
2
100
AcDbEntity
  8
0
100
AcDbLine
 10
38.00256844386423
 20
187.9312334599731
 30
0.0
 11
41.50256844386421
 21
186.4312334599731
 31
0.0
  0
LINE
  5
1F28
330
2
100
AcDbEntity
  8
0
100
AcDbLine
 10
38.00258344386421
 20
195.9312334599731
 30
0.0
 11
41.50258344386424
 21
197.4312334599732
 31
0.0
  0
LINE
  5
1F29
330
2
100
AcDbEntity
  8
CENTER
100
AcDbLine
 10
68.50257544386423
 20
165.7375344599731
 30
0.0
 11
68.50257544386423
 21
206.8187334599731
 31
0.0
  0
LINE
  5
1F2A
330
2
100
AcDbEntity
  8
0
100
AcDbLine
 10
43.50256844386422
 20
200.4312334599732
 30
0.0
 11
43.50256844386422
 21
172.4312354599731
 31
0.0
  0
LINE
  5
1F2B
330
2
100
AcDbEntity
  8
0
100
AcDbLine
 10
45.00256844386422
 20
170.4312354599731
 30
0.0
 11
45.00256844386422
 21
168.9312354599731
 31
0.0
  0
LINE
  5
1F2D
330
2
100
AcDbEntity
  8
0
100
AcDbLine
 10
43.50256844386422
 20
172.4312354599731
 30
0.0
 11
45.50256844386422
 21
170.4312354599731
 31
0.0
  0
ARC
  5
1F2E
330
2
100
AcDbEntity
  8
0
100
AcDbCircle
 10
47.00257544386431
 20
192.531233459973
 30
0.0
 40
9.0
100
AcDbArc
 50
74.11914999171883
 51
105.8808500082811
  0
LINE
  5
1F2F
330
2
100
AcDbEntity
  8
0
100
AcDbLine
 10
47.29007544431936
 20
200.014233459973
 30
0.0
 11
46.71507544340926
 21
200.014233459973
 31
0.0
  0
LINE
  5
1F30
330
2
100
AcDbEntity
  8
0
100
AcDbLine
 10
51.00256887243517
 20
198.9312334599731
 30
0.0
 11
43.50256887243516
 21
198.9312334599731
 31
0.0
  0
LINE
  5
1F31
330
2
100
AcDbEntity
  8
0
100
AcDbLine
 10
44.97283562070021
 20
201.0836749973508
 30
0.0
 11
44.95257544386429
 21
201.2946517428122
 31
0.0
  0
SPLINE
  5
1F32
330
2
100
AcDbEntity
  8
0
100
AcDbSpline
210
0.0
220
0.0
230
1.0
 70
     8
 71
     3
 72
    11
 73
     7
 74
     0
 42
0.0000000001
 43
0.0000000001
 40
0.0
 40
0.0
 40
0.0
 40
0.0
 40
0.4601364636755307
 40
1.04988694485363
 40
1.713742833862792
 40
2.320347933405154
 40
2.320347933405154
 40
2.320347933405154
 40
2.320347933405178
 10
46.71507544340926
 20
200.014233459973
 30
0.0
 10
46.69265778630142
 20
200.1692568996531
 30
0.0
 10
46.64150773106814
 20
200.5229717175706
 30
0.0
 10
46.20562256953457
 20
200.9476993891722
 30
0.0
 10
45.60057185452712
 20
201.1668865691381
 30
0.0
 10
45.17538723035129
 20
201.0978952695273
 30
0.0
 10
44.97283562070021
 20
201.0836749973508
 30
0.0
  0
LINE
  5
1F33
330
2
100
AcDbEntity
  8
0
100
AcDbLine
 10
43.50257544386431
 20
198.9312334599731
 30
0.0
 11
43.60051158275211
 21
200.0506486497914
 31
0.0
  0
ARC
  5
1F34
330
2
100
AcDbEntity
  8
0
100
AcDbCircle
 10
44.89556469027127
 20
199.9373461842195
 30
0.0
 40
1.3
100
AcDbArc
 50
105.8808500082811
 51
175.0
  0
LINE
  5
1F35
330
2
100
AcDbEntity
  8
0
100
AcDbLine
 10
44.50256887243518
 20
201.431233459973
 30
0.0
 11
43.50256844386418
 21
200.4312334599732
 31
0.0
  0
LINE
  5
1F36
330
2
100
AcDbEntity
  8
0
100
AcDbLine
 10
43.50256844386422
 20
200.4312334599732
 30
0.0
 11
44.50256844386422
 21
201.4312334599731
 31
0.0
  0
LINE
  5
1F37
330
2
100
AcDbEntity
  8
0
100
AcDbLine
 10
42.50256844386422
 20
199.4312334599731
 30
0.0
 11
43.50256844386422
 21
199.4312334599731
 31
0.0
  0
LINE
  5
1F38
330
2
100
AcDbEntity
  8
0
100
AcDbLine
 10
44.50256844386422
 20
201.4312334599731
 30
0.0
 11
45.6646666278389
 21
201.4312334599731
 31
0.0
  0
LINE
  5
1F39
330
2
100
AcDbEntity
  8
0
100
AcDbLine
 10
50.5025754438642
 20
198.9312334599731
 30
0.0
 11
50.4046393049764
 21
200.0506486497914
 31
0.0
  0
ARC
  5
1F3A
330
2
100
AcDbEntity
  8
0
100
AcDbCircle
 10
49.10958619745713
 20
199.9373461842195
 30
0.0
 40
1.3
100
AcDbArc
 50
4.999999999999795
 51
74.11914999171883
  0
LINE
  5
1F3B
330
2
100
AcDbEntity
  8
0
100
AcDbLine
 10
49.03231526702843
 20
201.0836749973508
 30
0.0
 11
49.05257544386433
 21
201.2946517428122
 31
0.0
  0
SPLINE
  5
1F3C
330
2
100
AcDbEntity
  8
0
100
AcDbSpline
210
0.0
220
0.0
230
1.0
 70
     8
 71
     3
 72
    11
 73
     7
 74
     0
 42
0.0000000001
 43
0.0000000001
 40
0.0
 40
0.0
 40
0.0
 40
0.0
 40
0.4601364636755307
 40
1.04988694485363
 40
1.713742833862792
 40
2.320347933405154
 40
2.320347933405154
 40
2.320347933405154
 40
2.320347933405178
 10
47.29007544431936
 20
200.014233459973
 30
0.0
 10
47.31249310142721
 20
200.1692568996531
 30
0.0
 10
47.36364315666047
 20
200.5229717175706
 30
0.0
 10
47.79952831819406
 20
200.9476993891722
 30
0.0
 10
48.4045790332015
 20
201.1668865691381
 30
0.0
 10
48.82976365737732
 20
201.0978952695273
 30
0.0
 10
49.03231526702843
 20
201.0836749973508
 30
0.0
  0
LINE
  5
1F3D
330
2
100
AcDbEntity
  8
0
100
AcDbLine
 10
51.50256887243518
 20
201.431233459973
 30
0.0
 11
51.00256887243517
 21
200.9312334599731
 31
0.0
  0
LINE
  5
1F3E
330
2
100
AcDbEntity
  8
0
100
AcDbLine
 10
51.00256887243517
 20
198.9312334599731
 30
0.0
 11
51.00256887243517
 21
200.9312334599731
 31
0.0
  0
LINE
  5
1F3F
330
2
100
AcDbEntity
  8
0
100
AcDbLine
 10
51.00256887243517
 20
200.9312334599731
 30
0.0
 11
49.94755283348448
 21
200.9312334599731
 31
0.0
  0
LINE
  5
1F40
330
2
100
AcDbEntity
  8
0
100
AcDbLine
 10
93.50257544386423
 20
200.4312334599732
 30
0.0
 11
93.50257544386423
 21
172.4312354599731
 31
0.0
  0
LINE
  5
1F41
330
2
100
AcDbEntity
  8
0
100
AcDbLine
 10
91.00257544386423
 20
170.4312354599731
 30
0.0
 11
91.00257544386423
 21
168.9312354599731
 31
0.0
  0
LINE
  5
1F42
330
2
100
AcDbEntity
  8
0
100
AcDbLine
 10
91.50257544386423
 20
170.4312354599731
 30
0.0
 11
93.50257544386423
 21
172.4312354599731
 31
0.0
  0
LINE
  5
1F43
330
2
100
AcDbEntity
  8
0
100
AcDbLine
 10
92.50258244386422
 20
201.4312334599731
 30
0.0
 11
93.50258244386422
 21
200.4312334599732
 31
0.0
  0
LINE
  5
1F44
330
2
100
AcDbEntity
  8
0
100
AcDbLine
 10
321.5580724438641
 20
200.4312334599732
 30
0.0
 11
321.5580724438641
 21
172.4312354599732
 31
0.0
  0
LINE
  5
1F46
330
2
100
AcDbEntity
  8
0
100
AcDbLine
 10
321.5580724438641
 20
172.4312354599732
 30
0.0
 11
322.9698127963388
 21
171.0194951074985
 31
0.0
  0
LINE
  5
1F47
330
2
100
AcDbEntity
  8
0
100
AcDbLine
 10
322.5580724438641
 20
201.4312334599733
 30
0.0
 11
321.5580724438641
 21
200.4312334599732
 31
0.0
  0
LINE
  5
1F4A
330
2
100
AcDbEntity
  8
0
100
AcDbLine
 10
371.5580574438642
 20
200.4312334599732
 30
0.0
 11
371.5580574438642
 21
172.4312354599732
 31
0.0
  0
LINE
  5
1F4D
330
2
100
AcDbEntity
  8
0
100
AcDbLine
 10
370.1463173487271
 20
171.0194953648363
 30
0.0
 11
371.5580574438642
 21
172.4312354599732
 31
0.0
  0
ARC
  5
1F4E
330
2
100
AcDbEntity
  8
0
100
AcDbCircle
 10
368.0580724438641
 20
192.5312334599731
 30
0.0
 40
9.0
100
AcDbArc
 50
74.11914999171883
 51
105.8808500082811
  0
SPLINE
  5
1F4F
330
2
100
AcDbEntity
  8
0
100
AcDbSpline
210
0.0
220
0.0
230
1.0
 70
     8
 71
     3
 72
    11
 73
     7
 74
     0
 42
0.0000000001
 43
0.0000000001
 40
0.0
 40
0.0
 40
0.0
 40
0.0
 40
0.4601364636755307
 40
1.04988694485363
 40
1.713742833862792
 40
2.320347933405154
 40
2.320347933405154
 40
2.320347933405154
 40
2.320347933405178
 10
367.770572443409
 20
200.0142334599733
 30
0.0
 10
367.7481547863013
 20
200.1692568996531
 30
0.0
 10
367.6970047310681
 20
200.5229717175707
 30
0.0
 10
367.2611195695344
 20
200.9476993891724
 30
0.0
 10
366.6560688545269
 20
201.1668865691381
 30
0.0
 10
366.2308842303512
 20
201.0978952695274
 30
0.0
 10
366.0283326207001
 20
201.0836749973508
 30
0.0
  0
LINE
  5
1F50
330
2
100
AcDbEntity
  8
0
100
AcDbLine
 10
364.0580574438641
 20
198.9312334599731
 30
0.0
 11
371.5580574438642
 21
198.9312334599732
 31
0.0
  0
LINE
  5
1F51
330
2
100
AcDbEntity
  8
0
100
AcDbLine
 10
366.0283326207001
 20
201.0836749973508
 30
0.0
 11
366.0080724438642
 21
201.2946517428125
 31
0.0
  0
LINE
  5
1F52
330
2
100
AcDbEntity
  8
0
100
AcDbLine
 10
364.5580724438642
 20
198.9312334599732
 30
0.0
 11
364.656008582752
 21
200.0506486497916
 31
0.0
  0
ARC
  5
1F53
330
2
100
AcDbEntity
  8
0
100
AcDbCircle
 10
365.9510616902712
 20
199.9373461842195
 30
0.0
 40
1.3
100
AcDbArc
 50
105.8808500082811
 51
175.0
  0
LINE
  5
1F54
330
2
100
AcDbEntity
  8
0
100
AcDbLine
 10
363.5580574438642
 20
201.4312334599731
 30
0.0
 11
364.0580574438641
 21
200.9312334599731
 31
0.0
  0
LINE
  5
1F55
330
2
100
AcDbEntity
  8
0
100
AcDbLine
 10
364.0580574438641
 20
198.9312334599731
 30
0.0
 11
364.0580574438641
 21
200.9312334599733
 31
0.0
  0
LINE
  5
1F56
330
2
100
AcDbEntity
  8
0
100
AcDbLine
 10
364.0580574438641
 20
200.9312334599731
 30
0.0
 11
365.1130950542436
 21
200.9312334599731
 31
0.0
  0
LINE
  5
1F57
330
2
100
AcDbEntity
  8
0
100
AcDbLine
 10
369.3959812598904
 20
201.4312334599731
 30
0.0
 11
370.5580574438641
 21
201.4312334599731
 31
0.0
  0
LINE
  5
1F58
330
2
100
AcDbEntity
  8
0
100
AcDbLine
 10
371.5580724438641
 20
198.9312334599732
 30
0.0
 11
371.4601363049763
 21
200.0506486497916
 31
0.0
  0
ARC
  5
1F59
330
2
100
AcDbEntity
  8
0
100
AcDbCircle
 10
370.1650831974569
 20
199.9373461842195
 30
0.0
 40
1.3
100
AcDbArc
 50
4.999999999999795
 51
74.11914999171883
  0
LINE
  5
1F5A
330
2
100
AcDbEntity
  8
0
100
AcDbLine
 10
370.0878122670282
 20
201.0836749973508
 30
0.0
 11
370.1080724438642
 21
201.2946517428125
 31
0.0
  0
LINE
  5
1F5B
330
2
100
AcDbEntity
  8
0
100
AcDbLine
 10
368.3455724443191
 20
200.0142334599733
 30
0.0
 11
367.770572443409
 21
200.0142334599733
 31
0.0
  0
SPLINE
  5
1F5C
330
2
100
AcDbEntity
  8
0
100
AcDbSpline
210
0.0
220
0.0
230
1.0
 70
     8
 71
     3
 72
    11
 73
     7
 74
     0
 42
0.0000000001
 43
0.0000000001
 40
0.0
 40
0.0
 40
0.0
 40
0.0
 40
0.4601364636755307
 40
1.04988694485363
 40
1.713742833862792
 40
2.320347933405154
 40
2.320347933405154
 40
2.320347933405154
 40
2.320347933405178
 10
368.3455724443191
 20
200.0142334599733
 30
0.0
 10
368.3679901014271
 20
200.1692568996531
 30
0.0
 10
368.4191401566603
 20
200.5229717175707
 30
0.0
 10
368.8550253181939
 20
200.9476993891724
 30
0.0
 10
369.4600760332013
 20
201.1668865691381
 30
0.0
 10
369.8852606573771
 20
201.0978952695274
 30
0.0
 10
370.0878122670282
 20
201.0836749973508
 30
0.0
  0
LINE
  5
1F5D
330
2
100
AcDbEntity
  8
0
100
AcDbLine
 10
370.5580574438641
 20
201.4312334599731
 30
0.0
 11
371.5580574438642
 21
200.4312334599732
 31
0.0
  0
LINE
  5
1F5F
330
2
100
AcDbEntity
  8
0
100
AcDbLine
 10
644.4514552598896
 20
201.4312334599731
 30
0.0
 11
688.6135464438641
 21
201.4312334599731
 31
0.0
  0
LINE
  5
1F60
330
2
100
AcDbEntity
  8
0
100
AcDbLine
 10
647.1135468724352
 20
200.4312334599732
 30
0.0
 11
689.6135534438642
 21
200.4312334599732
 31
0.0
  0
LINE
  5
1F62
330
2
100
AcDbEntity
  8
0
100
AcDbLine
 10
689.6135534438642
 20
172.4312354599731
 30
0.0
 11
639.6135464438641
 21
172.4312354599731
 31
0.0
  0
LINE
  5
1F63
330
2
100
AcDbEntity
  8
0
100
AcDbLine
 10
688.1135534438642
 20
170.4312354599731
 30
0.0
 11
641.6135464438641
 21
170.4312354599731
 31
0.0
  0
LINE
  5
1F64
330
2
100
AcDbEntity
  8
CENTER
100
AcDbLine
 10
697.5573024438642
 20
191.9312334599731
 30
0.0
 11
635.6612434801261
 21
191.9312334599731
 31
0.0
  0
LINE
  5
1F65
330
2
100
AcDbEntity
  8
0
100
AcDbLine
 10
691.6135534438642
 20
182.4312354599731
 30
0.0
 11
639.6135464438641
 21
182.4312354599731
 31
0.0
  0
LINE
  5
1F66
330
2
100
AcDbEntity
  8
0
100
AcDbLine
 10
639.6135464438643
 20
200.4312334599732
 30
0.0
 11
639.6135464438641
 21
172.4312354599731
 31
0.0
  0
LINE
  5
1F67
330
2
100
AcDbEntity
  8
CENTER
100
AcDbLine
 10
664.6135464438641
 20
165.7375344599731
 30
0.0
 11
664.6135464438641
 21
206.8187334599731
 31
0.0
  0
LINE
  5
1F68
330
2
100
AcDbEntity
  8
0
100
AcDbLine
 10
642.1135464438641
 20
170.4312354599731
 30
0.0
 11
642.1135464438641
 21
168.9312354599731
 31
0.0
  0
LINE
  5
1F69
330
2
100
AcDbEntity
  8
0
100
AcDbLine
 10
641.6135464438641
 20
170.4312354599731
 30
0.0
 11
639.6135464438641
 21
172.4312354599731
 31
0.0
  0
LINE
  5
1F6A
330
2
100
AcDbEntity
  8
0
100
AcDbLine
 10
647.1135468724352
 20
200.9312334599731
 30
0.0
 11
646.0585238334845
 21
200.9312334599731
 31
0.0
  0
LINE
  5
1F6B
330
2
100
AcDbEntity
  8
0
100
AcDbLine
 10
647.1135468724352
 20
198.9312334599731
 30
0.0
 11
639.6135468724352
 21
198.9312334599731
 31
0.0
  0
ARC
  5
1F6C
330
2
100
AcDbEntity
  8
0
100
AcDbCircle
 10
643.1135464438642
 20
192.531233459973
 30
0.0
 40
9.0
100
AcDbArc
 50
74.11914999171883
 51
105.8808500082811
  0
SPLINE
  5
1F6D
330
2
100
AcDbEntity
  8
0
100
AcDbSpline
210
0.0
220
0.0
230
1.0
 70
     8
 71
     3
 72
    11
 73
     7
 74
     0
 42
0.0000000001
 43
0.0000000001
 40
0.0
 40
0.0
 40
0.0
 40
0.0
 40
0.4601364636755307
 40
1.04988694485363
 40
1.713742833862792
 40
2.320347933405154
 40
2.320347933405154
 40
2.320347933405154
 40
2.320347933405178
 10
642.8260464434092
 20
200.014233459973
 30
0.0
 10
642.8036287863013
 20
200.1692568996531
 30
0.0
 10
642.7524787310679
 20
200.5229717175706
 30
0.0
 10
642.3165935695343
 20
200.9476993891722
 30
0.0
 10
641.7115428545271
 20
201.1668865691381
 30
0.0
 10
641.286358230351
 20
201.0978952695273
 30
0.0
 10
641.0838066207002
 20
201.0836749973508
 30
0.0
  0
LINE
  5
1F6E
330
2
100
AcDbEntity
  8
0
100
AcDbLine
 10
641.0838066207002
 20
201.0836749973508
 30
0.0
 11
641.0635464438642
 21
201.2946517428122
 31
0.0
  0
LINE
  5
1F6F
330
2
100
AcDbEntity
  8
0
100
AcDbLine
 10
639.6135464438643
 20
198.9312334599731
 30
0.0
 11
639.7114825827522
 21
200.0506486497914
 31
0.0
  0
ARC
  5
1F70
330
2
100
AcDbEntity
  8
0
100
AcDbCircle
 10
641.0065356902712
 20
199.9373461842195
 30
0.0
 40
1.3
100
AcDbArc
 50
105.8808500082811
 51
175.0
  0
LINE
  5
1F71
330
2
100
AcDbEntity
  8
0
100
AcDbLine
 10
639.6135464438643
 20
200.4312334599732
 30
0.0
 11
640.6135464438643
 21
201.4312334599731
 31
0.0
  0
LINE
  5
1F72
330
2
100
AcDbEntity
  8
0
100
AcDbLine
 10
640.6135464438643
 20
201.4312334599731
 30
0.0
 11
641.7756376278389
 21
201.4312334599731
 31
0.0
  0
LINE
  5
1F73
330
2
100
AcDbEntity
  8
0
100
AcDbLine
 10
646.6135464438641
 20
198.9312334599731
 30
0.0
 11
646.5156103049762
 21
200.0506486497914
 31
0.0
  0
ARC
  5
1F74
330
2
100
AcDbEntity
  8
0
100
AcDbCircle
 10
645.2205571974571
 20
199.9373461842195
 30
0.0
 40
1.3
100
AcDbArc
 50
4.999999999999795
 51
74.11914999171883
  0
LINE
  5
1F75
330
2
100
AcDbEntity
  8
0
100
AcDbLine
 10
645.1432862670283
 20
201.0836749973508
 30
0.0
 11
645.1635464438642
 21
201.2946517428122
 31
0.0
  0
LINE
  5
1F76
330
2
100
AcDbEntity
  8
0
100
AcDbLine
 10
643.4010464443193
 20
200.014233459973
 30
0.0
 11
642.8260464434092
 21
200.014233459973
 31
0.0
  0
SPLINE
  5
1F77
330
2
100
AcDbEntity
  8
0
100
AcDbSpline
210
0.0
220
0.0
230
1.0
 70
     8
 71
     3
 72
    11
 73
     7
 74
     0
 42
0.0000000001
 43
0.0000000001
 40
0.0
 40
0.0
 40
0.0
 40
0.0
 40
0.4601364636755307
 40
1.04988694485363
 40
1.713742833862792
 40
2.320347933405154
 40
2.320347933405154
 40
2.320347933405154
 40
2.320347933405178
 10
643.4010464443193
 20
200.014233459973
 30
0.0
 10
643.4234641014271
 20
200.1692568996531
 30
0.0
 10
643.4746141566604
 20
200.5229717175706
 30
0.0
 10
643.9104993181939
 20
200.9476993891722
 30
0.0
 10
644.5155500332012
 20
201.1668865691381
 30
0.0
 10
644.9407346573772
 20
201.0978952695273
 30
0.0
 10
645.1432862670283
 20
201.0836749973508
 30
0.0
  0
LINE
  5
1F78
330
2
100
AcDbEntity
  8
0
100
AcDbLine
 10
647.6135468724351
 20
201.431233459973
 30
0.0
 11
647.1135468724352
 21
200.9312334599731
 31
0.0
  0
LINE
  5
1F79
330
2
100
AcDbEntity
  8
0
100
AcDbLine
 10
647.1135468724352
 20
198.9312334599731
 30
0.0
 11
647.1135468724352
 21
200.9312334599731
 31
0.0
  0
LINE
  5
1F7B
330
2
100
AcDbEntity
  8
0
100
AcDbLine
 10
689.6135534438642
 20
200.4312334599732
 30
0.0
 11
689.6135534438642
 21
172.4312354599731
 31
0.0
  0
LINE
  5
1F7C
330
2
100
AcDbEntity
  8
0
100
AcDbLine
 10
695.1135384438641
 20
195.9312334599731
 30
0.0
 11
695.1135384438641
 21
187.9312334599731
 31
0.0
  0
LINE
  5
1F7D
330
2
100
AcDbEntity
  8
0
100
AcDbLine
 10
691.6135384438641
 20
198.4312334599731
 30
0.0
 11
691.6135534438642
 21
182.4312354599731
 31
0.0
  0
LINE
  5
1F7F
330
2
100
AcDbEntity
  8
0
100
AcDbLine
 10
688.1135534438642
 20
170.4312354599731
 30
0.0
 11
688.1135534438642
 21
168.9312354599731
 31
0.0
  0
LINE
  5
1F80
330
2
100
AcDbEntity
  8
0
100
AcDbLine
 10
695.1135534438642
 20
187.9312334599731
 30
0.0
 11
691.6135534438642
 21
186.4312334599731
 31
0.0
  0
LINE
  5
1F81
330
2
100
AcDbEntity
  8
0
100
AcDbLine
 10
689.6135534438642
 20
172.4312354599731
 30
0.0
 11
687.6135534438642
 21
170.4312354599731
 31
0.0
  0
LINE
  5
1F82
330
2
100
AcDbEntity
  8
0
100
AcDbLine
 10
695.1135384438641
 20
195.9312334599731
 30
0.0
 11
691.6135384438641
 21
197.4312334599732
 31
0.0
  0
LINE
  5
1F83
330
2
100
AcDbEntity
  8
0
100
AcDbLine
 10
688.6135534438643
 20
201.4312334599731
 30
0.0
 11
689.6135534438642
 21
200.4312334599732
 31
0.0
  0
ARC
  5
1F84
330
2
100
AcDbEntity
  8
0
100
AcDbCircle
 10
690.6135384438641
 20
198.4312334599731
 30
0.0
 40
1.0
100
AcDbArc
 50
0.0
 51
90.0
  0
LINE
  5
1F85
330
2
100
AcDbEntity
  8
0
100
AcDbLine
 10
690.6135534438642
 20
199.4312334599731
 30
0.0
 11
689.6135534438642
 21
199.4312334599731
 31
0.0
  0
LINE
  5
1F86
330
2
100
AcDbEntity
  8
0
100
AcDbLine
 10
642.0134484438641
 20
351.5513895609468
 30
0.0
 11
682.1135534438641
 21
351.5513895609468
 31
0.0
  0
LINE
  5
1F87
330
2
100
AcDbEntity
  8
0
100
AcDbLine
 10
687.6135534438641
 20
352.9513835609467
 30
0.0
 11
641.6136534438642
 21
352.9513835609467
 31
0.0
  0
LINE
  5
1F88
330
2
100
AcDbEntity
  8
0
100
AcDbLine
 10
687.6135534438641
 20
302.9513835609467
 30
0.0
 11
641.6136534438642
 21
302.9513835609469
 31
0.0
  0
LINE
  5
1F89
330
2
100
AcDbEntity
  8
0
100
AcDbLine
 10
687.2135524438641
 20
304.3513925609468
 30
0.0
 11
647.1136534438642
 21
304.3513925609468
 31
0.0
  0
LINE
  5
1F8A
330
2
100
AcDbEntity
  8
0
100
AcDbLine
 10
639.6136534438642
 20
304.9513835609469
 30
0.0
 11
639.6136534438642
 21
350.9513835609467
 31
0.0
  0
LINE
  5
1F8B
330
2
100
AcDbEntity
  8
CENTER
100
AcDbLine
 10
664.6135464438641
 20
297.5621576168391
 30
0.0
 11
664.6135464438641
 21
358.7013835609468
 31
0.0
  0
LINE
  5
1F8C
330
2
100
AcDbEntity
  8
0
100
AcDbLine
 10
641.0134484438641
 20
350.5513895609468
 30
0.0
 11
641.0134484438641
 21
310.4513835609469
 31
0.0
  0
ARC
  5
1F8D
330
2
100
AcDbEntity
  8
0
100
AcDbCircle
 10
643.1134544438641
 20
306.4513835609468
 30
0.0
 40
4.0
100
AcDbArc
 50
0.0
 51
90.0
  0
ARC
  5
1F8E
330
2
100
AcDbEntity
  8
0
100
AcDbCircle
 10
641.0837544438638
 20
304.4216835609468
 30
0.0
 40
1.742199999999999
100
AcDbArc
 50
359.9986903345002
 51
90.00130966549649
  0
ARC
  5
1F8F
330
2
100
AcDbEntity
  8
0
100
AcDbCircle
 10
641.0837544438638
 20
308.4810835609467
 30
0.0
 40
1.742199999999999
100
AcDbArc
 50
269.9986903345035
 51
0.0013096654997424
  0
CIRCLE
  5
1F90
330
2
100
AcDbEntity
  8
0
100
AcDbCircle
 10
643.1134544438641
 20
306.4513835609468
 30
0.0
 40
3.500000000000028
  0
LINE
  5
1F91
330
2
100
AcDbEntity
  8
0
100
AcDbLine
 10
643.1136534438642
 20
310.4513835609469
 30
0.0
 11
639.6136534438642
 21
310.4513835609469
 31
0.0
  0
ARC
  5
1F92
330
2
100
AcDbEntity
  8
0
100
AcDbCircle
 10
643.1134544438641
 20
306.4513835609468
 30
0.0
 40
2.049999999999998
100
AcDbArc
 50
171.9380399160179
 51
180.0
  0
ARC
  5
1F93
330
2
100
AcDbEntity
  8
0
100
AcDbCircle
 10
643.1134544438641
 20
306.4513835609468
 30
0.0
 40
2.049999999999998
100
AcDbArc
 50
180.0
 51
188.0619600839818
  0
LINE
  5
1F94
330
2
100
AcDbEntity
  8
0
100
AcDbLine
 10
641.6136534438642
 20
302.9513835609469
 30
0.0
 11
639.6136534438642
 21
304.9513835609469
 31
0.0
  0
LINE
  5
1F95
330
2
100
AcDbEntity
  8
0
100
AcDbLine
 10
639.6136534438642
 20
304.9513835609469
 30
0.0
 11
641.6136534438642
 21
302.9513835609469
 31
0.0
  0
ARC
  5
1F96
330
2
100
AcDbEntity
  8
0
100
AcDbCircle
 10
645.1431544438641
 20
304.4216835609468
 30
0.0
 40
1.742199999999999
100
AcDbArc
 50
89.99869033450025
 51
180.0013096654996
  0
ARC
  5
1F97
330
2
100
AcDbEntity
  8
0
100
AcDbCircle
 10
645.1431544438641
 20
308.4810835609467
 30
0.0
 40
1.742199999999999
100
AcDbArc
 50
179.9986903345001
 51
270.0013096654964
  0
ARC
  5
1F98
330
2
100
AcDbEntity
  8
0
100
AcDbCircle
 10
643.1134544438641
 20
306.4513835609468
 30
0.0
 40
2.049999999999998
100
AcDbArc
 50
0.0
 51
8.061960083981905
  0
ARC
  5
1F99
330
2
100
AcDbEntity
  8
0
100
AcDbCircle
 10
643.1134544438641
 20
306.4513835609468
 30
0.0
 40
2.049999999999998
100
AcDbArc
 50
261.9380399160177
 51
270.0
  0
ARC
  5
1F9A
330
2
100
AcDbEntity
  8
0
100
AcDbCircle
 10
643.1134544438641
 20
306.4513835609468
 30
0.0
 40
2.049999999999998
100
AcDbArc
 50
270.0
 51
278.0619600839819
  0
ARC
  5
1F9B
330
2
100
AcDbEntity
  8
0
100
AcDbCircle
 10
643.1134544438641
 20
306.4513835609468
 30
0.0
 40
2.049999999999998
100
AcDbArc
 50
351.9380399160181
 51
0.0
  0
ARC
  5
1F9C
330
2
100
AcDbEntity
  8
0
100
AcDbCircle
 10
643.1134544438641
 20
306.4513835609468
 30
0.0
 40
2.049999999999998
100
AcDbArc
 50
90.0
 51
98.06196008398213
  0
ARC
  5
1F9D
330
2
100
AcDbEntity
  8
0
100
AcDbCircle
 10
643.1134544438641
 20
306.4513835609468
 30
0.0
 40
2.049999999999998
100
AcDbArc
 50
81.93803991601789
 51
90.0
  0
LINE
  5
1F9E
330
2
100
AcDbEntity
  8
0
100
AcDbLine
 10
647.1136534438642
 20
306.4513835609468
 30
0.0
 11
647.1136534438642
 21
302.9513835609469
 31
0.0
  0
LINE
  5
1F9F
330
2
100
AcDbEntity
  8
0
100
AcDbLine
 10
639.6134544438641
 20
350.9513835609467
 30
0.0
 11
641.6136534438642
 21
352.9513835609467
 31
0.0
  0
LINE
  5
1FA0
330
2
100
AcDbEntity
  8
0
100
AcDbLine
 10
639.6136534438642
 20
350.9513835609467
 30
0.0
 11
641.6136534438642
 21
352.9513835609467
 31
0.0
  0
LINE
  5
1FA1
330
2
100
AcDbEntity
  8
0
100
AcDbLine
 10
639.6136534438642
 20
350.9513835609467
 30
0.0
 11
641.6136534438642
 21
352.9513835609467
 31
0.0
  0
LINE
  5
1FA2
330
2
100
AcDbEntity
  8
0
100
AcDbLine
 10
642.0134484438641
 20
351.5513895609468
 30
0.0
 11
641.0134484438641
 21
350.5513895609468
 31
0.0
  0
LINE
  5
1FA3
330
2
100
AcDbEntity
  8
0
100
AcDbLine
 10
689.6135534438641
 20
304.9513835609467
 30
0.0
 11
689.6135534438641
 21
350.9513835609467
 31
0.0
  0
LINE
  5
1FA4
330
2
100
AcDbEntity
  8
0
100
AcDbLine
 10
688.2135594438641
 20
305.3513925609468
 30
0.0
 11
688.2135524438641
 21
345.4513835609468
 31
0.0
  0
LINE
  5
1FA5
330
2
100
AcDbEntity
  8
0
100
AcDbLine
 10
689.6135534438641
 20
304.9513835609467
 30
0.0
 11
687.6135534438641
 21
302.9513835609467
 31
0.0
  0
LINE
  5
1FA6
330
2
100
AcDbEntity
  8
0
100
AcDbLine
 10
688.2135594438641
 20
305.3513925609468
 30
0.0
 11
687.2135524438641
 21
304.3513925609468
 31
0.0
  0
LINE
  5
1FA7
330
2
100
AcDbEntity
  8
0
100
AcDbLine
 10
691.6135534438641
 20
333.4513835609468
 30
0.0
 11
695.1135534438641
 21
329.9513835609467
 31
0.0
  0
LINE
  5
1FA8
330
2
100
AcDbEntity
  8
0
100
AcDbLine
 10
695.1135534438641
 20
325.9513835609467
 30
0.0
 11
691.6135534438641
 21
322.4513835609467
 31
0.0
  0
LINE
  5
1FA9
330
2
100
AcDbEntity
  8
0
100
AcDbLine
 10
691.6135534438641
 20
334.4513835609467
 30
0.0
 11
691.6135534438641
 21
321.4513835609468
 31
0.0
  0
ARC
  5
1FAA
330
2
100
AcDbEntity
  8
0
100
AcDbCircle
 10
690.6135384438641
 20
321.4513835609468
 30
0.0
 40
1.0
100
AcDbArc
 50
270.0
 51
0.0
  0
LINE
  5
1FAB
330
2
100
AcDbEntity
  8
0
100
AcDbLine
 10
690.6135534438641
 20
320.4513835609468
 30
0.0
 11
689.6135534438641
 21
320.4513835609468
 31
0.0
  0
ARC
  5
1FAC
330
2
100
AcDbEntity
  8
0
100
AcDbCircle
 10
690.6135534438642
 20
334.4513835609467
 30
0.0
 40
1.0
100
AcDbArc
 50
0.0
 51
90.0
  0
LINE
  5
1FAD
330
2
100
AcDbEntity
  8
0
100
AcDbLine
 10
690.6135534438641
 20
335.4513835609468
 30
0.0
 11
689.6135534438641
 21
335.4513835609468
 31
0.0
  0
LINE
  5
1FAE
330
2
100
AcDbEntity
  8
0
100
AcDbLine
 10
695.1135534438641
 20
325.9513835609467
 30
0.0
 11
695.1135534438641
 21
329.9513835609467
 31
0.0
  0
ARC
  5
1FAF
330
2
100
AcDbEntity
  8
0
100
AcDbCircle
 10
684.0838234438639
 20
347.4216835609468
 30
0.0
 40
1.742199999999999
100
AcDbArc
 50
359.9986903345002
 51
90.00130966549649
  0
ARC
  5
1FB0
330
2
100
AcDbEntity
  8
0
100
AcDbCircle
 10
684.0838234438639
 20
351.4810835609468
 30
0.0
 40
1.742199999999999
100
AcDbArc
 50
269.9986903345035
 51
0.0013096654997424
  0
CIRCLE
  5
1FB1
330
2
100
AcDbEntity
  8
0
100
AcDbCircle
 10
686.113523443864
 20
349.4513835609466
 30
0.0
 40
3.500000000000028
  0
ARC
  5
1FB2
330
2
100
AcDbEntity
  8
0
100
AcDbCircle
 10
686.113523443864
 20
349.4513835609466
 30
0.0
 40
4.0
100
AcDbArc
 50
180.0
 51
270.0
  0
ARC
  5
1FB3
330
2
100
AcDbEntity
  8
0
100
AcDbCircle
 10
686.113523443864
 20
349.4513835609466
 30
0.0
 40
2.049999999999998
100
AcDbArc
 50
171.9380399160179
 51
180.0
  0
ARC
  5
1FB4
330
2
100
AcDbEntity
  8
0
100
AcDbCircle
 10
686.113523443864
 20
349.4513835609466
 30
0.0
 40
2.049999999999998
100
AcDbArc
 50
180.0
 51
188.0619600839818
  0
LINE
  5
1FB5
330
2
100
AcDbEntity
  8
0
100
AcDbLine
 10
682.1135534438641
 20
349.4513835609467
 30
0.0
 11
682.1135534438641
 21
352.9511845609468
 31
0.0
  0
ARC
  5
1FB6
330
2
100
AcDbEntity
  8
0
100
AcDbCircle
 10
688.1432234438641
 20
347.4216835609468
 30
0.0
 40
1.742199999999999
100
AcDbArc
 50
89.99869033450025
 51
180.0013096654996
  0
LINE
  5
1FB7
330
2
100
AcDbEntity
  8
0
100
AcDbLine
 10
686.113523443864
 20
345.4513835609468
 30
0.0
 11
689.6135234438641
 21
345.4513835609468
 31
0.0
  0
ARC
  5
1FB8
330
2
100
AcDbEntity
  8
0
100
AcDbCircle
 10
686.113523443864
 20
349.4513835609466
 30
0.0
 40
2.049999999999998
100
AcDbArc
 50
261.9380399160177
 51
270.0
  0
ARC
  5
1FB9
330
2
100
AcDbEntity
  8
0
100
AcDbCircle
 10
686.113523443864
 20
349.4513835609466
 30
0.0
 40
2.049999999999998
100
AcDbArc
 50
270.0
 51
278.0619600839819
  0
LINE
  5
1FBA
330
2
100
AcDbEntity
  8
0
100
AcDbLine
 10
689.6135534438641
 20
350.9513835609467
 30
0.0
 11
687.6135534438641
 21
352.9513835609467
 31
0.0
  0
LINE
  5
1FBB
330
2
100
AcDbEntity
  8
0
100
AcDbLine
 10
689.6135534438641
 20
350.9513835609467
 30
0.0
 11
687.6135534438641
 21
352.9513835609467
 31
0.0
  0
ARC
  5
1FBC
330
2
100
AcDbEntity
  8
0
100
AcDbCircle
 10
688.1432234438641
 20
351.4810835609468
 30
0.0
 40
1.742199999999999
100
AcDbArc
 50
179.9986903345001
 51
270.0013096654964
  0
ARC
  5
1FBD
330
2
100
AcDbEntity
  8
0
100
AcDbCircle
 10
686.113523443864
 20
349.4513835609466
 30
0.0
 40
2.049999999999998
100
AcDbArc
 50
0.0
 51
8.061960083981905
  0
ARC
  5
1FBE
330
2
100
AcDbEntity
  8
0
100
AcDbCircle
 10
686.113523443864
 20
349.4513835609466
 30
0.0
 40
2.049999999999998
100
AcDbArc
 50
351.9380399160181
 51
0.0
  0
ARC
  5
1FBF
330
2
100
AcDbEntity
  8
0
100
AcDbCircle
 10
686.113523443864
 20
349.4513835609466
 30
0.0
 40
2.049999999999998
100
AcDbArc
 50
90.0
 51
98.06196008398213
  0
ARC
  5
1FC0
330
2
100
AcDbEntity
  8
0
100
AcDbCircle
 10
686.113523443864
 20
349.4513835609466
 30
0.0
 40
2.049999999999998
100
AcDbArc
 50
81.93803991601789
 51
90.0
  0
ENDSEC
  0
SECTION
  2
OBJECTS
  0
DICTIONARY
  5
7
330
0
100
AcDbDictionary
  3
ACAD_GROUP
350
75
  3
ACAD_LAYOUT
350
61
  3
ACAD_MLINESTYLE
350
76
  3
ACAD_PLOTSETTINGS
350
77
  3
ACAD_PLOTSTYLENAME
350
6
  3
ACADDIM
350
480
  3
ACDBHEADERROUNDTRIPXREC
350
20FD
  3
ACDBVARIABLEDICTIONARY
350
102
  3
DWGPROPS
350
3D2
  0
DICTIONARY
  5
20E1
330
2
100
AcDbDictionary
280
     1
  3
ACAD_LAYOUTSELFREF
360
211E
  0
DICTIONARY
  5
211F
330
20F7
100
AcDbDictionary
280
     1
  3
ACAD_LAYOUTSELFREF
360
2120
  0
DICTIONARY
  5
75
102
{ACAD_REACTORS
330
7
102
}
330
7
100
AcDbDictionary
  0
DICTIONARY
  5
61
102
{ACAD_REACTORS
330
7
102
}
330
7
100
AcDbDictionary
  0
DICTIONARY
  5
76
102
{ACAD_REACTORS
330
7
102
}
330
7
100
AcDbDictionary
  3
STANDARD
350
78
  0
DICTIONARY
  5
77
102
{ACAD_REACTORS
330
7
102
}
330
7
100
AcDbDictionary
  0
ACDBDICTIONARYWDFLT
  5
6
102
{ACAD_REACTORS
330
7
102
}
330
7
100
AcDbDictionary
281
     1
  3
Normal
350
5
100
AcDbDictionaryWithDefault
340
5
  0
XRECORD
  5
480
102
{ACAD_REACTORS
330
7
102
}
330
7
100
AcDbXrecord
 90
   990106
  3

 60
     0
 61
     0
 62
     1
 63
     3
 64
     1
 65
     0
 66
     0
 67
     3
 68
     1
 69
     0
 70
     0
 71
     0
 72
     0
 40
0.0
170
     2
340
0
  0
DICTIONARY
  5
20FD
102
{ACAD_REACTORS
330
7
102
}
330
7
100
AcDbDictionary
  3
CEPSNTYPE
350
2107
  3
DIMSTYLEDATA
350
210B
  3
FINGERPRINTGUID
350
2108
  3
HYPERLINKBASE
350
2100
  3
INSUNITS
350
2106
  3
LAYOUTDICT
350
2102
  3
LWETCUNION
350
2105
  3
PLOTSETDICT
350
2103
  3
PLOTSTYLNAMDICT
350
2104
  3
PSVPSCALE
350
210A
  3
PUCSBASE
350
210E
  3
PUCSORGBACK
350
2114
  3
PUCSORGBOTTOM
350
2110
  3
PUCSORGFRONT
350
2113
  3
PUCSORGLEFT
350
2111
  3
PUCSORGRIGHT
350
2112
  3
PUCSORGTOP
350
210F
  3
PUCSORTHOREF
350
210C
  3
PUCSORTHOVIEW
350
210D
  3
STYLESHEET
350
2101
  3
TSTACKALIGN
350
20FE
  3
TSTACKSIZE
350
20FF
  3
UCSBASE
350
2117
  3
UCSORGBACK
350
211D
  3
UCSORGBOTTOM
350
2119
  3
UCSORGFRONT
350
211C
  3
UCSORGLEFT
350
211A
  3
UCSORGRIGHT
350
211B
  3
UCSORGTOP
350
2118
  3
UCSORTHOREF
350
2115
  3
UCSORTHOVIEW
350
2116
  3
VERSIONGUID
350
2109
  0
DICTIONARY
  5
102
102
{ACAD_REACTORS
330
7
102
}
330
7
100
AcDbDictionary
  3
DIMASSOC
350
103
  0
XRECORD
  5
3D2
102
{ACAD_REACTORS
330
7
102
}
330
7
100
AcDbXrecord
  1
DWGPROPS COOKIE
  2

  3

  4

  6

  7

  8

  9

300
=
301
=
302
=
303
=
304
=
305
=
306
=
307
=
308
=
309
=
 40
0.5353330671296296
 41
2452052.431989363
 42
2453406.550756376
  1

 90
        0
  0
XRECORD
  5
211E
102
{ACAD_REACTORS
330
20E1
102
}
330
20E1
100
AcDbXrecord
340
2
  0
XRECORD
  5
2120
102
{ACAD_REACTORS
330
211F
102
}
330
211F
100
AcDbXrecord
340
20F7
  0
MLINESTYLE
  5
78
102
{ACAD_REACTORS
330
76
102
}
330
76
100
AcDbMlineStyle
  2
STANDARD
 70
     0
  3

 62
     0
 51
90.0
 52
90.0
 71
     2
 49
0.5
 62
   256
  6
BYLAYER
 49
-0.5
 62
   256
  6
BYLAYER
  0
ACDBPLACEHOLDER
  5
5
102
{ACAD_REACTORS
330
6
102
}
330
6
100
AcDbPlaceHolder
280
     0
  0
XRECORD
  5
2107
102
{ACAD_REACTORS
330
20FD
102
}
330
20FD
100
AcDbXrecord
 90
        0
  0
XRECORD
  5
210B
102
{ACAD_REACTORS
330
20FD
102
}
330
20FD
100
AcDbXrecord
1000
DSTYLE
1002
{
1070
   179
 70
     2
1002
}
  0
XRECORD
  5
2108
102
{ACAD_REACTORS
330
20FD
102
}
330
20FD
100
AcDbXrecord
  1
{6385560B-F4B1-4644-A7C2-A3E32AC3D232}
  0
XRECORD
  5
2100
102
{ACAD_REACTORS
330
20FD
102
}
330
20FD
100
AcDbXrecord
  1

  0
XRECORD
  5
2106
102
{ACAD_REACTORS
330
20FD
102
}
330
20FD
100
AcDbXrecord
 90
        0
  0
XRECORD
  5
2102
102
{ACAD_REACTORS
330
20FD
102
}
330
20FD
100
AcDbXrecord
340
61
  0
XRECORD
  5
2105
102
{ACAD_REACTORS
330
20FD
102
}
330
20FD
100
AcDbXrecord
 90
    10781
  0
XRECORD
  5
2103
102
{ACAD_REACTORS
330
20FD
102
}
330
20FD
100
AcDbXrecord
340
77
  0
XRECORD
  5
2104
102
{ACAD_REACTORS
330
20FD
102
}
330
20FD
100
AcDbXrecord
340
6
  0
XRECORD
  5
210A
102
{ACAD_REACTORS
330
20FD
102
}
330
20FD
100
AcDbXrecord
 40
0.0
  0
XRECORD
  5
210E
102
{ACAD_REACTORS
330
20FD
102
}
330
20FD
100
AcDbXrecord
340
0
  0
XRECORD
  5
2114
102
{ACAD_REACTORS
330
20FD
102
}
330
20FD
100
AcDbXrecord
 10
0.0
 20
0.0
 30
0.0
  0
XRECORD
  5
2110
102
{ACAD_REACTORS
330
20FD
102
}
330
20FD
100
AcDbXrecord
 10
0.0
 20
0.0
 30
0.0
  0
XRECORD
  5
2113
102
{ACAD_REACTORS
330
20FD
102
}
330
20FD
100
AcDbXrecord
 10
0.0
 20
0.0
 30
0.0
  0
XRECORD
  5
2111
102
{ACAD_REACTORS
330
20FD
102
}
330
20FD
100
AcDbXrecord
 10
0.0
 20
0.0
 30
0.0
  0
XRECORD
  5
2112
102
{ACAD_REACTORS
330
20FD
102
}
330
20FD
100
AcDbXrecord
 10
0.0
 20
0.0
 30
0.0
  0
XRECORD
  5
210F
102
{ACAD_REACTORS
330
20FD
102
}
330
20FD
100
AcDbXrecord
 10
0.0
 20
0.0
 30
0.0
  0
XRECORD
  5
210C
102
{ACAD_REACTORS
330
20FD
102
}
330
20FD
100
AcDbXrecord
340
0
  0
XRECORD
  5
210D
102
{ACAD_REACTORS
330
20FD
102
}
330
20FD
100
AcDbXrecord
 70
     0
  0
XRECORD
  5
2101
102
{ACAD_REACTORS
330
20FD
102
}
330
20FD
100
AcDbXrecord
  1
Sekkei.ctb
  0
XRECORD
  5
20FE
102
{ACAD_REACTORS
330
20FD
102
}
330
20FD
100
AcDbXrecord
 90
        1
  0
XRECORD
  5
20FF
102
{ACAD_REACTORS
330
20FD
102
}
330
20FD
100
AcDbXrecord
 90
       70
  0
XRECORD
  5
2117
102
{ACAD_REACTORS
330
20FD
102
}
330
20FD
100
AcDbXrecord
340
0
  0
XRECORD
  5
211D
102
{ACAD_REACTORS
330
20FD
102
}
330
20FD
100
AcDbXrecord
 10
0.0
 20
0.0
 30
0.0
  0
XRECORD
  5
2119
102
{ACAD_REACTORS
330
20FD
102
}
330
20FD
100
AcDbXrecord
 10
0.0
 20
0.0
 30
0.0
  0
XRECORD
  5
211C
102
{ACAD_REACTORS
330
20FD
102
}
330
20FD
100
AcDbXrecord
 10
0.0
 20
0.0
 30
0.0
  0
XRECORD
  5
211A
102
{ACAD_REACTORS
330
20FD
102
}
330
20FD
100
AcDbXrecord
 10
0.0
 20
0.0
 30
0.0
  0
XRECORD
  5
211B
102
{ACAD_REACTORS
330
20FD
102
}
330
20FD
100
AcDbXrecord
 10
0.0
 20
0.0
 30
0.0
  0
XRECORD
  5
2118
102
{ACAD_REACTORS
330
20FD
102
}
330
20FD
100
AcDbXrecord
 10
0.0
 20
0.0
 30
0.0
  0
XRECORD
  5
2115
102
{ACAD_REACTORS
330
20FD
102
}
330
20FD
100
AcDbXrecord
340
0
  0
XRECORD
  5
2116
102
{ACAD_REACTORS
330
20FD
102
}
330
20FD
100
AcDbXrecord
 70
     0
  0
XRECORD
  5
2109
102
{ACAD_REACTORS
330
20FD
102
}
330
20FD
100
AcDbXrecord
  1
{E7ECF1FC-D9C8-4472-8E7A-88590D6C2283}
  0
DICTIONARYVAR
  5
103
102
{ACAD_REACTORS
330
102
102
}
330
102
100
DictionaryVariables
280
     0
  1
1
  0
ENDSEC
  0
EOF
