  0
SECTION
  2
HEADER
  9
$ACADVER
  1
AC1014
  9
$ACADMAINTVER
 70
     9
  9
$DWGCODEPAGE
  3
ANSI_932
  9
$INSBASE
 10
0.0
 20
0.0
 30
0.0
  9
$EXTMIN
 10
82.49734126498795
 20
15.34275674052428
 30
0.0
  9
$EXTMAX
 10
863.7982370426938
 20
434.2197267406698
 30
0.0
  9
$LIMMIN
 10
0.0
 20
0.0
  9
$LIMMAX
 10
297.0
 20
210.0
  9
$ORTHOMODE
 70
     1
  9
$REGENMODE
 70
     1
  9
$FILLMODE
 70
     1
  9
$QTEXTMODE
 70
     0
  9
$MIRRTEXT
 70
     0
  9
$DRAGMODE
 70
     2
  9
$LTSCALE
 40
3.0
  9
$OSMODE
 70
    37
  9
$ATTMODE
 70
     1
  9
$TEXTSIZE
 40
2.0
  9
$TRACEWID
 40
1.0
  9
$TEXTSTYLE
  7
STANDARD
  9
$CLAYER
  8
0
  9
$CELTYPE
  6
BYLAYER
  9
$CECOLOR
 62
   256
  9
$CELTSCALE
 40
1.0
  9
$DELOBJ
 70
     1
  9
$DISPSILH
 70
     0
  9
$DIMSCALE
 40
3.0
  9
$DIMASZ
 40
1.8
  9
$DIMEXO
 40
0.625
  9
$DIMDLI
 40
3.75
  9
$DIMRND
 40
0.0
  9
$DIMDLE
 40
0.0
  9
$DIMEXE
 40
0.8
  9
$DIMTP
 40
0.0
  9
$DIMTM
 40
0.0
  9
$DIMTXT
 40
1.8
  9
$DIMCEN
 40
2.5
  9
$DIMTSZ
 40
0.0
  9
$DIMTOL
 70
     0
  9
$DIMLIM
 70
     0
  9
$DIMTIH
 70
     0
  9
$DIMTOH
 70
     0
  9
$DIMSE1
 70
     0
  9
$DIMSE2
 70
     0
  9
$DIMTAD
 70
     1
  9
$DIMZIN
 70
     8
  9
$DIMBLK
  1

  9
$DIMASO
 70
     1
  9
$DIMSHO
 70
     1
  9
$DIMPOST
  1

  9
$DIMAPOST
  1

  9
$DIMALT
 70
     0
  9
$DIMALTD
 70
     4
  9
$DIMALTF
 40
0.0394
  9
$DIMLFAC
 40
1.0
  9
$DIMTOFL
 70
     1
  9
$DIMTVP
 40
0.0
  9
$DIMTIX
 70
     0
  9
$DIMSOXD
 70
     0
  9
$DIMSAH
 70
     0
  9
$DIMBLK1
  1

  9
$DIMBLK2
  1

  9
$DIMSTYLE
  2
STANDARD
  9
$DIMCLRD
 70
     0
  9
$DIMCLRE
 70
     0
  9
$DIMCLRT
 70
     0
  9
$DIMTFAC
 40
1.0
  9
$DIMGAP
 40
0.75
  9
$DIMJUST
 70
     0
  9
$DIMSD1
 70
     0
  9
$DIMSD2
 70
     0
  9
$DIMTOLJ
 70
     1
  9
$DIMTZIN
 70
     0
  9
$DIMALTZ
 70
     0
  9
$DIMALTTZ
 70
     0
  9
$DIMFIT
 70
     3
  9
$DIMUPT
 70
     0
  9
$DIMUNIT
 70
     8
  9
$DIMDEC
 70
     2
  9
$DIMTDEC
 70
     2
  9
$DIMALTU
 70
     8
  9
$DIMALTTD
 70
     4
  9
$DIMTXSTY
  7
STANDARD
  9
$DIMAUNIT
 70
     0
  9
$LUNITS
 70
     2
  9
$LUPREC
 70
     3
  9
$SKETCHINC
 40
1.0
  9
$FILLETRAD
 40
10.0
  9
$AUNITS
 70
     0
  9
$AUPREC
 70
     2
  9
$MENU
  1
.
  9
$ELEVATION
 40
0.0
  9
$PELEVATION
 40
0.0
  9
$THICKNESS
 40
0.0
  9
$LIMCHECK
 70
     0
  9
$BLIPMODE
 70
     0
  9
$CHAMFERA
 40
0.0
  9
$CHAMFERB
 40
0.0
  9
$CHAMFERC
 40
20.0
  9
$CHAMFERD
 40
0.0
  9
$SKPOLY
 70
     0
  9
$TDCREATE
 40
2453557.746080729
  9
$TDUPDATE
 40
2453615.568483067
  9
$TDINDWG
 40
0.2729491898
  9
$TDUSRTIMER
 40
0.2729491898
  9
$USRTIMER
 70
     1
  9
$ANGBASE
 50
0.0
  9
$ANGDIR
 70
     0
  9
$PDMODE
 70
     0
  9
$PDSIZE
 40
-10.0
  9
$PLINEWID
 40
0.0
  9
$COORDS
 70
     2
  9
$SPLFRAME
 70
     0
  9
$SPLINETYPE
 70
     6
  9
$SPLINESEGS
 70
     8
  9
$ATTDIA
 70
     0
  9
$ATTREQ
 70
     1
  9
$HANDLING
 70
-16383
  9
$HANDSEED
  5
2B97
  9
$SURFTAB1
 70
     6
  9
$SURFTAB2
 70
     6
  9
$SURFTYPE
 70
     6
  9
$SURFU
 70
     6
  9
$SURFV
 70
     6
  9
$UCSNAME
  2

  9
$UCSORG
 10
0.0
 20
0.0
 30
0.0
  9
$UCSXDIR
 10
1.0
 20
0.0
 30
0.0
  9
$UCSYDIR
 10
0.0
 20
1.0
 30
0.0
  9
$PUCSNAME
  2

  9
$PUCSORG
 10
0.0
 20
0.0
 30
0.0
  9
$PUCSXDIR
 10
1.0
 20
0.0
 30
0.0
  9
$PUCSYDIR
 10
0.0
 20
1.0
 30
0.0
  9
$USERI1
 70
     0
  9
$USERI2
 70
     0
  9
$USERI3
 70
     0
  9
$USERI4
 70
     0
  9
$USERI5
 70
     0
  9
$USERR1
 40
0.0
  9
$USERR2
 40
0.0
  9
$USERR3
 40
0.0
  9
$USERR4
 40
0.0
  9
$USERR5
 40
0.0
  9
$WORLDVIEW
 70
     1
  9
$SHADEDGE
 70
     3
  9
$SHADEDIF
 70
    70
  9
$TILEMODE
 70
     1
  9
$MAXACTVP
 70
    48
  9
$PINSBASE
 10
0.0
 20
0.0
 30
0.0
  9
$PLIMCHECK
 70
     0
  9
$PEXTMIN
 10
3.0
 20
3.999999999999998
 30
0.0
  9
$PEXTMAX
 10
280.0
 20
194.0
 30
0.0
  9
$PLIMMIN
 10
-5.873748779296875
 20
-5.873749732971191
  9
$PLIMMAX
 10
291.05224609375
 20
204.0995779037475
  9
$UNITMODE
 70
     0
  9
$VISRETAIN
 70
     1
  9
$PLINEGEN
 70
     0
  9
$PSLTSCALE
 70
     0
  9
$TREEDEPTH
 70
  3020
  9
$PICKSTYLE
 70
     1
  9
$CMLSTYLE
  2
STANDARD
  9
$CMLJUST
 70
     0
  9
$CMLSCALE
 40
1.0
  9
$PROXYGRAPHICS
 70
     1
  9
$MEASUREMENT
 70
     0
  0
ENDSEC
  0
SECTION
  2
CLASSES
  0
CLASS
  1
DICTIONARYVAR
  2
AcDbDictionaryVar
  3
AutoCAD 2000
 90
        0
280
     0
281
     0
  0
CLASS
  1
ACDBDICTIONARYWDFLT
  2
AcDbDictionaryWithDefault
  3
AutoCAD 2000
 90
        0
280
     0
281
     0
  0
CLASS
  1
ACDBPLACEHOLDER
  2
AcDbPlaceHolder
  3
AutoCAD 2000
 90
        0
280
     0
281
     0
  0
CLASS
  1
LAYOUT
  2
AcDbLayout
  3
AutoCAD 2000
 90
        0
280
     0
281
     0
  0
CLASS
  1
LONG_TRANSACTION
  2
AcDbLongTransaction
  3
AutoCAD 2000
 90
        0
280
     0
281
     0
  0
CLASS
  1
LWPOLYLINE
  2
AcDbPolyline
  3
AutoCAD 2000
 90
        0
280
     0
281
     1
  0
CLASS
  1
HATCH
  2
AcDbHatch
  3
AutoCAD 2000
 90
        0
280
     0
281
     1
  0
CLASS
  1
XRECORD
  2
AcDbXrecord
  3
AutoCAD 2000
 90
        0
280
     0
281
     0
  0
ENDSEC
  0
SECTION
  2
TABLES
  0
TABLE
  2
VPORT
  5
6E
330
0
100
AcDbSymbolTable
 70
     2
  0
VPORT
  5
2B60
330
6E
100
AcDbSymbolTableRecord
100
AcDbViewportTableRecord
  2
*ACTIVE
 70
     0
 10
0.0
 20
0.0
 11
1.0
 21
1.0
 12
481.5346354264585
 22
249.4372293953619
 13
0.0
 23
0.0
 14
10.0
 24
10.0
 15
10.0
 25
10.0
 16
0.0
 26
0.0
 36
1.0
 17
0.0
 27
0.0
 37
0.0
 40
511.8748628029524
 41
1.566970091027308
 42
50.0
 43
0.0
 44
0.0
 50
0.0
 51
0.0
 71
     0
 72
   100
 73
     1
 74
     3
 75
     0
 76
     0
 77
     0
 78
     0
  0
ENDTAB
  0
TABLE
  2
LTYPE
  5
69
330
0
100
AcDbSymbolTable
 70
     6
  0
LTYPE
  5
6A
330
69
100
AcDbSymbolTableRecord
100
AcDbLinetypeTableRecord
  2
BYBLOCK
 70
     0
  3

 72
    65
 73
     0
 40
0.0
  0
LTYPE
  5
6B
330
69
100
AcDbSymbolTableRecord
100
AcDbLinetypeTableRecord
  2
BYLAYER
 70
     0
  3

 72
    65
 73
     0
 40
0.0
  0
LTYPE
  5
8
330
69
100
AcDbSymbolTableRecord
100
AcDbLinetypeTableRecord
  2
CONTINUOUS
 70
     0
  3
Solid line
 72
    65
 73
     0
 40
0.0
  0
LTYPE
  5
27C
330
69
100
AcDbSymbolTableRecord
100
AcDbLinetypeTableRecord
  2
SEKKEI_A2_
 70
     0
  3
center(A2)  ____ _ ____ _ ____ _ ____ _ ____ _ 
 72
    65
 73
     4
 40
14.28749999999999
 49
9.525
 74
     0
 49
-1.587499999999999
 74
     0
 49
1.587499999999999
 74
     0
 49
-1.587499999999999
 74
     0
  0
LTYPE
  5
2B4
330
69
100
AcDbSymbolTableRecord
100
AcDbLinetypeTableRecord
  2
HIDDEN2
 70
     0
  3
Hidden (.5x) _ _ _ _ _ _ _ _ _ _ _ _ _ _ _ _ _
 72
    65
 73
     2
 40
4.762499999999999
 49
3.174999999999999
 74
     0
 49
-1.587499999999999
 74
     0
  0
LTYPE
  5
477
330
69
100
AcDbSymbolTableRecord
100
AcDbLinetypeTableRecord
  2
SEKKEI-P_A4_
 70
     0
  3
Phantom(A4)  ____ _ _ ____ _ _ ____ _ _ _____
 72
    65
 73
     6
 40
15.0
 49
7.5
 74
     0
 49
-1.5
 74
     0
 49
1.5
 74
     0
 49
-1.5
 74
     0
 49
1.5
 74
     0
 49
-1.5
 74
     0
  0
LTYPE
  5
48F
330
69
100
AcDbSymbolTableRecord
100
AcDbLinetypeTableRecord
  2
SEKKEI_H
 70
     0
  3
Hidden-S _ _ _ _ _ _ _ _ _ _ _ _ _ _ _ _ _
 72
    65
 73
     2
 40
2.381249999999999
 49
1.587499999999999
 74
     0
 49
-0.79375
 74
     0
  0
LTYPE
  5
494
330
69
100
AcDbSymbolTableRecord
100
AcDbLinetypeTableRecord
  2
SEKKEI_P_S
 70
     0
  3
Phantom_S   __ _ _ __ _ _ __ _ _ ___
 72
    65
 73
     6
 40
7.5
 49
3.75
 74
     0
 49
-0.75
 74
     0
 49
0.75
 74
     0
 49
-0.75
 74
     0
 49
0.75
 74
     0
 49
-0.75
 74
     0
  0
ENDTAB
  0
TABLE
  2
LAYER
  5
66
330
0
100
AcDbSymbolTable
 70
    10
  0
LAYER
  5
5E
330
66
100
AcDbSymbolTableRecord
100
AcDbLayerTableRecord
  2
0
 70
     0
 62
     7
  6
CONTINUOUS
  0
LAYER
  5
3E
330
66
100
AcDbSymbolTableRecord
100
AcDbLayerTableRecord
  2
CENTER
 70
     0
 62
     3
  6
SEKKEI_A2_
  0
LAYER
  5
4
330
66
100
AcDbSymbolTableRecord
100
AcDbLayerTableRecord
  2
WAKU
 70
     0
 62
     5
  6
CONTINUOUS
  0
LAYER
  5
E4
330
66
100
AcDbSymbolTableRecord
100
AcDbLayerTableRecord
  2
TEXT
 70
     0
 62
     4
  6
CONTINUOUS
  0
LAYER
  5
135
330
66
100
AcDbSymbolTableRecord
100
AcDbLayerTableRecord
  2
DEFPOINTS
 70
     0
 62
     7
  6
CONTINUOUS
  0
LAYER
  5
2B5
330
66
100
AcDbSymbolTableRecord
100
AcDbLayerTableRecord
  2
HIDS
 70
     0
 62
     1
  6
HIDDEN2
  0
LAYER
  5
2BA
330
66
100
AcDbSymbolTableRecord
100
AcDbLayerTableRecord
  2
HOJO
 70
     0
 62
     4
  6
CONTINUOUS
  0
LAYER
  5
3FA
330
66
100
AcDbSymbolTableRecord
100
AcDbLayerTableRecord
  2
TITLE
 70
     0
 62
     4
  6
CONTINUOUS
  0
LAYER
  5
478
330
66
100
AcDbSymbolTableRecord
100
AcDbLayerTableRecord
  2
PHAS
 70
     0
 62
     2
  6
SEKKEI-P_A4_
  0
ENDTAB
  0
TABLE
  2
STYLE
  5
67
330
0
100
AcDbSymbolTable
 70
     1
  0
STYLE
  5
16
330
67
100
AcDbSymbolTableRecord
100
AcDbTextStyleTableRecord
  2
STANDARD
 70
     0
 40
0.0
 41
1.0
 50
0.0
 71
     0
 42
2.0
  3
simplex.shx
  4
extfont.shx
  0
ENDTAB
  0
TABLE
  2
VIEW
  5
6C
330
0
100
AcDbSymbolTable
 70
     0
  0
ENDTAB
  0
TABLE
  2
UCS
  5
6D
330
0
100
AcDbSymbolTable
 70
     0
  0
ENDTAB
  0
TABLE
  2
APPID
  5
70
330
0
100
AcDbSymbolTable
 70
     2
  0
APPID
  5
71
330
70
100
AcDbSymbolTableRecord
100
AcDbRegAppTableRecord
  2
ACAD
 70
     0
  0
APPID
  5
2B86
330
70
100
AcDbSymbolTableRecord
100
AcDbRegAppTableRecord
  2
CONTENTBLOCKICON
 70
     0
  0
ENDTAB
  0
TABLE
  2
DIMSTYLE
  5
72
330
0
100
AcDbSymbolTable
 70
     1
  0
DIMSTYLE
105
73
330
72
100
AcDbSymbolTableRecord
100
AcDbDimStyleTableRecord
  2
STANDARD
 70
     0
  3

  4

  5

  6

  7

 40
3.0
 41
1.8
 42
0.625
 43
3.75
 44
0.8
 45
0.0
 46
0.0
 47
0.0
 48
0.0
140
1.8
141
2.5
142
0.0
143
0.0394
144
1.0
145
0.0
146
1.0
147
0.75
 71
     0
 72
     0
 73
     0
 74
     0
 75
     0
 76
     0
 77
     1
 78
     8
170
     0
171
     4
172
     1
173
     0
174
     0
175
     0
176
     0
177
     0
178
     0
270
     8
271
     2
272
     2
273
     8
274
     4
340
16
275
     0
280
     0
281
     0
282
     0
283
     1
284
     0
285
     0
286
     0
287
     3
288
     0
  0
ENDTAB
  0
TABLE
  2
BLOCK_RECORD
  5
1
330
0
100
AcDbSymbolTable
 70
    76
  0
BLOCK_RECORD
  5
2
102
{ACAD_XDICTIONARY
360
2B82
102
}
330
1
100
AcDbSymbolTableRecord
100
AcDbBlockTableRecord
  2
*MODEL_SPACE
  0
BLOCK_RECORD
  5
22C0
102
{ACAD_XDICTIONARY
360
2B95
102
}
330
1
100
AcDbSymbolTableRecord
100
AcDbBlockTableRecord
  2
*PAPER_SPACE
  0
BLOCK_RECORD
  5
40C
330
1
100
AcDbSymbolTableRecord
100
AcDbBlockTableRecord
  2
外寸枠A4テンプレート
1001
CONTENTBLOCKICON
1071
        0
1004
2800000020000000200000000100080000000000000400000000000000000000000000000000000000000000000080000080000000808000800000008000800080800000C0C0C000C0DCC000F0CAA6000020400000206000002080000020A0000020C0000020E00000400000004020000040400000406000004080000040A0
1004
000040C0000040E00000600000006020000060400000606000006080000060A0000060C0000060E00000800000008020000080400000806000008080000080A0000080C0000080E00000A0000000A0200000A0400000A0600000A0800000A0A00000A0C00000A0E00000C0000000C0200000C0400000C0600000C0800000C0
1004
A00000C0C00000C0E00000E0000000E0200000E0400000E0600000E0800000E0A00000E0C00000E0E00040000000400020004000400040006000400080004000A0004000C0004000E00040200000402020004020400040206000402080004020A0004020C0004020E000404000004040200040404000404060004040800040
1004
40A0004040C0004040E00040600000406020004060400040606000406080004060A0004060C0004060E00040800000408020004080400040806000408080004080A0004080C0004080E00040A0000040A0200040A0400040A0600040A0800040A0A00040A0C00040A0E00040C0000040C0200040C0400040C0600040C08000
1004
40C0A00040C0C00040C0E00040E0000040E0200040E0400040E0600040E0800040E0A00040E0C00040E0E00080000000800020008000400080006000800080008000A0008000C0008000E00080200000802020008020400080206000802080008020A0008020C0008020E00080400000804020008040400080406000804080
1004
008040A0008040C0008040E00080600000806020008060400080606000806080008060A0008060C0008060E00080800000808020008080400080806000808080008080A0008080C0008080E00080A0000080A0200080A0400080A0600080A0800080A0A00080A0C00080A0E00080C0000080C0200080C0400080C0600080C0
1004
800080C0A00080C0C00080C0E00080E0000080E0200080E0400080E0600080E0800080E0A00080E0C00080E0E000C0000000C0002000C0004000C0006000C0008000C000A000C000C000C000E000C0200000C0202000C0204000C0206000C0208000C020A000C020C000C020E000C0400000C0402000C0404000C0406000C0
1004
408000C040A000C040C000C040E000C0600000C0602000C0604000C0606000C0608000C060A000C060C000C060E000C0800000C0802000C0804000C0806000C0808000C080A000C080C000C080E000C0A00000C0A02000C0A04000C0A06000C0A08000C0A0A000C0A0C000C0A0E000C0C00000C0C02000C0C04000C0C06000
1004
C0C08000C0C0A000F0FBFF00A4A0A000808080000000FF0000FF000000FFFF00FF000000FF00FF00FFFF0000FFFFFF0000000000000000000000000000000000000000000000000000000000000000000000000000000000000000000000000000000000000000000000000000000000000000000000000000000000000000
1004
000000000000000000000000000000000000000000000000000000000000000000000000000000000000000000000000000000000000000000000000000000000000000000000000000000000000000000000000000000000000000000000000000000000000000000000000000000000000FCFCFCFCFCFCFCFCFCFCFCFCFC
1004
FCFCFCFCFCFCFCFCFEFEFEFDFDFCFDFDFD0000FC0000000000000000000000000000000000000000FDFDFDFDFDFDFDFDFD0000FC0000000000000000000000000000000000000000FDFDFEFEFEFEFDFDFD0000FC0000000000000000000000000000000000000000FDFCFEFEFEFEFCFCFC0000FC0000000000000000000000
1004
0000000000000000000000000000000000FC0000FC00000000000000000000000000000000000000000000000000000000FC0000FC00000000000000000000000000000000000000000000000000000000FC0000FC00000000000000000000000000000000000000000000000000000000FC0000FC00000000000000000000
1004
000000000000000000000000000000000000FC0000FC00000000000000000000000000000000000000000000000000000000FC0000FC00000000000000000000000000000000000000000000000000000000FC0000FC00000000000000000000000000000000000000000000000000000000FC0000FC000000000000000000
1004
00000000000000000000000000000000000000FC0000FC00000000000000000000000000000000000000000000000000000000FC0000FC00000000000000000000000000000000000000000000000000000000FC0000FC00000000000000000000000000000000000000000000000000000000FC0000FC0000000000000000
1004
0000000000000000000000000000000000000000FC0000FC00000000000000000000000000000000000000000000000000000000FC0000FC00000000000000000000000000000000000000000000FCFCFCFCFCFCFC0000FCFCFCFCFCFCFCFCFCFCFCFCFCFCFCFCFCFCFCFCFCFCFCFCFDFCFCFCFCFC00000000000000000000
1004
00000000000000000000000000000000000000000000000000000000000000000000000000000000000000000000000000000000000000000000000000000000000000000000000000000000000000000000000000000000000000000000000000000000000000000000000000000000000000000000000000000000000000
1004
0000000000000000000000000000000000000000000000000000000000000000000000000000000000000000000000000000000000000000
  0
BLOCK_RECORD
  5
223B
330
1
100
AcDbSymbolTableRecord
100
AcDbBlockTableRecord
  2
1
  0
BLOCK_RECORD
  5
2360
330
1
100
AcDbSymbolTableRecord
100
AcDbBlockTableRecord
  2
10
  0
BLOCK_RECORD
  5
238B
330
1
100
AcDbSymbolTableRecord
100
AcDbBlockTableRecord
  2
BSPEC_90-90-0038
  0
BLOCK_RECORD
  5
23C9
330
1
100
AcDbSymbolTableRecord
100
AcDbBlockTableRecord
  2
BSPEC_90-45-0038
  0
BLOCK_RECORD
  5
23F8
330
1
100
AcDbSymbolTableRecord
100
AcDbBlockTableRecord
  2
GSPEC_F2S-12-10-240
  0
BLOCK_RECORD
  5
2442
330
1
100
AcDbSymbolTableRecord
100
AcDbBlockTableRecord
  2
GSPEC_F2S-12-10-60
  0
BLOCK_RECORD
  5
245E
330
1
100
AcDbSymbolTableRecord
100
AcDbBlockTableRecord
  2
GSPEC_F2S-12-10-120
  0
BLOCK_RECORD
  5
248E
330
1
100
AcDbSymbolTableRecord
100
AcDbBlockTableRecord
  2
MSPEC_T15F-75
  0
BLOCK_RECORD
  5
24B4
330
1
100
AcDbSymbolTableRecord
100
AcDbBlockTableRecord
  2
MSPEC_T15WF-75
  0
BLOCK_RECORD
  5
24DA
330
1
100
AcDbSymbolTableRecord
100
AcDbBlockTableRecord
  2
MSPEC_T25F-75
  0
BLOCK_RECORD
  5
2500
330
1
100
AcDbSymbolTableRecord
100
AcDbBlockTableRecord
  2
MSPEC_T25WF-75
  0
BLOCK_RECORD
  5
2526
330
1
100
AcDbSymbolTableRecord
100
AcDbBlockTableRecord
  2
MSPEC_T40F-75
  0
BLOCK_RECORD
  5
254C
330
1
100
AcDbSymbolTableRecord
100
AcDbBlockTableRecord
  2
MSPEC_T40WF-75
  0
BLOCK_RECORD
  5
2572
330
1
100
AcDbSymbolTableRecord
100
AcDbBlockTableRecord
  2
MSPEC_T60F-75
  0
BLOCK_RECORD
  5
2598
330
1
100
AcDbSymbolTableRecord
100
AcDbBlockTableRecord
  2
MSPEC_S15F-75
  0
BLOCK_RECORD
  5
25BE
330
1
100
AcDbSymbolTableRecord
100
AcDbBlockTableRecord
  2
MSPEC_S15WF-75
  0
BLOCK_RECORD
  5
26C3
330
1
100
AcDbSymbolTableRecord
100
AcDbBlockTableRecord
  2
18
  0
BLOCK_RECORD
  5
26C8
330
1
100
AcDbSymbolTableRecord
100
AcDbBlockTableRecord
  2
19
  0
ENDTAB
  0
ENDSEC
  0
SECTION
  2
BLOCKS
  0
BLOCK
  5
5D
330
2
100
AcDbEntity
  8
0
100
AcDbBlockBegin
  2
*MODEL_SPACE
 70
     0
 10
0.0
 20
0.0
 30
0.0
  3
*MODEL_SPACE
  1

  0
ENDBLK
  5
5F
330
2
100
AcDbEntity
  8
0
100
AcDbBlockEnd
  0
BLOCK
  5
22CE
330
22C0
100
AcDbEntity
 67
     1
  8
0
100
AcDbBlockBegin
  2
*PAPER_SPACE
 70
     0
 10
0.0
 20
0.0
 30
0.0
  3
*PAPER_SPACE
  1

  0
ENDBLK
  5
22CF
330
22C0
100
AcDbEntity
 67
     1
  8
0
100
AcDbBlockEnd
  0
BLOCK
  5
463
330
40C
100
AcDbEntity
  8
0
100
AcDbBlockBegin
  2
外寸枠A4テンプレート
 70
     2
 10
0.0
 20
0.0
 30
0.0
  3
外寸枠A4テンプレート
  1

  0
LWPOLYLINE
  5
40D
330
40C
100
AcDbEntity
  8
WAKU
100
AcDbPolyline
 90
        4
 70
     1
 43
0.0
 10
3.0
 20
4.0
 10
280.0
 20
4.0
 10
280.0
 20
194.0
 10
3.0
 20
194.0
  0
LWPOLYLINE
  5
40E
330
40C
100
AcDbEntity
  8
WAKU
100
AcDbPolyline
 90
        4
 70
     1
 43
0.0
 10
3.0
 20
4.0
 10
280.0
 20
4.0
 10
280.0
 20
194.0
 10
3.0
 20
194.0
  0
LINE
  5
40F
330
40C
100
AcDbEntity
  8
WAKU
100
AcDbLine
 10
280.0
 20
182.0
 30
0.0
 11
226.4018178786999
 21
182.0
 31
0.0
  0
TEXT
  5
410
330
40C
100
AcDbEntity
  8
WAKU
 62
     6
100
AcDbText
 10
228.3816999999999
 20
190.11095
 30
0.0
 40
2.1213
  1
REVISIONS
 41
0.7
100
AcDbText
  0
LINE
  5
411
330
40C
100
AcDbEntity
  8
WAKU
100
AcDbLine
 10
226.4018178786999
 20
194.0
 30
0.0
 11
226.4018178786999
 21
181.9999999999999
 31
0.0
  0
LINE
  5
412
330
40C
100
AcDbEntity
  8
WAKU
 62
     6
100
AcDbLine
 10
203.6331999999998
 20
29.0030567071
 30
0.0
 11
280.0
 21
29.0030567071
 31
0.0
  0
LINE
  5
413
330
40C
100
AcDbEntity
  8
WAKU
 62
     6
100
AcDbLine
 10
203.6331999999998
 20
24.47761529289999
 30
0.0
 11
280.0
 21
24.47761529289999
 31
0.0
  0
LINE
  5
414
330
40C
100
AcDbEntity
  8
WAKU
 62
     6
100
AcDbLine
 10
203.6331999999998
 20
19.9521752929
 30
0.0
 11
280.0
 21
19.9521752929
 31
0.0
  0
LINE
  5
415
330
40C
100
AcDbEntity
  8
WAKU
 62
     6
100
AcDbLine
 10
203.6331999999998
 20
15.42673599999999
 30
0.0
 11
280.0
 21
15.42673599999999
 31
0.0
  0
LINE
  5
416
330
40C
100
AcDbEntity
  8
WAKU
 62
     6
100
AcDbLine
 10
203.6331999999998
 20
29.0030567071
 30
0.0
 11
280.0
 21
29.0030567071
 31
0.0
  0
LINE
  5
417
330
40C
100
AcDbEntity
  8
WAKU
 62
     6
100
AcDbLine
 10
203.6331999999998
 20
24.47761529289999
 30
0.0
 11
280.0
 21
24.47761529289999
 31
0.0
  0
LINE
  5
418
330
40C
100
AcDbEntity
  8
WAKU
 62
     6
100
AcDbLine
 10
203.6331999999998
 20
19.9521752929
 30
0.0
 11
280.0
 21
19.9521752929
 31
0.0
  0
LINE
  5
419
330
40C
100
AcDbEntity
  8
WAKU
 62
     6
100
AcDbLine
 10
203.6331999999998
 20
15.42673599999999
 30
0.0
 11
280.0
 21
15.42673599999999
 31
0.0
  0
LINE
  5
41A
330
40C
100
AcDbEntity
  8
WAKU
 62
     6
100
AcDbLine
 10
203.6331999999998
 20
29.0030567071
 30
0.0
 11
280.0
 21
29.0030567071
 31
0.0
  0
LINE
  5
41B
330
40C
100
AcDbEntity
  8
WAKU
 62
     6
100
AcDbLine
 10
203.6331999999998
 20
24.47761529289999
 30
0.0
 11
280.0
 21
24.47761529289999
 31
0.0
  0
LINE
  5
41C
330
40C
100
AcDbEntity
  8
WAKU
 62
     6
100
AcDbLine
 10
203.6331999999998
 20
19.9521752929
 30
0.0
 11
280.0
 21
19.9521752929
 31
0.0
  0
LINE
  5
41D
330
40C
100
AcDbEntity
  8
WAKU
 62
     6
100
AcDbLine
 10
203.6331999999998
 20
15.42673599999999
 30
0.0
 11
280.0
 21
15.42673599999999
 31
0.0
  0
LINE
  5
41E
330
40C
100
AcDbEntity
  8
WAKU
100
AcDbLine
 10
203.6331999999998
 20
38.053936
 30
0.0
 11
280.0
 21
38.053936
 31
0.0
  0
LINE
  5
41F
330
40C
100
AcDbEntity
  8
WAKU
100
AcDbLine
 10
203.6331999999998
 20
38.053936
 30
0.0
 11
280.0
 21
38.053936
 31
0.0
  0
LINE
  5
420
330
40C
100
AcDbEntity
  8
WAKU
100
AcDbLine
 10
203.6331999999998
 20
38.053936
 30
0.0
 11
280.0
 21
38.053936
 31
0.0
  0
TEXT
  5
421
330
40C
100
AcDbEntity
  8
WAKU
 62
     6
100
AcDbText
 10
231.4464545235218
 20
12.856420429
 30
0.0
 40
1.76775
  1
SCALE
 41
0.7
100
AcDbText
  0
TEXT
  5
422
330
40C
100
AcDbEntity
  8
TEXT
100
AcDbText
 10
228.8293221750166
 20
29.96641277760619
 30
0.0
 40
2.5
  1
外　形　寸　法　図
100
AcDbText
  0
ATTDEF
  5
423
330
40C
100
AcDbEntity
  8
TEXT
100
AcDbText
 10
241.8165999999999
 20
35.58735183158626
 30
0.0
 40
2.500000000000001
  1

 72
     4
 11
241.8165999999999
 21
35.58735183158626
 31
0.0
100
AcDbAttributeDefinition
  3
タイトル
  2
T　I　T　L　E
 70
     0
  0
LINE
  5
424
330
40C
100
AcDbEntity
  8
WAKU
100
AcDbLine
 10
203.6331999999998
 20
38.053936
 30
0.0
 11
203.6331999999998
 21
3.999999999999998
 31
0.0
  0
LINE
  5
425
330
40C
100
AcDbEntity
  8
WAKU
100
AcDbLine
 10
203.6331999999998
 20
38.053936
 30
0.0
 11
203.6331999999998
 21
3.999999999999998
 31
0.0
  0
LINE
  5
426
330
40C
100
AcDbEntity
  8
WAKU
100
AcDbLine
 10
203.6331999999998
 20
38.053936
 30
0.0
 11
203.6331999999998
 21
3.999999999999998
 31
0.0
  0
TEXT
  5
427
330
40C
100
AcDbEntity
  8
WAKU
 62
     6
100
AcDbText
 10
204.7645642425999
 20
25.805189179
 30
0.0
 40
2.1213
  1
DRAWING  NO.
 41
0.7
100
AcDbText
  0
TEXT
  5
428
330
40C
100
AcDbEntity
  8
WAKU
 62
     6
100
AcDbText
 10
204.7645642425999
 20
16.75430988609998
 30
0.0
 40
2.1213
  1
NOTICE
 41
0.7
100
AcDbText
  0
TEXT
  5
429
330
40C
100
AcDbEntity
  8
WAKU
 62
     6
100
AcDbText
 10
204.8446469479863
 20
12.674695729
 30
0.0
 40
1.8097340625
  1
APPROVE
 41
0.512174
100
AcDbText
  0
TEXT
  5
42A
330
40C
100
AcDbEntity
  8
WAKU
 62
     6
100
AcDbText
 10
204.7645642425999
 20
21.279749179
 30
0.0
 40
2.1213
  1
USER
 41
0.7
100
AcDbText
  0
TEXT
  5
42B
330
40C
100
AcDbEntity
  8
WAKU
 62
     6
100
AcDbText
 10
222.3147516895863
 20
12.6973292929
 30
0.0
 40
1.7832163983
  1
DESIGN
 41
0.5729449999999999
100
AcDbText
  0
LINE
  5
42C
330
40C
100
AcDbEntity
  8
WAKU
 62
     6
100
AcDbLine
 10
212.3823646725999
 20
15.42673599999999
 30
0.0
 11
212.3823646725999
 21
3.999999999999998
 31
0.0
  0
LINE
  5
42D
330
40C
100
AcDbEntity
  8
WAKU
 62
     6
100
AcDbLine
 10
212.3823646725999
 20
15.42673599999999
 30
0.0
 11
212.3823646725999
 21
3.999999999999998
 31
0.0
  0
LINE
  5
42E
330
40C
100
AcDbEntity
  8
WAKU
 62
     6
100
AcDbLine
 10
212.3823646725999
 20
15.42673599999999
 30
0.0
 11
212.3823646725999
 21
3.999999999999998
 31
0.0
  0
LINE
  5
42F
330
40C
100
AcDbEntity
  8
WAKU
 62
     6
100
AcDbLine
 10
221.1033047415999
 20
15.42673599999999
 30
0.0
 11
221.1033047415999
 21
3.999999999999998
 31
0.0
  0
LINE
  5
430
330
40C
100
AcDbEntity
  8
WAKU
 62
     6
100
AcDbLine
 10
221.1033047415999
 20
15.42673599999999
 30
0.0
 11
221.1033047415999
 21
3.999999999999998
 31
0.0
  0
LINE
  5
431
330
40C
100
AcDbEntity
  8
WAKU
 62
     6
100
AcDbLine
 10
221.1033047415999
 20
15.42673599999999
 30
0.0
 11
221.1033047415999
 21
3.999999999999998
 31
0.0
  0
TEXT
  5
432
330
40C
100
AcDbEntity
  8
WAKU
 62
     6
100
AcDbText
 10
213.5938010140863
 20
12.674695729
 30
0.0
 40
1.76775
  1
CHECK
 41
0.7
100
AcDbText
  0
LINE
  5
433
330
40C
100
AcDbEntity
  8
WAKU
 62
     6
100
AcDbLine
 10
229.8241790502999
 20
15.42673599999999
 30
0.0
 11
229.8241790502999
 21
3.999999999999998
 31
0.0
  0
LINE
  5
434
330
40C
100
AcDbEntity
  8
WAKU
 62
     6
100
AcDbLine
 10
229.8241790502999
 20
15.42673599999999
 30
0.0
 11
229.8241790502999
 21
3.999999999999998
 31
0.0
  0
LINE
  5
435
330
40C
100
AcDbEntity
  8
WAKU
 62
     6
100
AcDbLine
 10
229.8241790502999
 20
15.42673599999999
 30
0.0
 11
229.8241790502999
 21
3.999999999999998
 31
0.0
  0
TEXT
  5
436
330
40C
100
AcDbEntity
  8
WAKU
 62
     6
100
AcDbText
 10
204.7645642425999
 20
35.31568488609999
 30
0.0
 40
2.1213
  1
TITLE
 41
0.7
100
AcDbText
  0
ATTDEF
  5
437
330
40C
100
AcDbEntity
  8
TEXT
100
AcDbText
 10
234.056163734276
 20
8.134449518875573
 30
0.0
 40
2.0
  1

 72
     4
 11
234.056163734276
 21
8.134449518875573
 31
0.0
100
AcDbAttributeDefinition
  3
SCALE
  2
FREE
 70
     0
  0
ATTDEF
  5
438
330
40C
100
AcDbEntity
  8
TEXT
100
AcDbText
 10
207.865184683976
 20
8.134449518875573
 30
0.0
 40
2.500000000000004
  1

 72
     4
 11
207.865184683976
 21
8.134449518875573
 31
0.0
100
AcDbAttributeDefinition
  3
承認
  2
海野
 70
     0
  0
ATTDEF
  5
439
330
40C
100
AcDbEntity
  8
TEXT
100
AcDbText
 10
225.335289425576
 20
8.134449518875575
 30
0.0
 40
2.500000000000004
  1

 72
     4
 11
225.335289425576
 21
8.134449518875575
 31
0.0
100
AcDbAttributeDefinition
  3
作成
  2
鳥居
 70
     0
  0
ATTDEF
  5
43A
330
40C
100
AcDbEntity
  8
TEXT
100
AcDbText
 10
216.614349356576
 20
8.134449518875575
 30
0.0
 40
2.500000000000004
  1

 72
     4
 11
216.614349356576
 21
8.134449518875575
 31
0.0
100
AcDbAttributeDefinition
  3
確認
  2
永坂
 70
     0
  0
LINE
  5
43B
330
40C
100
AcDbEntity
  8
WAKU
 62
     6
100
AcDbLine
 10
238.6487948283999
 20
8.638576
 30
0.0
 11
280.0
 21
8.638576
 31
0.0
  0
LINE
  5
43C
330
40C
100
AcDbEntity
  8
WAKU
 62
     6
100
AcDbLine
 10
238.6487948283999
 20
8.638576
 30
0.0
 11
280.0
 21
8.638576
 31
0.0
  0
LINE
  5
43D
330
40C
100
AcDbEntity
  8
WAKU
 62
     6
100
AcDbLine
 10
238.6487948283999
 20
8.638576
 30
0.0
 11
280.0
 21
8.638576
 31
0.0
  0
TEXT
  5
43E
330
40C
100
AcDbEntity
  8
WAKU
 62
     6
100
AcDbText
 10
241.15294501234
 20
5.246258800300003
 30
0.0
 40
2.1213
  1
NISSEI  CORPORATION
100
AcDbText
  0
LINE
  5
43F
330
40C
100
AcDbEntity
  8
WAKU
100
AcDbLine
 10
246.5683127070999
 20
13.02259600000001
 30
0.0
 11
250.5280769496998
 21
14.01253599999999
 31
0.0
  0
LINE
  5
440
330
40C
100
AcDbEntity
  8
WAKU
100
AcDbLine
 10
246.5683127070999
 20
13.02259600000001
 30
0.0
 11
250.5280769496998
 21
14.01253599999999
 31
0.0
  0
LINE
  5
441
330
40C
100
AcDbEntity
  8
WAKU
100
AcDbLine
 10
246.5683127070999
 20
13.02259600000001
 30
0.0
 11
250.5280769496998
 21
14.01253599999999
 31
0.0
  0
LINE
  5
442
330
40C
100
AcDbEntity
  8
WAKU
100
AcDbLine
 10
246.5683127070999
 20
11.0427152929
 30
0.0
 11
250.5280769496998
 21
10.052776
 31
0.0
  0
LINE
  5
443
330
40C
100
AcDbEntity
  8
WAKU
100
AcDbLine
 10
246.5683127070999
 20
11.0427152929
 30
0.0
 11
250.5280769496998
 21
10.052776
 31
0.0
  0
LINE
  5
444
330
40C
100
AcDbEntity
  8
WAKU
100
AcDbLine
 10
246.5683127070999
 20
11.0427152929
 30
0.0
 11
250.5280769496998
 21
10.052776
 31
0.0
  0
LINE
  5
445
330
40C
100
AcDbEntity
  8
CENTER
 62
     6
100
AcDbLine
 10
239.4478107573998
 20
12.0326567071
 30
0.0
 11
251.3624499999998
 21
12.0326567071
 31
0.0
  0
LINE
  5
446
330
40C
100
AcDbEntity
  8
CENTER
 62
     6
100
AcDbLine
 10
239.4478107573998
 20
12.0326567071
 30
0.0
 11
251.3624499999998
 21
12.0326567071
 31
0.0
  0
LINE
  5
447
330
40C
100
AcDbEntity
  8
CENTER
 62
     6
100
AcDbLine
 10
239.4478107573998
 20
12.0326567071
 30
0.0
 11
251.3624499999998
 21
12.0326567071
 31
0.0
  0
LINE
  5
448
330
40C
100
AcDbEntity
  8
WAKU
 62
     6
100
AcDbLine
 10
238.6487948283999
 20
15.42673599999999
 30
0.0
 11
238.6487948283999
 21
3.999999999999998
 31
0.0
  0
LINE
  5
449
330
40C
100
AcDbEntity
  8
WAKU
 62
     6
100
AcDbLine
 10
238.6487948283999
 20
15.42673599999999
 30
0.0
 11
238.6487948283999
 21
3.999999999999998
 31
0.0
  0
LINE
  5
44A
330
40C
100
AcDbEntity
  8
WAKU
 62
     6
100
AcDbLine
 10
238.6487948283999
 20
15.42673599999999
 30
0.0
 11
238.6487948283999
 21
3.999999999999998
 31
0.0
  0
CIRCLE
  5
44B
330
40C
100
AcDbEntity
  8
WAKU
100
AcDbCircle
 10
242.0428769496999
 20
12.0326567071
 30
0.0
 40
0.9899399999999999
  0
CIRCLE
  5
44C
330
40C
100
AcDbEntity
  8
WAKU
100
AcDbCircle
 10
242.0428769496999
 20
12.0326567071
 30
0.0
 40
0.9899399999999999
  0
CIRCLE
  5
44D
330
40C
100
AcDbEntity
  8
WAKU
100
AcDbCircle
 10
242.0428769496999
 20
12.0326567071
 30
0.0
 40
0.9899399999999999
  0
CIRCLE
  5
44E
330
40C
100
AcDbEntity
  8
WAKU
100
AcDbCircle
 10
242.0428769496999
 20
12.0326567071
 30
0.0
 40
1.979879999999999
  0
CIRCLE
  5
44F
330
40C
100
AcDbEntity
  8
WAKU
100
AcDbCircle
 10
242.0428769496999
 20
12.0326567071
 30
0.0
 40
1.979879999999999
  0
CIRCLE
  5
450
330
40C
100
AcDbEntity
  8
WAKU
100
AcDbCircle
 10
242.0428769496999
 20
12.0326567071
 30
0.0
 40
1.979879999999999
  0
LINE
  5
451
330
40C
100
AcDbEntity
  8
WAKU
100
AcDbLine
 10
246.5683127070999
 20
13.02259600000001
 30
0.0
 11
246.5683127070999
 21
11.0427152929
 31
0.0
  0
LINE
  5
452
330
40C
100
AcDbEntity
  8
WAKU
100
AcDbLine
 10
246.5683127070999
 20
13.02259600000001
 30
0.0
 11
246.5683127070999
 21
11.0427152929
 31
0.0
  0
LINE
  5
453
330
40C
100
AcDbEntity
  8
WAKU
100
AcDbLine
 10
246.5683127070999
 20
13.02259600000001
 30
0.0
 11
246.5683127070999
 21
11.0427152929
 31
0.0
  0
LINE
  5
454
330
40C
100
AcDbEntity
  8
CENTER
 62
     6
100
AcDbLine
 10
242.0428769496999
 20
14.96005
 30
0.0
 11
242.0428769496999
 21
9.267895000000009
 31
0.0
  0
LINE
  5
455
330
40C
100
AcDbEntity
  8
CENTER
 62
     6
100
AcDbLine
 10
242.0428769496999
 20
14.96005
 30
0.0
 11
242.0428769496999
 21
9.267895000000009
 31
0.0
  0
LINE
  5
456
330
40C
100
AcDbEntity
  8
CENTER
 62
     6
100
AcDbLine
 10
242.0428769496999
 20
14.96005
 30
0.0
 11
242.0428769496999
 21
9.267895000000009
 31
0.0
  0
TEXT
  5
457
330
40C
100
AcDbEntity
  8
TEXT
100
AcDbText
 10
257.3078171288039
 20
9.492177985111482
 30
0.0
 40
2.0
  1
mm
100
AcDbText
  0
LINE
  5
458
330
40C
100
AcDbEntity
  8
WAKU
 62
     6
100
AcDbLine
 10
252.2251127070999
 20
15.42673599999999
 30
0.0
 11
252.2251127070999
 21
8.638576
 31
0.0
  0
LINE
  5
459
330
40C
100
AcDbEntity
  8
WAKU
 62
     6
100
AcDbLine
 10
252.2251127070999
 20
15.42673599999999
 30
0.0
 11
252.2251127070999
 21
8.638576
 31
0.0
  0
LINE
  5
45A
330
40C
100
AcDbEntity
  8
WAKU
 62
     6
100
AcDbLine
 10
252.2251127070999
 20
15.42673599999999
 30
0.0
 11
252.2251127070999
 21
8.638576
 31
0.0
  0
LINE
  5
45B
330
40C
100
AcDbEntity
  8
WAKU
100
AcDbLine
 10
250.5280769496998
 20
14.01253599999999
 30
0.0
 11
250.5280769496998
 21
10.052776
 31
0.0
  0
LINE
  5
45C
330
40C
100
AcDbEntity
  8
WAKU
100
AcDbLine
 10
250.5280769496998
 20
14.01253599999999
 30
0.0
 11
250.5280769496998
 21
10.052776
 31
0.0
  0
LINE
  5
45D
330
40C
100
AcDbEntity
  8
WAKU
100
AcDbLine
 10
250.5280769496998
 20
14.01253599999999
 30
0.0
 11
250.5280769496998
 21
10.052776
 31
0.0
  0
TEXT
  5
45E
330
40C
100
AcDbEntity
  8
WAKU
 62
     6
100
AcDbText
 10
253.4130357573999
 20
13.0508792929
 30
0.0
 40
1.76775
  1
UNIT
 41
0.7
100
AcDbText
  0
TEXT
  5
45F
330
40C
100
AcDbEntity
  8
WAKU
 62
     6
100
AcDbText
 10
266.9893642426
 20
13.0508792929
 30
0.0
 40
1.76775
  1
DATE
 41
0.7
100
AcDbText
  0
LINE
  5
460
330
40C
100
AcDbEntity
  8
WAKU
 62
     6
100
AcDbLine
 10
265.7448611715999
 20
15.42673599999999
 30
0.0
 11
265.7448611715999
 21
8.638576
 31
0.0
  0
LINE
  5
461
330
40C
100
AcDbEntity
  8
WAKU
 62
     6
100
AcDbLine
 10
265.7448611715999
 20
15.42673599999999
 30
0.0
 11
265.7448611715999
 21
8.638576
 31
0.0
  0
LINE
  5
462
330
40C
100
AcDbEntity
  8
WAKU
 62
     6
100
AcDbLine
 10
265.7448611715999
 20
15.42673599999999
 30
0.0
 11
265.7448611715999
 21
8.638576
 31
0.0
  0
ENDBLK
  5
464
330
40C
100
AcDbEntity
  8
0
100
AcDbBlockEnd
  0
BLOCK
  5
223D
330
223B
100
AcDbEntity
  8
0
100
AcDbBlockBegin
  2
1
 70
     0
 10
0.0
 20
0.0
 30
0.0
  3
1
  1

  0
TEXT
  5
223C
330
223B
100
AcDbEntity
  8
0
100
AcDbText
 10
0.0
 20
0.0
 30
0.0
 40
2.0
  1
注。出力軸キーは JIS B 1301-1976平行キーに依ります。
100
AcDbText
  0
ENDBLK
  5
223E
330
223B
100
AcDbEntity
  8
0
100
AcDbBlockEnd
  0
BLOCK
  5
2363
330
2360
100
AcDbEntity
  8
0
100
AcDbBlockBegin
  2
10
 70
     0
 10
0.0
 20
0.0
 30
0.0
  3
10
  1

  0
TEXT
  5
2361
330
2360
100
AcDbEntity
  8
0
100
AcDbText
 10
0.0
 20
3.5
 30
0.0
 40
2.0
  1
注。モータにはリード線が5本あり、内3本は U,V,W、
100
AcDbText
  0
TEXT
  5
2362
330
2360
100
AcDbEntity
  8
0
100
AcDbText
 10
0.0
 20
0.0
 30
0.0
 40
2.0
  1
　　他の2本はブレーキ用200V端子（赤色リード線）になっています。
100
AcDbText
  0
ENDBLK
  5
2364
330
2360
100
AcDbEntity
  8
0
100
AcDbBlockEnd
  0
BLOCK
  5
23A2
330
238B
100
AcDbEntity
  8
0
100
AcDbBlockBegin
  2
BSPEC_90-90-0038
 70
     0
 10
0.0
 20
0.0
 30
0.0
  3
BSPEC_90-90-0038
  1

  0
TEXT
  5
238C
330
238B
100
AcDbEntity
  8
0
100
AcDbText
 10
35.94757247309064
 20
40.47485
 30
0.0
 40
2.0
  1
ブレーキ仕様
100
AcDbText
  0
LINE
  5
238D
330
238B
100
AcDbEntity
  8
0
100
AcDbLine
 10
35.94757247309064
 20
40.12129999999999
 30
0.0
 11
50.05242752690936
 21
40.12129999999999
 31
0.0
  0
LINE
  5
238E
330
238B
100
AcDbEntity
  8
0
100
AcDbLine
 10
35.94757247309064
 20
39.41419999999999
 30
0.0
 11
50.05242752690936
 21
39.41419999999999
 31
0.0
  0
TEXT
  5
238F
330
238B
100
AcDbEntity
  8
0
100
AcDbText
 10
29.35319943225727
 20
21.29776682820352
 30
0.0
 40
2.0
  1
0.37N・m（0.038kgf・m）
100
AcDbText
  0
TEXT
  5
2390
330
238B
100
AcDbEntity
  8
0
100
AcDbText
 10
29.35319943225727
 20
24.56510000000003
 30
0.0
 40
2.0
  1
12 W （於75℃）
100
AcDbText
  0
TEXT
  5
2391
330
238B
100
AcDbEntity
  8
0
100
AcDbText
 10
29.35319943225727
 20
31.6361
 30
0.0
 40
2.0
  1
無励磁作動形（スプリングクローズ）
100
AcDbText
  0
LINE
  5
2392
330
238B
100
AcDbEntity
  8
0
100
AcDbLine
 10
17.0
 20
20.32249999999996
 30
0.0
 11
69.0
 21
20.32249999999996
 31
0.0
  0
LINE
  5
2393
330
238B
100
AcDbEntity
  8
0
100
AcDbLine
 10
17.0
 20
23.85799999999994
 30
0.0
 11
69.0
 21
23.85799999999994
 31
0.0
  0
LINE
  5
2394
330
238B
100
AcDbEntity
  8
0
100
AcDbLine
 10
17.0
 20
27.39349999999999
 30
0.0
 11
69.0
 21
27.39349999999999
 31
0.0
  0
LINE
  5
2395
330
238B
100
AcDbEntity
  8
0
100
AcDbLine
 10
17.0
 20
30.929
 30
0.0
 11
69.0
 21
30.92899999999997
 31
0.0
  0
LINE
  5
2396
330
238B
100
AcDbEntity
  8
0
100
AcDbLine
 10
17.0
 20
34.46450000000001
 30
0.0
 11
69.0
 21
34.46450000000001
 31
0.0
  0
LINE
  5
2397
330
238B
100
AcDbEntity
  8
0
100
AcDbLine
 10
17.0
 20
38.0
 30
0.0
 11
69.0
 21
38.0
 31
0.0
  0
TEXT
  5
2398
330
238B
100
AcDbEntity
  8
0
100
AcDbText
 10
29.35319943225727
 20
28.10060000000001
 30
0.0
 40
2.0
  1
DC 90V
100
AcDbText
  0
TEXT
  5
2399
330
238B
100
AcDbEntity
  8
0
100
AcDbText
 10
17.67809444174622
 20
28.10059999999998
 30
0.0
 40
2.0
  1
入力電圧
100
AcDbText
  0
LINE
  5
239A
330
238B
100
AcDbEntity
  8
0
100
AcDbLine
 10
28.5
 20
20.32249999999996
 30
0.0
 11
28.5
 21
38.0
 31
0.0
  0
LINE
  5
239B
330
238B
100
AcDbEntity
  8
0
100
AcDbLine
 10
17.0
 20
20.32249999999996
 30
0.0
 11
17.0
 21
38.0
 31
0.0
  0
TEXT
  5
239C
330
238B
100
AcDbEntity
  8
0
100
AcDbText
 10
17.67809444174622
 20
20.93604220928048
 30
0.0
 40
2.0
  1
定格トルク
 41
0.85
100
AcDbText
  0
TEXT
  5
239D
330
238B
100
AcDbEntity
  8
0
100
AcDbText
 10
17.67809444174622
 20
24.56509999999994
 30
0.0
 40
2.0
  1
容量
100
AcDbText
  0
TEXT
  5
239E
330
238B
100
AcDbEntity
  8
0
100
AcDbText
 10
17.67809444174622
 20
35.17159999999998
 30
0.0
 40
2.0
  1
型式
100
AcDbText
  0
TEXT
  5
239F
330
238B
100
AcDbEntity
  8
0
100
AcDbText
 10
17.67809444174622
 20
31.6361
 30
0.0
 40
2.0
  1
方式
100
AcDbText
  0
TEXT
  5
23A0
330
238B
100
AcDbEntity
  8
0
100
AcDbText
 10
29.35319943225727
 20
35.17159999999998
 30
0.0
 40
2.0
  1
BS-90
100
AcDbText
  0
LINE
  5
23A1
330
238B
100
AcDbEntity
  8
0
100
AcDbLine
 10
69.0
 20
20.32249999999996
 30
0.0
 11
69.0
 21
38.0
 31
0.0
  0
ENDBLK
  5
23A3
330
238B
100
AcDbEntity
  8
0
100
AcDbBlockEnd
  0
BLOCK
  5
23E0
330
23C9
100
AcDbEntity
  8
0
100
AcDbBlockBegin
  2
BSPEC_90-45-0038
 70
     0
 10
0.0
 20
0.0
 30
0.0
  3
BSPEC_90-45-0038
  1

  0
TEXT
  5
23CA
330
23C9
100
AcDbEntity
  8
0
100
AcDbText
 10
35.94757247309064
 20
40.47485
 30
0.0
 40
2.0
  1
ブレーキ仕様
100
AcDbText
  0
LINE
  5
23CB
330
23C9
100
AcDbEntity
  8
0
100
AcDbLine
 10
35.94757247309064
 20
40.12129999999999
 30
0.0
 11
50.05242752690936
 21
40.12129999999999
 31
0.0
  0
LINE
  5
23CC
330
23C9
100
AcDbEntity
  8
0
100
AcDbLine
 10
35.94757247309064
 20
39.41419999999999
 30
0.0
 11
50.05242752690936
 21
39.41419999999999
 31
0.0
  0
TEXT
  5
23CD
330
23C9
100
AcDbEntity
  8
0
100
AcDbText
 10
29.35319943225727
 20
21.29776682820352
 30
0.0
 40
2.0
  1
0.37N・m（0.038kgf・m）
100
AcDbText
  0
TEXT
  5
23CE
330
23C9
100
AcDbEntity
  8
0
100
AcDbText
 10
29.35319943225727
 20
24.56510000000003
 30
0.0
 40
2.0
  1
10 W （於75℃）
100
AcDbText
  0
TEXT
  5
23CF
330
23C9
100
AcDbEntity
  8
0
100
AcDbText
 10
29.35319943225727
 20
31.6361
 30
0.0
 40
2.0
  1
無励磁作動形（スプリングクローズ）
100
AcDbText
  0
LINE
  5
23D0
330
23C9
100
AcDbEntity
  8
0
100
AcDbLine
 10
17.0
 20
20.32249999999996
 30
0.0
 11
69.0
 21
20.32249999999996
 31
0.0
  0
LINE
  5
23D1
330
23C9
100
AcDbEntity
  8
0
100
AcDbLine
 10
17.0
 20
23.85799999999994
 30
0.0
 11
69.0
 21
23.85799999999994
 31
0.0
  0
LINE
  5
23D2
330
23C9
100
AcDbEntity
  8
0
100
AcDbLine
 10
17.0
 20
27.39349999999999
 30
0.0
 11
69.0
 21
27.39349999999999
 31
0.0
  0
LINE
  5
23D3
330
23C9
100
AcDbEntity
  8
0
100
AcDbLine
 10
17.0
 20
30.929
 30
0.0
 11
69.0
 21
30.92899999999997
 31
0.0
  0
LINE
  5
23D4
330
23C9
100
AcDbEntity
  8
0
100
AcDbLine
 10
17.0
 20
34.46450000000001
 30
0.0
 11
69.0
 21
34.46450000000001
 31
0.0
  0
LINE
  5
23D5
330
23C9
100
AcDbEntity
  8
0
100
AcDbLine
 10
17.0
 20
38.0
 30
0.0
 11
69.0
 21
38.0
 31
0.0
  0
TEXT
  5
23D6
330
23C9
100
AcDbEntity
  8
0
100
AcDbText
 10
29.35319943225727
 20
28.10060000000001
 30
0.0
 40
2.0
  1
DC 45V
100
AcDbText
  0
TEXT
  5
23D7
330
23C9
100
AcDbEntity
  8
0
100
AcDbText
 10
17.67809444174622
 20
28.10059999999998
 30
0.0
 40
2.0
  1
入力電圧
100
AcDbText
  0
LINE
  5
23D8
330
23C9
100
AcDbEntity
  8
0
100
AcDbLine
 10
28.5
 20
20.32249999999996
 30
0.0
 11
28.5
 21
38.0
 31
0.0
  0
LINE
  5
23D9
330
23C9
100
AcDbEntity
  8
0
100
AcDbLine
 10
17.0
 20
20.32249999999996
 30
0.0
 11
17.0
 21
38.0
 31
0.0
  0
TEXT
  5
23DA
330
23C9
100
AcDbEntity
  8
0
100
AcDbText
 10
17.67809444174622
 20
20.93604220928048
 30
0.0
 40
2.0
  1
定格トルク
 41
0.85
100
AcDbText
  0
TEXT
  5
23DB
330
23C9
100
AcDbEntity
  8
0
100
AcDbText
 10
17.67809444174622
 20
24.56509999999994
 30
0.0
 40
2.0
  1
容量
100
AcDbText
  0
TEXT
  5
23DC
330
23C9
100
AcDbEntity
  8
0
100
AcDbText
 10
17.67809444174622
 20
35.17159999999998
 30
0.0
 40
2.0
  1
型式
100
AcDbText
  0
TEXT
  5
23DD
330
23C9
100
AcDbEntity
  8
0
100
AcDbText
 10
17.67809444174622
 20
31.6361
 30
0.0
 40
2.0
  1
方式
100
AcDbText
  0
TEXT
  5
23DE
330
23C9
100
AcDbEntity
  8
0
100
AcDbText
 10
29.35319943225727
 20
35.17159999999998
 30
0.0
 40
2.0
  1
BS-90
100
AcDbText
  0
LINE
  5
23DF
330
23C9
100
AcDbEntity
  8
0
100
AcDbLine
 10
69.0
 20
20.32249999999996
 30
0.0
 11
69.0
 21
38.0
 31
0.0
  0
ENDBLK
  5
23E1
330
23C9
100
AcDbEntity
  8
0
100
AcDbBlockEnd
  0
BLOCK
  5
2415
330
23F8
100
AcDbEntity
  8
0
100
AcDbBlockBegin
  2
GSPEC_F2S-12-10-240
 70
     0
 10
0.0
 20
0.0
 30
0.0
  3
GSPEC_F2S-12-10-240
  1

  0
LINE
  5
23F9
330
23F8
100
AcDbEntity
  8
0
100
AcDbLine
 10
131.0
 20
13.25149999999988
 30
0.0
 11
183.0
 21
13.25149999999988
 31
0.0
  0
LINE
  5
23FA
330
23F8
100
AcDbEntity
  8
0
100
AcDbLine
 10
131.0
 20
9.715999999999894
 30
0.0
 11
183.0
 21
9.715999999999894
 31
0.0
  0
LINE
  5
23FB
330
23F8
100
AcDbEntity
  8
0
100
AcDbLine
 10
131.0
 20
16.78699999999986
 30
0.0
 11
183.0
 21
16.78699999999986
 31
0.0
  0
LINE
  5
23FC
330
23F8
100
AcDbEntity
  8
0
100
AcDbLine
 10
131.0
 20
34.46450000000001
 30
0.0
 11
183.0
 21
34.46450000000001
 31
0.0
  0
LINE
  5
23FD
330
23F8
100
AcDbEntity
  8
0
100
AcDbLine
 10
131.0
 20
30.929
 30
0.0
 11
183.0
 21
30.92899999999997
 31
0.0
  0
LINE
  5
23FE
330
23F8
100
AcDbEntity
  8
0
100
AcDbLine
 10
131.0
 20
38.0
 30
0.0
 11
183.0
 21
38.0
 31
0.0
  0
LINE
  5
23FF
330
23F8
100
AcDbEntity
  8
0
100
AcDbLine
 10
131.0
 20
9.715999999999894
 30
0.0
 11
131.0
 21
38.0
 31
0.0
  0
TEXT
  5
2400
330
23F8
100
AcDbEntity
  8
0
100
AcDbText
 10
131.6780944417463
 20
13.95859999999987
 30
0.0
 40
2.0
  1
潤滑
100
AcDbText
  0
TEXT
  5
2401
330
23F8
100
AcDbEntity
  8
0
100
AcDbText
 10
131.6780944417462
 20
10.32954220928042
 30
0.0
 40
2.0
  1
塗色
100
AcDbText
  0
TEXT
  5
2402
330
23F8
100
AcDbEntity
  8
0
100
AcDbText
 10
131.6780944417462
 20
22.84191832202132
 30
0.0
 40
2.0
  1
減速比
100
AcDbText
  0
TEXT
  5
2403
330
23F8
100
AcDbEntity
  8
0
100
AcDbText
 10
131.6780944417462
 20
31.6361
 30
0.0
 40
2.0
  1
枠番
100
AcDbText
  0
TEXT
  5
2404
330
23F8
100
AcDbEntity
  8
0
100
AcDbText
 10
131.6780944417462
 20
35.17159999999998
 30
0.0
 40
2.0
  1
名称
100
AcDbText
  0
LINE
  5
2405
330
23F8
100
AcDbEntity
  8
0
100
AcDbLine
 10
183.0
 20
9.715999999999894
 30
0.0
 11
183.0
 21
38.0
 31
0.0
  0
LINE
  5
2406
330
23F8
100
AcDbEntity
  8
0
100
AcDbLine
 10
142.5
 20
9.715999999999894
 30
0.0
 11
142.5
 21
38.0
 31
0.0
  0
TEXT
  5
2407
330
23F8
100
AcDbEntity
  8
0
100
AcDbText
 10
143.3531994322572
 20
28.10060000000001
 30
0.0
 40
2.0
  1
1/10 1/15 1/20 1/25
100
AcDbText
  0
TEXT
  5
2408
330
23F8
100
AcDbEntity
  8
0
100
AcDbText
 10
143.3531994322572
 20
24.56510000000003
 30
0.0
 40
2.0
  1
1/30 1/40 1/50 1/60
100
AcDbText
  0
TEXT
  5
2409
330
23F8
100
AcDbEntity
  8
0
100
AcDbText
 10
143.3531994322572
 20
10.42309999999986
 30
0.0
 40
2.0
  1
グレー（マンセル値 9B6/0.5）
100
AcDbText
  0
LINE
  5
240A
330
23F8
100
AcDbEntity
  8
0
100
AcDbLine
 10
142.5
 20
27.39349999999999
 30
0.0
 11
183.0
 21
27.39349999999999
 31
0.0
  0
TEXT
  5
240B
330
23F8
100
AcDbEntity
  8
0
100
AcDbText
 10
143.3531994322572
 20
13.95859999999987
 30
0.0
 40
2.0
  1
グリース
100
AcDbText
  0
LINE
  5
240C
330
23F8
100
AcDbEntity
  8
0
100
AcDbLine
 10
150.4725366217368
 20
39.41419999999999
 30
0.0
 11
163.5274633782631
 21
39.41419999999999
 31
0.0
  0
LINE
  5
240D
330
23F8
100
AcDbEntity
  8
0
100
AcDbLine
 10
150.4725366217368
 20
40.12129999999999
 30
0.0
 11
163.5274633782631
 21
40.12129999999999
 31
0.0
  0
TEXT
  5
240E
330
23F8
100
AcDbEntity
  8
0
100
AcDbText
 10
151.1299348544099
 20
40.47485
 30
0.0
 40
2.0
  1
減速機仕様
100
AcDbText
  0
TEXT
  5
240F
330
23F8
100
AcDbEntity
  8
0
100
AcDbText
 10
143.3531994322572
 20
31.6361
 30
0.0
 40
2.0
  1
12
100
AcDbText
  0
TEXT
  5
2410
330
23F8
100
AcDbEntity
  8
0
100
AcDbText
 10
143.3531994322572
 20
35.17159999999998
 30
0.0
 40
2.0
  1
GTR
100
AcDbText
  0
TEXT
  5
2411
330
23F8
100
AcDbEntity
  8
0
100
AcDbText
 10
143.3531994322572
 20
21.02960000000004
 30
0.0
 40
2.0
  1
1/80 1/100 1/120
100
AcDbText
  0
LINE
  5
2412
330
23F8
100
AcDbEntity
  8
0
100
AcDbLine
 10
142.5
 20
23.85799999999995
 30
0.0
 11
183.0
 21
23.85799999999994
 31
0.0
  0
LINE
  5
2413
330
23F8
100
AcDbEntity
  8
0
100
AcDbLine
 10
142.5
 20
20.32249999999991
 30
0.0
 11
183.0
 21
20.3224999999999
 31
0.0
  0
TEXT
  5
2414
330
23F8
100
AcDbEntity
  8
0
100
AcDbText
 10
143.3531994322572
 20
17.4941
 30
0.0
 40
2.0
  1
1/160 1/200 1/240
100
AcDbText
  0
ENDBLK
  5
2416
330
23F8
100
AcDbEntity
  8
0
100
AcDbBlockEnd
  0
BLOCK
  5
245B
330
2442
100
AcDbEntity
  8
0
100
AcDbBlockBegin
  2
GSPEC_F2S-12-10-60
 70
     0
 10
0.0
 20
0.0
 30
0.0
  3
GSPEC_F2S-12-10-60
  1

  0
LINE
  5
2443
330
2442
100
AcDbEntity
  8
0
100
AcDbLine
 10
131.0
 20
20.3224999999999
 30
0.0
 11
183.0
 21
20.3224999999999
 31
0.0
  0
LINE
  5
2444
330
2442
100
AcDbEntity
  8
0
100
AcDbLine
 10
131.0
 20
16.78699999999992
 30
0.0
 11
183.0
 21
16.78699999999992
 31
0.0
  0
LINE
  5
2445
330
2442
100
AcDbEntity
  8
0
100
AcDbLine
 10
131.0
 20
23.85799999999989
 30
0.0
 11
183.0
 21
23.85799999999989
 31
0.0
  0
LINE
  5
2446
330
2442
100
AcDbEntity
  8
0
100
AcDbLine
 10
131.0
 20
34.46450000000001
 30
0.0
 11
183.0
 21
34.46450000000001
 31
0.0
  0
LINE
  5
2447
330
2442
100
AcDbEntity
  8
0
100
AcDbLine
 10
131.0
 20
30.929
 30
0.0
 11
183.0
 21
30.92899999999997
 31
0.0
  0
LINE
  5
2448
330
2442
100
AcDbEntity
  8
0
100
AcDbLine
 10
131.0
 20
38.0
 30
0.0
 11
183.0
 21
38.0
 31
0.0
  0
LINE
  5
2449
330
2442
100
AcDbEntity
  8
0
100
AcDbLine
 10
131.0
 20
16.78699999999992
 30
0.0
 11
131.0
 21
38.0
 31
0.0
  0
TEXT
  5
244A
330
2442
100
AcDbEntity
  8
0
100
AcDbText
 10
131.6780944417463
 20
21.0295999999999
 30
0.0
 40
2.0
  1
潤滑
100
AcDbText
  0
TEXT
  5
244B
330
2442
100
AcDbEntity
  8
0
100
AcDbText
 10
131.6780944417462
 20
17.40054220928044
 30
0.0
 40
2.0
  1
塗色
100
AcDbText
  0
TEXT
  5
244C
330
2442
100
AcDbEntity
  8
0
100
AcDbText
 10
131.6780944417462
 20
26.37741832202131
 30
0.0
 40
2.0
  1
減速比
100
AcDbText
  0
TEXT
  5
244D
330
2442
100
AcDbEntity
  8
0
100
AcDbText
 10
131.6780944417462
 20
31.6361
 30
0.0
 40
2.0
  1
枠番
100
AcDbText
  0
TEXT
  5
244E
330
2442
100
AcDbEntity
  8
0
100
AcDbText
 10
131.6780944417462
 20
35.17159999999998
 30
0.0
 40
2.0
  1
名称
100
AcDbText
  0
LINE
  5
244F
330
2442
100
AcDbEntity
  8
0
100
AcDbLine
 10
183.0
 20
16.78699999999992
 30
0.0
 11
183.0
 21
38.0
 31
0.0
  0
LINE
  5
2450
330
2442
100
AcDbEntity
  8
0
100
AcDbLine
 10
142.5
 20
16.78699999999992
 30
0.0
 11
142.5
 21
38.0
 31
0.0
  0
TEXT
  5
2451
330
2442
100
AcDbEntity
  8
0
100
AcDbText
 10
143.3531994322572
 20
28.10060000000001
 30
0.0
 40
2.0
  1
1/10 1/15 1/20 1/25
100
AcDbText
  0
TEXT
  5
2452
330
2442
100
AcDbEntity
  8
0
100
AcDbText
 10
143.3531994322572
 20
24.56510000000003
 30
0.0
 40
2.0
  1
1/30 1/40 1/50 1/60
100
AcDbText
  0
TEXT
  5
2453
330
2442
100
AcDbEntity
  8
0
100
AcDbText
 10
143.3531994322572
 20
17.49409999999989
 30
0.0
 40
2.0
  1
グレー（マンセル値 9B6/0.5）
100
AcDbText
  0
LINE
  5
2454
330
2442
100
AcDbEntity
  8
0
100
AcDbLine
 10
142.5
 20
27.39349999999999
 30
0.0
 11
183.0
 21
27.39349999999999
 31
0.0
  0
TEXT
  5
2455
330
2442
100
AcDbEntity
  8
0
100
AcDbText
 10
143.3531994322572
 20
21.0295999999999
 30
0.0
 40
2.0
  1
グリース
100
AcDbText
  0
LINE
  5
2456
330
2442
100
AcDbEntity
  8
0
100
AcDbLine
 10
150.4725366217368
 20
39.41419999999999
 30
0.0
 11
163.5274633782631
 21
39.41419999999999
 31
0.0
  0
LINE
  5
2457
330
2442
100
AcDbEntity
  8
0
100
AcDbLine
 10
150.4725366217368
 20
40.12129999999999
 30
0.0
 11
163.5274633782631
 21
40.12129999999999
 31
0.0
  0
TEXT
  5
2458
330
2442
100
AcDbEntity
  8
0
100
AcDbText
 10
151.1299348544099
 20
40.47485
 30
0.0
 40
2.0
  1
減速機仕様
100
AcDbText
  0
TEXT
  5
2459
330
2442
100
AcDbEntity
  8
0
100
AcDbText
 10
143.3531994322572
 20
31.6361
 30
0.0
 40
2.0
  1
12
100
AcDbText
  0
TEXT
  5
245A
330
2442
100
AcDbEntity
  8
0
100
AcDbText
 10
143.3531994322572
 20
35.17159999999998
 30
0.0
 40
2.0
  1
GTR
100
AcDbText
  0
ENDBLK
  5
245C
330
2442
100
AcDbEntity
  8
0
100
AcDbBlockEnd
  0
BLOCK
  5
2479
330
245E
100
AcDbEntity
  8
0
100
AcDbBlockBegin
  2
GSPEC_F2S-12-10-120
 70
     0
 10
0.0
 20
0.0
 30
0.0
  3
GSPEC_F2S-12-10-120
  1

  0
LINE
  5
245F
330
245E
100
AcDbEntity
  8
0
100
AcDbLine
 10
131.0
 20
16.78699999999992
 30
0.0
 11
183.0
 21
16.78699999999992
 31
0.0
  0
LINE
  5
2460
330
245E
100
AcDbEntity
  8
0
100
AcDbLine
 10
131.0
 20
13.25149999999993
 30
0.0
 11
183.0
 21
13.25149999999993
 31
0.0
  0
LINE
  5
2461
330
245E
100
AcDbEntity
  8
0
100
AcDbLine
 10
131.0
 20
20.3224999999999
 30
0.0
 11
183.0
 21
20.3224999999999
 31
0.0
  0
LINE
  5
2462
330
245E
100
AcDbEntity
  8
0
100
AcDbLine
 10
131.0
 20
34.46450000000001
 30
0.0
 11
183.0
 21
34.46450000000001
 31
0.0
  0
LINE
  5
2463
330
245E
100
AcDbEntity
  8
0
100
AcDbLine
 10
131.0
 20
30.929
 30
0.0
 11
183.0
 21
30.92899999999997
 31
0.0
  0
LINE
  5
2464
330
245E
100
AcDbEntity
  8
0
100
AcDbLine
 10
131.0
 20
38.0
 30
0.0
 11
183.0
 21
38.0
 31
0.0
  0
LINE
  5
2465
330
245E
100
AcDbEntity
  8
0
100
AcDbLine
 10
131.0
 20
13.25149999999993
 30
0.0
 11
131.0
 21
38.0
 31
0.0
  0
TEXT
  5
2466
330
245E
100
AcDbEntity
  8
0
100
AcDbText
 10
131.6780944417463
 20
17.49409999999991
 30
0.0
 40
2.0
  1
潤滑
100
AcDbText
  0
TEXT
  5
2467
330
245E
100
AcDbEntity
  8
0
100
AcDbText
 10
131.6780944417462
 20
13.86504220928046
 30
0.0
 40
2.0
  1
塗色
100
AcDbText
  0
TEXT
  5
2468
330
245E
100
AcDbEntity
  8
0
100
AcDbText
 10
131.6780944417462
 20
24.60966832202135
 30
0.0
 40
2.0
  1
減速比
100
AcDbText
  0
TEXT
  5
2469
330
245E
100
AcDbEntity
  8
0
100
AcDbText
 10
131.6780944417462
 20
31.6361
 30
0.0
 40
2.0
  1
枠番
100
AcDbText
  0
TEXT
  5
246A
330
245E
100
AcDbEntity
  8
0
100
AcDbText
 10
131.6780944417462
 20
35.17159999999998
 30
0.0
 40
2.0
  1
名称
100
AcDbText
  0
LINE
  5
246B
330
245E
100
AcDbEntity
  8
0
100
AcDbLine
 10
183.0
 20
13.25149999999993
 30
0.0
 11
183.0
 21
38.0
 31
0.0
  0
LINE
  5
246C
330
245E
100
AcDbEntity
  8
0
100
AcDbLine
 10
142.5
 20
13.25149999999993
 30
0.0
 11
142.5
 21
38.0
 31
0.0
  0
TEXT
  5
246D
330
245E
100
AcDbEntity
  8
0
100
AcDbText
 10
143.3531994322572
 20
28.10060000000001
 30
0.0
 40
2.0
  1
1/10 1/15 1/20 1/25
100
AcDbText
  0
TEXT
  5
246E
330
245E
100
AcDbEntity
  8
0
100
AcDbText
 10
143.3531994322572
 20
24.56510000000003
 30
0.0
 40
2.0
  1
1/30 1/40 1/50 1/60
100
AcDbText
  0
TEXT
  5
246F
330
245E
100
AcDbEntity
  8
0
100
AcDbText
 10
143.3531994322572
 20
13.9585999999999
 30
0.0
 40
2.0
  1
グレー（マンセル値 9B6/0.5）
100
AcDbText
  0
LINE
  5
2470
330
245E
100
AcDbEntity
  8
0
100
AcDbLine
 10
142.5
 20
27.39349999999999
 30
0.0
 11
183.0
 21
27.39349999999999
 31
0.0
  0
TEXT
  5
2471
330
245E
100
AcDbEntity
  8
0
100
AcDbText
 10
143.3531994322572
 20
17.49409999999991
 30
0.0
 40
2.0
  1
グリース
100
AcDbText
  0
LINE
  5
2472
330
245E
100
AcDbEntity
  8
0
100
AcDbLine
 10
150.4725366217368
 20
39.41419999999999
 30
0.0
 11
163.5274633782631
 21
39.41419999999999
 31
0.0
  0
LINE
  5
2473
330
245E
100
AcDbEntity
  8
0
100
AcDbLine
 10
150.4725366217368
 20
40.12129999999999
 30
0.0
 11
163.5274633782631
 21
40.12129999999999
 31
0.0
  0
TEXT
  5
2474
330
245E
100
AcDbEntity
  8
0
100
AcDbText
 10
151.1299348544099
 20
40.47485
 30
0.0
 40
2.0
  1
減速機仕様
100
AcDbText
  0
TEXT
  5
2475
330
245E
100
AcDbEntity
  8
0
100
AcDbText
 10
143.3531994322572
 20
31.6361
 30
0.0
 40
2.0
  1
12
100
AcDbText
  0
TEXT
  5
2476
330
245E
100
AcDbEntity
  8
0
100
AcDbText
 10
143.3531994322572
 20
35.17159999999998
 30
0.0
 40
2.0
  1
GTR
100
AcDbText
  0
TEXT
  5
2477
330
245E
100
AcDbEntity
  8
0
100
AcDbText
 10
143.3531994322572
 20
21.02960000000004
 30
0.0
 40
2.0
  1
1/80 1/100 1/120
100
AcDbText
  0
LINE
  5
2478
330
245E
100
AcDbEntity
  8
0
100
AcDbLine
 10
142.5
 20
23.85799999999995
 30
0.0
 11
183.0
 21
23.85799999999994
 31
0.0
  0
ENDBLK
  5
247A
330
245E
100
AcDbEntity
  8
0
100
AcDbBlockEnd
  0
BLOCK
  5
24B1
330
248E
100
AcDbEntity
  8
0
100
AcDbBlockBegin
  2
MSPEC_T15F-75
 70
     0
 10
0.0
 20
0.0
 30
0.0
  3
MSPEC_T15F-75
  1

  0
LINE
  5
248F
330
248E
100
AcDbEntity
  8
0
100
AcDbLine
 10
126.0
 20
6.180499999999994
 30
0.0
 11
126.0
 21
37.99999999999997
 31
0.0
  0
TEXT
  5
2490
330
248E
100
AcDbEntity
  8
0
100
AcDbText
 10
86.35319943225727
 20
28.10060000000001
 30
0.0
 40
2.0
  1
15 W
100
AcDbText
  0
TEXT
  5
2491
330
248E
100
AcDbEntity
  8
0
100
AcDbText
 10
74.67809444174623
 20
28.10059999999998
 30
0.0
 40
2.0
  1
出力
100
AcDbText
  0
LINE
  5
2492
330
248E
100
AcDbEntity
  8
0
100
AcDbLine
 10
85.5
 20
6.180499999999994
 30
0.0
 11
85.5
 21
38.0
 31
0.0
  0
LINE
  5
2493
330
248E
100
AcDbEntity
  8
0
100
AcDbLine
 10
73.99999999999998
 20
6.180500000000023
 30
0.0
 11
74.0
 21
38.0
 31
0.0
  0
TEXT
  5
2494
330
248E
100
AcDbEntity
  8
0
100
AcDbText
 10
86.35319943225727
 20
13.95859999999993
 30
0.0
 40
2.0
  1
1500/1800/1800 rpm
100
AcDbText
  0
LINE
  5
2495
330
248E
100
AcDbEntity
  8
0
100
AcDbLine
 10
74.0
 20
6.180500000000023
 30
0.0
 11
126.0
 21
6.180499999999994
 31
0.0
  0
LINE
  5
2496
330
248E
100
AcDbEntity
  8
0
100
AcDbLine
 10
74.0
 20
9.716000000000008
 30
0.0
 11
126.0
 21
9.715999999999979
 31
0.0
  0
LINE
  5
2497
330
248E
100
AcDbEntity
  8
0
100
AcDbLine
 10
74.0
 20
13.25149999999999
 30
0.0
 11
126.0
 21
13.25149999999996
 31
0.0
  0
LINE
  5
2498
330
248E
100
AcDbEntity
  8
0
100
AcDbLine
 10
74.0
 20
23.85799999999994
 30
0.0
 11
126.0
 21
23.85799999999992
 31
0.0
  0
LINE
  5
2499
330
248E
100
AcDbEntity
  8
0
100
AcDbLine
 10
74.0
 20
16.78699999999997
 30
0.0
 11
126.0
 21
16.78699999999994
 31
0.0
  0
LINE
  5
249A
330
248E
100
AcDbEntity
  8
0
100
AcDbLine
 10
74.0
 20
20.32249999999996
 30
0.0
 11
126.0
 21
20.32249999999993
 31
0.0
  0
LINE
  5
249B
330
248E
100
AcDbEntity
  8
0
100
AcDbLine
 10
74.0
 20
27.39349999999999
 30
0.0
 11
126.0
 21
27.39349999999996
 31
0.0
  0
TEXT
  5
249C
330
248E
100
AcDbEntity
  8
0
100
AcDbText
 10
86.35319943225727
 20
24.56510000000003
 30
0.0
 40
2.0
  1
200/200/220 V
100
AcDbText
  0
TEXT
  5
249D
330
248E
100
AcDbEntity
  8
0
100
AcDbText
 10
86.35319943225727
 20
21.02959999999995
 30
0.0
 40
2.0
  1
50/60/60 Hz
100
AcDbText
  0
TEXT
  5
249E
330
248E
100
AcDbEntity
  8
0
100
AcDbText
 10
74.67809444174623
 20
10.3295422092805
 30
0.0
 40
2.0
  1
定格
100
AcDbText
  0
TEXT
  5
249F
330
248E
100
AcDbEntity
  8
0
100
AcDbText
 10
74.67809444174623
 20
6.794042209280519
 30
0.0
 40
2.0
  1
絶縁
100
AcDbText
  0
TEXT
  5
24A0
330
248E
100
AcDbEntity
  8
0
100
AcDbText
 10
86.35319943225727
 20
10.42309999999994
 30
0.0
 40
2.0
  1
連続
100
AcDbText
  0
TEXT
  5
24A1
330
248E
100
AcDbEntity
  8
0
100
AcDbText
 10
86.35319943225727
 20
6.887599999999963
 30
0.0
 40
2.0
  1
E種
100
AcDbText
  0
TEXT
  5
24A2
330
248E
100
AcDbEntity
  8
0
100
AcDbText
 10
74.67809444174623
 20
13.86504220928048
 30
0.0
 40
2.0
  1
回転速度
100
AcDbText
  0
TEXT
  5
24A3
330
248E
100
AcDbEntity
  8
0
100
AcDbText
 10
74.67809444174633
 20
21.02959999999995
 30
0.0
 40
2.0
  1
周波数
100
AcDbText
  0
TEXT
  5
24A4
330
248E
100
AcDbEntity
  8
0
100
AcDbText
 10
74.67809444174623
 20
17.4005422092805
 30
0.0
 40
2.0
  1
極数
100
AcDbText
  0
TEXT
  5
24A5
330
248E
100
AcDbEntity
  8
0
100
AcDbText
 10
74.67809444174623
 20
24.56509999999997
 30
0.0
 40
2.0
  1
電圧
100
AcDbText
  0
TEXT
  5
24A6
330
248E
100
AcDbEntity
  8
0
100
AcDbText
 10
86.35319943225727
 20
17.49409999999994
 30
0.0
 40
2.0
  1
4
100
AcDbText
  0
TEXT
  5
24A7
330
248E
100
AcDbEntity
  8
0
100
AcDbText
 10
86.35319943225727
 20
31.6361
 30
0.0
 40
2.0
  1
全閉外扇形　DT-75
100
AcDbText
  0
LINE
  5
24A8
330
248E
100
AcDbEntity
  8
0
100
AcDbLine
 10
74.0
 20
38.0
 30
0.0
 11
126.0
 21
37.99999999999997
 31
0.0
  0
LINE
  5
24A9
330
248E
100
AcDbEntity
  8
0
100
AcDbLine
 10
74.0
 20
30.929
 30
0.0
 11
126.0
 21
30.92899999999994
 31
0.0
  0
LINE
  5
24AA
330
248E
100
AcDbEntity
  8
0
100
AcDbLine
 10
74.0
 20
34.46450000000001
 30
0.0
 11
126.0
 21
34.46449999999998
 31
0.0
  0
TEXT
  5
24AB
330
248E
100
AcDbEntity
  8
0
100
AcDbText
 10
86.35319943225727
 20
35.17159999999998
 30
0.0
 40
2.0
  1
三相誘導電動機
100
AcDbText
  0
TEXT
  5
24AC
330
248E
100
AcDbEntity
  8
0
100
AcDbText
 10
74.67809444174623
 20
31.6361
 30
0.0
 40
2.0
  1
型式
100
AcDbText
  0
TEXT
  5
24AD
330
248E
100
AcDbEntity
  8
0
100
AcDbText
 10
74.67809444174623
 20
35.17159999999998
 30
0.0
 40
2.0
  1
名称
100
AcDbText
  0
LINE
  5
24AE
330
248E
100
AcDbEntity
  8
0
100
AcDbLine
 10
93.80123573807338
 20
40.12129999999999
 30
0.0
 11
106.1987642619266
 21
40.12129999999999
 31
0.0
  0
LINE
  5
24AF
330
248E
100
AcDbEntity
  8
0
100
AcDbLine
 10
93.80123573807338
 20
39.41419999999999
 30
0.0
 11
106.1987642619266
 21
39.41419999999999
 31
0.0
  0
TEXT
  5
24B0
330
248E
100
AcDbEntity
  8
0
100
AcDbText
 10
93.99902987649658
 20
40.47485
 30
0.0
 40
2.0
  1
モータ仕様
100
AcDbText
  0
ENDBLK
  5
24B2
330
248E
100
AcDbEntity
  8
0
100
AcDbBlockEnd
  0
BLOCK
  5
24D7
330
24B4
100
AcDbEntity
  8
0
100
AcDbBlockBegin
  2
MSPEC_T15WF-75
 70
     0
 10
0.0
 20
0.0
 30
0.0
  3
MSPEC_T15WF-75
  1

  0
LINE
  5
24B5
330
24B4
100
AcDbEntity
  8
0
100
AcDbLine
 10
126.0
 20
6.180499999999994
 30
0.0
 11
126.0
 21
37.99999999999997
 31
0.0
  0
TEXT
  5
24B6
330
24B4
100
AcDbEntity
  8
0
100
AcDbText
 10
86.35319943225727
 20
28.10060000000001
 30
0.0
 40
2.0
  1
15 W
100
AcDbText
  0
TEXT
  5
24B7
330
24B4
100
AcDbEntity
  8
0
100
AcDbText
 10
74.67809444174623
 20
28.10059999999998
 30
0.0
 40
2.0
  1
出力
100
AcDbText
  0
LINE
  5
24B8
330
24B4
100
AcDbEntity
  8
0
100
AcDbLine
 10
85.5
 20
6.180499999999994
 30
0.0
 11
85.5
 21
38.0
 31
0.0
  0
LINE
  5
24B9
330
24B4
100
AcDbEntity
  8
0
100
AcDbLine
 10
73.99999999999998
 20
6.180500000000023
 30
0.0
 11
74.0
 21
38.0
 31
0.0
  0
TEXT
  5
24BA
330
24B4
100
AcDbEntity
  8
0
100
AcDbText
 10
86.35319943225727
 20
13.95859999999993
 30
0.0
 40
2.0
  1
1500/1500/1800/1800 rpm
 41
0.9
100
AcDbText
  0
LINE
  5
24BB
330
24B4
100
AcDbEntity
  8
0
100
AcDbLine
 10
74.0
 20
6.180500000000023
 30
0.0
 11
126.0
 21
6.180499999999994
 31
0.0
  0
LINE
  5
24BC
330
24B4
100
AcDbEntity
  8
0
100
AcDbLine
 10
74.0
 20
9.716000000000008
 30
0.0
 11
126.0
 21
9.715999999999979
 31
0.0
  0
LINE
  5
24BD
330
24B4
100
AcDbEntity
  8
0
100
AcDbLine
 10
74.0
 20
13.25149999999999
 30
0.0
 11
126.0
 21
13.25149999999996
 31
0.0
  0
LINE
  5
24BE
330
24B4
100
AcDbEntity
  8
0
100
AcDbLine
 10
74.0
 20
23.85799999999994
 30
0.0
 11
126.0
 21
23.85799999999992
 31
0.0
  0
LINE
  5
24BF
330
24B4
100
AcDbEntity
  8
0
100
AcDbLine
 10
74.0
 20
16.78699999999997
 30
0.0
 11
126.0
 21
16.78699999999994
 31
0.0
  0
LINE
  5
24C0
330
24B4
100
AcDbEntity
  8
0
100
AcDbLine
 10
74.0
 20
20.32249999999996
 30
0.0
 11
126.0
 21
20.32249999999993
 31
0.0
  0
LINE
  5
24C1
330
24B4
100
AcDbEntity
  8
0
100
AcDbLine
 10
74.0
 20
27.39349999999999
 30
0.0
 11
126.0
 21
27.39349999999996
 31
0.0
  0
TEXT
  5
24C2
330
24B4
100
AcDbEntity
  8
0
100
AcDbText
 10
86.35319943225727
 20
24.56510000000003
 30
0.0
 40
2.0
  1
380/400/400/440 V
100
AcDbText
  0
TEXT
  5
24C3
330
24B4
100
AcDbEntity
  8
0
100
AcDbText
 10
86.35319943225727
 20
21.02959999999995
 30
0.0
 40
2.0
  1
50/50/60/60 Hz
100
AcDbText
  0
TEXT
  5
24C4
330
24B4
100
AcDbEntity
  8
0
100
AcDbText
 10
74.67809444174623
 20
10.3295422092805
 30
0.0
 40
2.0
  1
定格
100
AcDbText
  0
TEXT
  5
24C5
330
24B4
100
AcDbEntity
  8
0
100
AcDbText
 10
74.67809444174623
 20
6.794042209280519
 30
0.0
 40
2.0
  1
絶縁
100
AcDbText
  0
TEXT
  5
24C6
330
24B4
100
AcDbEntity
  8
0
100
AcDbText
 10
86.35319943225727
 20
10.42309999999994
 30
0.0
 40
2.0
  1
連続
100
AcDbText
  0
TEXT
  5
24C7
330
24B4
100
AcDbEntity
  8
0
100
AcDbText
 10
86.35319943225727
 20
6.887599999999963
 30
0.0
 40
2.0
  1
E種
100
AcDbText
  0
TEXT
  5
24C8
330
24B4
100
AcDbEntity
  8
0
100
AcDbText
 10
74.67809444174623
 20
13.86504220928048
 30
0.0
 40
2.0
  1
回転速度
100
AcDbText
  0
TEXT
  5
24C9
330
24B4
100
AcDbEntity
  8
0
100
AcDbText
 10
74.67809444174633
 20
21.02959999999995
 30
0.0
 40
2.0
  1
周波数
100
AcDbText
  0
TEXT
  5
24CA
330
24B4
100
AcDbEntity
  8
0
100
AcDbText
 10
74.67809444174623
 20
17.4005422092805
 30
0.0
 40
2.0
  1
極数
100
AcDbText
  0
TEXT
  5
24CB
330
24B4
100
AcDbEntity
  8
0
100
AcDbText
 10
74.67809444174623
 20
24.56509999999997
 30
0.0
 40
2.0
  1
電圧
100
AcDbText
  0
TEXT
  5
24CC
330
24B4
100
AcDbEntity
  8
0
100
AcDbText
 10
86.35319943225727
 20
17.49409999999994
 30
0.0
 40
2.0
  1
4
100
AcDbText
  0
TEXT
  5
24CD
330
24B4
100
AcDbEntity
  8
0
100
AcDbText
 10
86.35319943225727
 20
31.6361
 30
0.0
 40
2.0
  1
全閉外扇形　DT-75
100
AcDbText
  0
LINE
  5
24CE
330
24B4
100
AcDbEntity
  8
0
100
AcDbLine
 10
74.0
 20
38.0
 30
0.0
 11
126.0
 21
37.99999999999997
 31
0.0
  0
LINE
  5
24CF
330
24B4
100
AcDbEntity
  8
0
100
AcDbLine
 10
74.0
 20
30.929
 30
0.0
 11
126.0
 21
30.92899999999994
 31
0.0
  0
LINE
  5
24D0
330
24B4
100
AcDbEntity
  8
0
100
AcDbLine
 10
74.0
 20
34.46450000000001
 30
0.0
 11
126.0
 21
34.46449999999998
 31
0.0
  0
TEXT
  5
24D1
330
24B4
100
AcDbEntity
  8
0
100
AcDbText
 10
86.35319943225727
 20
35.17159999999998
 30
0.0
 40
2.0
  1
三相誘導電動機
100
AcDbText
  0
TEXT
  5
24D2
330
24B4
100
AcDbEntity
  8
0
100
AcDbText
 10
74.67809444174623
 20
31.6361
 30
0.0
 40
2.0
  1
型式
100
AcDbText
  0
TEXT
  5
24D3
330
24B4
100
AcDbEntity
  8
0
100
AcDbText
 10
74.67809444174623
 20
35.17159999999998
 30
0.0
 40
2.0
  1
名称
100
AcDbText
  0
LINE
  5
24D4
330
24B4
100
AcDbEntity
  8
0
100
AcDbLine
 10
93.80123573807338
 20
40.12129999999999
 30
0.0
 11
106.1987642619266
 21
40.12129999999999
 31
0.0
  0
LINE
  5
24D5
330
24B4
100
AcDbEntity
  8
0
100
AcDbLine
 10
93.80123573807338
 20
39.41419999999999
 30
0.0
 11
106.1987642619266
 21
39.41419999999999
 31
0.0
  0
TEXT
  5
24D6
330
24B4
100
AcDbEntity
  8
0
100
AcDbText
 10
93.99902987649658
 20
40.47485
 30
0.0
 40
2.0
  1
モータ仕様
100
AcDbText
  0
ENDBLK
  5
24D8
330
24B4
100
AcDbEntity
  8
0
100
AcDbBlockEnd
  0
BLOCK
  5
24FD
330
24DA
100
AcDbEntity
  8
0
100
AcDbBlockBegin
  2
MSPEC_T25F-75
 70
     0
 10
0.0
 20
0.0
 30
0.0
  3
MSPEC_T25F-75
  1

  0
LINE
  5
24DB
330
24DA
100
AcDbEntity
  8
0
100
AcDbLine
 10
126.0
 20
6.180499999999994
 30
0.0
 11
126.0
 21
37.99999999999997
 31
0.0
  0
TEXT
  5
24DC
330
24DA
100
AcDbEntity
  8
0
100
AcDbText
 10
86.35319943225727
 20
28.10060000000001
 30
0.0
 40
2.0
  1
25 W
100
AcDbText
  0
TEXT
  5
24DD
330
24DA
100
AcDbEntity
  8
0
100
AcDbText
 10
74.67809444174623
 20
28.10059999999998
 30
0.0
 40
2.0
  1
出力
100
AcDbText
  0
LINE
  5
24DE
330
24DA
100
AcDbEntity
  8
0
100
AcDbLine
 10
85.5
 20
6.180499999999994
 30
0.0
 11
85.5
 21
38.0
 31
0.0
  0
LINE
  5
24DF
330
24DA
100
AcDbEntity
  8
0
100
AcDbLine
 10
73.99999999999998
 20
6.180500000000023
 30
0.0
 11
74.0
 21
38.0
 31
0.0
  0
TEXT
  5
24E0
330
24DA
100
AcDbEntity
  8
0
100
AcDbText
 10
86.35319943225727
 20
13.95859999999993
 30
0.0
 40
2.0
  1
1500/1800/1800 rpm
100
AcDbText
  0
LINE
  5
24E1
330
24DA
100
AcDbEntity
  8
0
100
AcDbLine
 10
74.0
 20
6.180500000000023
 30
0.0
 11
126.0
 21
6.180499999999994
 31
0.0
  0
LINE
  5
24E2
330
24DA
100
AcDbEntity
  8
0
100
AcDbLine
 10
74.0
 20
9.716000000000008
 30
0.0
 11
126.0
 21
9.715999999999979
 31
0.0
  0
LINE
  5
24E3
330
24DA
100
AcDbEntity
  8
0
100
AcDbLine
 10
74.0
 20
13.25149999999999
 30
0.0
 11
126.0
 21
13.25149999999996
 31
0.0
  0
LINE
  5
24E4
330
24DA
100
AcDbEntity
  8
0
100
AcDbLine
 10
74.0
 20
23.85799999999994
 30
0.0
 11
126.0
 21
23.85799999999992
 31
0.0
  0
LINE
  5
24E5
330
24DA
100
AcDbEntity
  8
0
100
AcDbLine
 10
74.0
 20
16.78699999999997
 30
0.0
 11
126.0
 21
16.78699999999994
 31
0.0
  0
LINE
  5
24E6
330
24DA
100
AcDbEntity
  8
0
100
AcDbLine
 10
74.0
 20
20.32249999999996
 30
0.0
 11
126.0
 21
20.32249999999993
 31
0.0
  0
LINE
  5
24E7
330
24DA
100
AcDbEntity
  8
0
100
AcDbLine
 10
74.0
 20
27.39349999999999
 30
0.0
 11
126.0
 21
27.39349999999996
 31
0.0
  0
TEXT
  5
24E8
330
24DA
100
AcDbEntity
  8
0
100
AcDbText
 10
86.35319943225727
 20
24.56510000000003
 30
0.0
 40
2.0
  1
200/200/220 V
100
AcDbText
  0
TEXT
  5
24E9
330
24DA
100
AcDbEntity
  8
0
100
AcDbText
 10
86.35319943225727
 20
21.02959999999995
 30
0.0
 40
2.0
  1
50/60/60 Hz
100
AcDbText
  0
TEXT
  5
24EA
330
24DA
100
AcDbEntity
  8
0
100
AcDbText
 10
74.67809444174623
 20
10.3295422092805
 30
0.0
 40
2.0
  1
定格
100
AcDbText
  0
TEXT
  5
24EB
330
24DA
100
AcDbEntity
  8
0
100
AcDbText
 10
74.67809444174623
 20
6.794042209280519
 30
0.0
 40
2.0
  1
絶縁
100
AcDbText
  0
TEXT
  5
24EC
330
24DA
100
AcDbEntity
  8
0
100
AcDbText
 10
86.35319943225727
 20
10.42309999999994
 30
0.0
 40
2.0
  1
連続
100
AcDbText
  0
TEXT
  5
24ED
330
24DA
100
AcDbEntity
  8
0
100
AcDbText
 10
86.35319943225727
 20
6.887599999999963
 30
0.0
 40
2.0
  1
E種
100
AcDbText
  0
TEXT
  5
24EE
330
24DA
100
AcDbEntity
  8
0
100
AcDbText
 10
74.67809444174623
 20
13.86504220928048
 30
0.0
 40
2.0
  1
回転速度
100
AcDbText
  0
TEXT
  5
24EF
330
24DA
100
AcDbEntity
  8
0
100
AcDbText
 10
74.67809444174633
 20
21.02959999999995
 30
0.0
 40
2.0
  1
周波数
100
AcDbText
  0
TEXT
  5
24F0
330
24DA
100
AcDbEntity
  8
0
100
AcDbText
 10
74.67809444174623
 20
17.4005422092805
 30
0.0
 40
2.0
  1
極数
100
AcDbText
  0
TEXT
  5
24F1
330
24DA
100
AcDbEntity
  8
0
100
AcDbText
 10
74.67809444174623
 20
24.56509999999997
 30
0.0
 40
2.0
  1
電圧
100
AcDbText
  0
TEXT
  5
24F2
330
24DA
100
AcDbEntity
  8
0
100
AcDbText
 10
86.35319943225727
 20
17.49409999999994
 30
0.0
 40
2.0
  1
4
100
AcDbText
  0
TEXT
  5
24F3
330
24DA
100
AcDbEntity
  8
0
100
AcDbText
 10
86.35319943225727
 20
31.6361
 30
0.0
 40
2.0
  1
全閉外扇形　DT-75
100
AcDbText
  0
LINE
  5
24F4
330
24DA
100
AcDbEntity
  8
0
100
AcDbLine
 10
74.0
 20
38.0
 30
0.0
 11
126.0
 21
37.99999999999997
 31
0.0
  0
LINE
  5
24F5
330
24DA
100
AcDbEntity
  8
0
100
AcDbLine
 10
74.0
 20
30.929
 30
0.0
 11
126.0
 21
30.92899999999994
 31
0.0
  0
LINE
  5
24F6
330
24DA
100
AcDbEntity
  8
0
100
AcDbLine
 10
74.0
 20
34.46450000000001
 30
0.0
 11
126.0
 21
34.46449999999998
 31
0.0
  0
TEXT
  5
24F7
330
24DA
100
AcDbEntity
  8
0
100
AcDbText
 10
86.35319943225727
 20
35.17159999999998
 30
0.0
 40
2.0
  1
三相誘導電動機
100
AcDbText
  0
TEXT
  5
24F8
330
24DA
100
AcDbEntity
  8
0
100
AcDbText
 10
74.67809444174623
 20
31.6361
 30
0.0
 40
2.0
  1
型式
100
AcDbText
  0
TEXT
  5
24F9
330
24DA
100
AcDbEntity
  8
0
100
AcDbText
 10
74.67809444174623
 20
35.17159999999998
 30
0.0
 40
2.0
  1
名称
100
AcDbText
  0
LINE
  5
24FA
330
24DA
100
AcDbEntity
  8
0
100
AcDbLine
 10
93.80123573807338
 20
40.12129999999999
 30
0.0
 11
106.1987642619266
 21
40.12129999999999
 31
0.0
  0
LINE
  5
24FB
330
24DA
100
AcDbEntity
  8
0
100
AcDbLine
 10
93.80123573807338
 20
39.41419999999999
 30
0.0
 11
106.1987642619266
 21
39.41419999999999
 31
0.0
  0
TEXT
  5
24FC
330
24DA
100
AcDbEntity
  8
0
100
AcDbText
 10
93.99902987649658
 20
40.47485
 30
0.0
 40
2.0
  1
モータ仕様
100
AcDbText
  0
ENDBLK
  5
24FE
330
24DA
100
AcDbEntity
  8
0
100
AcDbBlockEnd
  0
BLOCK
  5
2523
330
2500
100
AcDbEntity
  8
0
100
AcDbBlockBegin
  2
MSPEC_T25WF-75
 70
     0
 10
0.0
 20
0.0
 30
0.0
  3
MSPEC_T25WF-75
  1

  0
LINE
  5
2501
330
2500
100
AcDbEntity
  8
0
100
AcDbLine
 10
126.0
 20
6.180499999999994
 30
0.0
 11
126.0
 21
37.99999999999997
 31
0.0
  0
TEXT
  5
2502
330
2500
100
AcDbEntity
  8
0
100
AcDbText
 10
86.35319943225727
 20
28.10060000000001
 30
0.0
 40
2.0
  1
25 W
100
AcDbText
  0
TEXT
  5
2503
330
2500
100
AcDbEntity
  8
0
100
AcDbText
 10
74.67809444174623
 20
28.10059999999998
 30
0.0
 40
2.0
  1
出力
100
AcDbText
  0
LINE
  5
2504
330
2500
100
AcDbEntity
  8
0
100
AcDbLine
 10
85.5
 20
6.180499999999994
 30
0.0
 11
85.5
 21
38.0
 31
0.0
  0
LINE
  5
2505
330
2500
100
AcDbEntity
  8
0
100
AcDbLine
 10
73.99999999999998
 20
6.180500000000023
 30
0.0
 11
74.0
 21
38.0
 31
0.0
  0
TEXT
  5
2506
330
2500
100
AcDbEntity
  8
0
100
AcDbText
 10
86.35319943225727
 20
13.95859999999993
 30
0.0
 40
2.0
  1
1500/1500/1800/1800 rpm
 41
0.9
100
AcDbText
  0
LINE
  5
2507
330
2500
100
AcDbEntity
  8
0
100
AcDbLine
 10
74.0
 20
6.180500000000023
 30
0.0
 11
126.0
 21
6.180499999999994
 31
0.0
  0
LINE
  5
2508
330
2500
100
AcDbEntity
  8
0
100
AcDbLine
 10
74.0
 20
9.716000000000008
 30
0.0
 11
126.0
 21
9.715999999999979
 31
0.0
  0
LINE
  5
2509
330
2500
100
AcDbEntity
  8
0
100
AcDbLine
 10
74.0
 20
13.25149999999999
 30
0.0
 11
126.0
 21
13.25149999999996
 31
0.0
  0
LINE
  5
250A
330
2500
100
AcDbEntity
  8
0
100
AcDbLine
 10
74.0
 20
23.85799999999994
 30
0.0
 11
126.0
 21
23.85799999999992
 31
0.0
  0
LINE
  5
250B
330
2500
100
AcDbEntity
  8
0
100
AcDbLine
 10
74.0
 20
16.78699999999997
 30
0.0
 11
126.0
 21
16.78699999999994
 31
0.0
  0
LINE
  5
250C
330
2500
100
AcDbEntity
  8
0
100
AcDbLine
 10
74.0
 20
20.32249999999996
 30
0.0
 11
126.0
 21
20.32249999999993
 31
0.0
  0
LINE
  5
250D
330
2500
100
AcDbEntity
  8
0
100
AcDbLine
 10
74.0
 20
27.39349999999999
 30
0.0
 11
126.0
 21
27.39349999999996
 31
0.0
  0
TEXT
  5
250E
330
2500
100
AcDbEntity
  8
0
100
AcDbText
 10
86.35319943225727
 20
24.56510000000003
 30
0.0
 40
2.0
  1
380/400/400/440 V
100
AcDbText
  0
TEXT
  5
250F
330
2500
100
AcDbEntity
  8
0
100
AcDbText
 10
86.35319943225727
 20
21.02959999999995
 30
0.0
 40
2.0
  1
50/50/60/60 Hz
100
AcDbText
  0
TEXT
  5
2510
330
2500
100
AcDbEntity
  8
0
100
AcDbText
 10
74.67809444174623
 20
10.3295422092805
 30
0.0
 40
2.0
  1
定格
100
AcDbText
  0
TEXT
  5
2511
330
2500
100
AcDbEntity
  8
0
100
AcDbText
 10
74.67809444174623
 20
6.794042209280519
 30
0.0
 40
2.0
  1
絶縁
100
AcDbText
  0
TEXT
  5
2512
330
2500
100
AcDbEntity
  8
0
100
AcDbText
 10
86.35319943225727
 20
10.42309999999994
 30
0.0
 40
2.0
  1
連続
100
AcDbText
  0
TEXT
  5
2513
330
2500
100
AcDbEntity
  8
0
100
AcDbText
 10
86.35319943225727
 20
6.887599999999963
 30
0.0
 40
2.0
  1
E種
100
AcDbText
  0
TEXT
  5
2514
330
2500
100
AcDbEntity
  8
0
100
AcDbText
 10
74.67809444174623
 20
13.86504220928048
 30
0.0
 40
2.0
  1
回転速度
100
AcDbText
  0
TEXT
  5
2515
330
2500
100
AcDbEntity
  8
0
100
AcDbText
 10
74.67809444174633
 20
21.02959999999995
 30
0.0
 40
2.0
  1
周波数
100
AcDbText
  0
TEXT
  5
2516
330
2500
100
AcDbEntity
  8
0
100
AcDbText
 10
74.67809444174623
 20
17.4005422092805
 30
0.0
 40
2.0
  1
極数
100
AcDbText
  0
TEXT
  5
2517
330
2500
100
AcDbEntity
  8
0
100
AcDbText
 10
74.67809444174623
 20
24.56509999999997
 30
0.0
 40
2.0
  1
電圧
100
AcDbText
  0
TEXT
  5
2518
330
2500
100
AcDbEntity
  8
0
100
AcDbText
 10
86.35319943225727
 20
17.49409999999994
 30
0.0
 40
2.0
  1
4
100
AcDbText
  0
TEXT
  5
2519
330
2500
100
AcDbEntity
  8
0
100
AcDbText
 10
86.35319943225727
 20
31.6361
 30
0.0
 40
2.0
  1
全閉外扇形　DT-75
100
AcDbText
  0
LINE
  5
251A
330
2500
100
AcDbEntity
  8
0
100
AcDbLine
 10
74.0
 20
38.0
 30
0.0
 11
126.0
 21
37.99999999999997
 31
0.0
  0
LINE
  5
251B
330
2500
100
AcDbEntity
  8
0
100
AcDbLine
 10
74.0
 20
30.929
 30
0.0
 11
126.0
 21
30.92899999999994
 31
0.0
  0
LINE
  5
251C
330
2500
100
AcDbEntity
  8
0
100
AcDbLine
 10
74.0
 20
34.46450000000001
 30
0.0
 11
126.0
 21
34.46449999999998
 31
0.0
  0
TEXT
  5
251D
330
2500
100
AcDbEntity
  8
0
100
AcDbText
 10
86.35319943225727
 20
35.17159999999998
 30
0.0
 40
2.0
  1
三相誘導電動機
100
AcDbText
  0
TEXT
  5
251E
330
2500
100
AcDbEntity
  8
0
100
AcDbText
 10
74.67809444174623
 20
31.6361
 30
0.0
 40
2.0
  1
型式
100
AcDbText
  0
TEXT
  5
251F
330
2500
100
AcDbEntity
  8
0
100
AcDbText
 10
74.67809444174623
 20
35.17159999999998
 30
0.0
 40
2.0
  1
名称
100
AcDbText
  0
LINE
  5
2520
330
2500
100
AcDbEntity
  8
0
100
AcDbLine
 10
93.80123573807338
 20
40.12129999999999
 30
0.0
 11
106.1987642619266
 21
40.12129999999999
 31
0.0
  0
LINE
  5
2521
330
2500
100
AcDbEntity
  8
0
100
AcDbLine
 10
93.80123573807338
 20
39.41419999999999
 30
0.0
 11
106.1987642619266
 21
39.41419999999999
 31
0.0
  0
TEXT
  5
2522
330
2500
100
AcDbEntity
  8
0
100
AcDbText
 10
93.99902987649658
 20
40.47485
 30
0.0
 40
2.0
  1
モータ仕様
100
AcDbText
  0
ENDBLK
  5
2524
330
2500
100
AcDbEntity
  8
0
100
AcDbBlockEnd
  0
BLOCK
  5
2549
330
2526
100
AcDbEntity
  8
0
100
AcDbBlockBegin
  2
MSPEC_T40F-75
 70
     0
 10
0.0
 20
0.0
 30
0.0
  3
MSPEC_T40F-75
  1

  0
LINE
  5
2527
330
2526
100
AcDbEntity
  8
0
100
AcDbLine
 10
126.0
 20
6.180499999999994
 30
0.0
 11
126.0
 21
37.99999999999997
 31
0.0
  0
TEXT
  5
2528
330
2526
100
AcDbEntity
  8
0
100
AcDbText
 10
86.35319943225727
 20
28.10060000000001
 30
0.0
 40
2.0
  1
40 W
100
AcDbText
  0
TEXT
  5
2529
330
2526
100
AcDbEntity
  8
0
100
AcDbText
 10
74.67809444174623
 20
28.10059999999998
 30
0.0
 40
2.0
  1
出力
100
AcDbText
  0
LINE
  5
252A
330
2526
100
AcDbEntity
  8
0
100
AcDbLine
 10
85.5
 20
6.180499999999994
 30
0.0
 11
85.5
 21
38.0
 31
0.0
  0
LINE
  5
252B
330
2526
100
AcDbEntity
  8
0
100
AcDbLine
 10
73.99999999999998
 20
6.180500000000023
 30
0.0
 11
74.0
 21
38.0
 31
0.0
  0
TEXT
  5
252C
330
2526
100
AcDbEntity
  8
0
100
AcDbText
 10
86.35319943225727
 20
13.95859999999993
 30
0.0
 40
2.0
  1
1500/1800/1800 rpm
100
AcDbText
  0
LINE
  5
252D
330
2526
100
AcDbEntity
  8
0
100
AcDbLine
 10
74.0
 20
6.180500000000023
 30
0.0
 11
126.0
 21
6.180499999999994
 31
0.0
  0
LINE
  5
252E
330
2526
100
AcDbEntity
  8
0
100
AcDbLine
 10
74.0
 20
9.716000000000008
 30
0.0
 11
126.0
 21
9.715999999999979
 31
0.0
  0
LINE
  5
252F
330
2526
100
AcDbEntity
  8
0
100
AcDbLine
 10
74.0
 20
13.25149999999999
 30
0.0
 11
126.0
 21
13.25149999999996
 31
0.0
  0
LINE
  5
2530
330
2526
100
AcDbEntity
  8
0
100
AcDbLine
 10
74.0
 20
23.85799999999994
 30
0.0
 11
126.0
 21
23.85799999999992
 31
0.0
  0
LINE
  5
2531
330
2526
100
AcDbEntity
  8
0
100
AcDbLine
 10
74.0
 20
16.78699999999997
 30
0.0
 11
126.0
 21
16.78699999999994
 31
0.0
  0
LINE
  5
2532
330
2526
100
AcDbEntity
  8
0
100
AcDbLine
 10
74.0
 20
20.32249999999996
 30
0.0
 11
126.0
 21
20.32249999999993
 31
0.0
  0
LINE
  5
2533
330
2526
100
AcDbEntity
  8
0
100
AcDbLine
 10
74.0
 20
27.39349999999999
 30
0.0
 11
126.0
 21
27.39349999999996
 31
0.0
  0
TEXT
  5
2534
330
2526
100
AcDbEntity
  8
0
100
AcDbText
 10
86.35319943225727
 20
24.56510000000003
 30
0.0
 40
2.0
  1
200/200/220 V
100
AcDbText
  0
TEXT
  5
2535
330
2526
100
AcDbEntity
  8
0
100
AcDbText
 10
86.35319943225727
 20
21.02959999999995
 30
0.0
 40
2.0
  1
50/60/60 Hz
100
AcDbText
  0
TEXT
  5
2536
330
2526
100
AcDbEntity
  8
0
100
AcDbText
 10
74.67809444174623
 20
10.3295422092805
 30
0.0
 40
2.0
  1
定格
100
AcDbText
  0
TEXT
  5
2537
330
2526
100
AcDbEntity
  8
0
100
AcDbText
 10
74.67809444174623
 20
6.794042209280519
 30
0.0
 40
2.0
  1
絶縁
100
AcDbText
  0
TEXT
  5
2538
330
2526
100
AcDbEntity
  8
0
100
AcDbText
 10
86.35319943225727
 20
10.42309999999994
 30
0.0
 40
2.0
  1
連続
100
AcDbText
  0
TEXT
  5
2539
330
2526
100
AcDbEntity
  8
0
100
AcDbText
 10
86.35319943225727
 20
6.887599999999963
 30
0.0
 40
2.0
  1
E種
100
AcDbText
  0
TEXT
  5
253A
330
2526
100
AcDbEntity
  8
0
100
AcDbText
 10
74.67809444174623
 20
13.86504220928048
 30
0.0
 40
2.0
  1
回転速度
100
AcDbText
  0
TEXT
  5
253B
330
2526
100
AcDbEntity
  8
0
100
AcDbText
 10
74.67809444174633
 20
21.02959999999995
 30
0.0
 40
2.0
  1
周波数
100
AcDbText
  0
TEXT
  5
253C
330
2526
100
AcDbEntity
  8
0
100
AcDbText
 10
74.67809444174623
 20
17.4005422092805
 30
0.0
 40
2.0
  1
極数
100
AcDbText
  0
TEXT
  5
253D
330
2526
100
AcDbEntity
  8
0
100
AcDbText
 10
74.67809444174623
 20
24.56509999999997
 30
0.0
 40
2.0
  1
電圧
100
AcDbText
  0
TEXT
  5
253E
330
2526
100
AcDbEntity
  8
0
100
AcDbText
 10
86.35319943225727
 20
17.49409999999994
 30
0.0
 40
2.0
  1
4
100
AcDbText
  0
TEXT
  5
253F
330
2526
100
AcDbEntity
  8
0
100
AcDbText
 10
86.35319943225727
 20
31.6361
 30
0.0
 40
2.0
  1
全閉外扇形　DT-75
100
AcDbText
  0
LINE
  5
2540
330
2526
100
AcDbEntity
  8
0
100
AcDbLine
 10
74.0
 20
38.0
 30
0.0
 11
126.0
 21
37.99999999999997
 31
0.0
  0
LINE
  5
2541
330
2526
100
AcDbEntity
  8
0
100
AcDbLine
 10
74.0
 20
30.929
 30
0.0
 11
126.0
 21
30.92899999999994
 31
0.0
  0
LINE
  5
2542
330
2526
100
AcDbEntity
  8
0
100
AcDbLine
 10
74.0
 20
34.46450000000001
 30
0.0
 11
126.0
 21
34.46449999999998
 31
0.0
  0
TEXT
  5
2543
330
2526
100
AcDbEntity
  8
0
100
AcDbText
 10
86.35319943225727
 20
35.17159999999998
 30
0.0
 40
2.0
  1
三相誘導電動機
100
AcDbText
  0
TEXT
  5
2544
330
2526
100
AcDbEntity
  8
0
100
AcDbText
 10
74.67809444174623
 20
31.6361
 30
0.0
 40
2.0
  1
型式
100
AcDbText
  0
TEXT
  5
2545
330
2526
100
AcDbEntity
  8
0
100
AcDbText
 10
74.67809444174623
 20
35.17159999999998
 30
0.0
 40
2.0
  1
名称
100
AcDbText
  0
LINE
  5
2546
330
2526
100
AcDbEntity
  8
0
100
AcDbLine
 10
93.80123573807338
 20
40.12129999999999
 30
0.0
 11
106.1987642619266
 21
40.12129999999999
 31
0.0
  0
LINE
  5
2547
330
2526
100
AcDbEntity
  8
0
100
AcDbLine
 10
93.80123573807338
 20
39.41419999999999
 30
0.0
 11
106.1987642619266
 21
39.41419999999999
 31
0.0
  0
TEXT
  5
2548
330
2526
100
AcDbEntity
  8
0
100
AcDbText
 10
93.99902987649658
 20
40.47485
 30
0.0
 40
2.0
  1
モータ仕様
100
AcDbText
  0
ENDBLK
  5
254A
330
2526
100
AcDbEntity
  8
0
100
AcDbBlockEnd
  0
BLOCK
  5
256F
330
254C
100
AcDbEntity
  8
0
100
AcDbBlockBegin
  2
MSPEC_T40WF-75
 70
     0
 10
0.0
 20
0.0
 30
0.0
  3
MSPEC_T40WF-75
  1

  0
LINE
  5
254D
330
254C
100
AcDbEntity
  8
0
100
AcDbLine
 10
126.0
 20
6.180499999999994
 30
0.0
 11
126.0
 21
37.99999999999997
 31
0.0
  0
TEXT
  5
254E
330
254C
100
AcDbEntity
  8
0
100
AcDbText
 10
86.35319943225727
 20
28.10060000000001
 30
0.0
 40
2.0
  1
40 W
100
AcDbText
  0
TEXT
  5
254F
330
254C
100
AcDbEntity
  8
0
100
AcDbText
 10
74.67809444174623
 20
28.10059999999998
 30
0.0
 40
2.0
  1
出力
100
AcDbText
  0
LINE
  5
2550
330
254C
100
AcDbEntity
  8
0
100
AcDbLine
 10
85.5
 20
6.180499999999994
 30
0.0
 11
85.5
 21
38.0
 31
0.0
  0
LINE
  5
2551
330
254C
100
AcDbEntity
  8
0
100
AcDbLine
 10
73.99999999999998
 20
6.180500000000023
 30
0.0
 11
74.0
 21
38.0
 31
0.0
  0
TEXT
  5
2552
330
254C
100
AcDbEntity
  8
0
100
AcDbText
 10
86.35319943225727
 20
13.95859999999993
 30
0.0
 40
2.0
  1
1500/1500/1800/1800 rpm
 41
0.9
100
AcDbText
  0
LINE
  5
2553
330
254C
100
AcDbEntity
  8
0
100
AcDbLine
 10
74.0
 20
6.180500000000023
 30
0.0
 11
126.0
 21
6.180499999999994
 31
0.0
  0
LINE
  5
2554
330
254C
100
AcDbEntity
  8
0
100
AcDbLine
 10
74.0
 20
9.716000000000008
 30
0.0
 11
126.0
 21
9.715999999999979
 31
0.0
  0
LINE
  5
2555
330
254C
100
AcDbEntity
  8
0
100
AcDbLine
 10
74.0
 20
13.25149999999999
 30
0.0
 11
126.0
 21
13.25149999999996
 31
0.0
  0
LINE
  5
2556
330
254C
100
AcDbEntity
  8
0
100
AcDbLine
 10
74.0
 20
23.85799999999994
 30
0.0
 11
126.0
 21
23.85799999999992
 31
0.0
  0
LINE
  5
2557
330
254C
100
AcDbEntity
  8
0
100
AcDbLine
 10
74.0
 20
16.78699999999997
 30
0.0
 11
126.0
 21
16.78699999999994
 31
0.0
  0
LINE
  5
2558
330
254C
100
AcDbEntity
  8
0
100
AcDbLine
 10
74.0
 20
20.32249999999996
 30
0.0
 11
126.0
 21
20.32249999999993
 31
0.0
  0
LINE
  5
2559
330
254C
100
AcDbEntity
  8
0
100
AcDbLine
 10
74.0
 20
27.39349999999999
 30
0.0
 11
126.0
 21
27.39349999999996
 31
0.0
  0
TEXT
  5
255A
330
254C
100
AcDbEntity
  8
0
100
AcDbText
 10
86.35319943225727
 20
24.56510000000003
 30
0.0
 40
2.0
  1
380/400/400/440 V
100
AcDbText
  0
TEXT
  5
255B
330
254C
100
AcDbEntity
  8
0
100
AcDbText
 10
86.35319943225727
 20
21.02959999999995
 30
0.0
 40
2.0
  1
50/50/60/60 Hz
100
AcDbText
  0
TEXT
  5
255C
330
254C
100
AcDbEntity
  8
0
100
AcDbText
 10
74.67809444174623
 20
10.3295422092805
 30
0.0
 40
2.0
  1
定格
100
AcDbText
  0
TEXT
  5
255D
330
254C
100
AcDbEntity
  8
0
100
AcDbText
 10
74.67809444174623
 20
6.794042209280519
 30
0.0
 40
2.0
  1
絶縁
100
AcDbText
  0
TEXT
  5
255E
330
254C
100
AcDbEntity
  8
0
100
AcDbText
 10
86.35319943225727
 20
10.42309999999994
 30
0.0
 40
2.0
  1
連続
100
AcDbText
  0
TEXT
  5
255F
330
254C
100
AcDbEntity
  8
0
100
AcDbText
 10
86.35319943225727
 20
6.887599999999963
 30
0.0
 40
2.0
  1
E種
100
AcDbText
  0
TEXT
  5
2560
330
254C
100
AcDbEntity
  8
0
100
AcDbText
 10
74.67809444174623
 20
13.86504220928048
 30
0.0
 40
2.0
  1
回転速度
100
AcDbText
  0
TEXT
  5
2561
330
254C
100
AcDbEntity
  8
0
100
AcDbText
 10
74.67809444174633
 20
21.02959999999995
 30
0.0
 40
2.0
  1
周波数
100
AcDbText
  0
TEXT
  5
2562
330
254C
100
AcDbEntity
  8
0
100
AcDbText
 10
74.67809444174623
 20
17.4005422092805
 30
0.0
 40
2.0
  1
極数
100
AcDbText
  0
TEXT
  5
2563
330
254C
100
AcDbEntity
  8
0
100
AcDbText
 10
74.67809444174623
 20
24.56509999999997
 30
0.0
 40
2.0
  1
電圧
100
AcDbText
  0
TEXT
  5
2564
330
254C
100
AcDbEntity
  8
0
100
AcDbText
 10
86.35319943225727
 20
17.49409999999994
 30
0.0
 40
2.0
  1
4
100
AcDbText
  0
TEXT
  5
2565
330
254C
100
AcDbEntity
  8
0
100
AcDbText
 10
86.35319943225727
 20
31.6361
 30
0.0
 40
2.0
  1
全閉外扇形　DT-75
100
AcDbText
  0
LINE
  5
2566
330
254C
100
AcDbEntity
  8
0
100
AcDbLine
 10
74.0
 20
38.0
 30
0.0
 11
126.0
 21
37.99999999999997
 31
0.0
  0
LINE
  5
2567
330
254C
100
AcDbEntity
  8
0
100
AcDbLine
 10
74.0
 20
30.929
 30
0.0
 11
126.0
 21
30.92899999999994
 31
0.0
  0
LINE
  5
2568
330
254C
100
AcDbEntity
  8
0
100
AcDbLine
 10
74.0
 20
34.46450000000001
 30
0.0
 11
126.0
 21
34.46449999999998
 31
0.0
  0
TEXT
  5
2569
330
254C
100
AcDbEntity
  8
0
100
AcDbText
 10
86.35319943225727
 20
35.17159999999998
 30
0.0
 40
2.0
  1
三相誘導電動機
100
AcDbText
  0
TEXT
  5
256A
330
254C
100
AcDbEntity
  8
0
100
AcDbText
 10
74.67809444174623
 20
31.6361
 30
0.0
 40
2.0
  1
型式
100
AcDbText
  0
TEXT
  5
256B
330
254C
100
AcDbEntity
  8
0
100
AcDbText
 10
74.67809444174623
 20
35.17159999999998
 30
0.0
 40
2.0
  1
名称
100
AcDbText
  0
LINE
  5
256C
330
254C
100
AcDbEntity
  8
0
100
AcDbLine
 10
93.80123573807338
 20
40.12129999999999
 30
0.0
 11
106.1987642619266
 21
40.12129999999999
 31
0.0
  0
LINE
  5
256D
330
254C
100
AcDbEntity
  8
0
100
AcDbLine
 10
93.80123573807338
 20
39.41419999999999
 30
0.0
 11
106.1987642619266
 21
39.41419999999999
 31
0.0
  0
TEXT
  5
256E
330
254C
100
AcDbEntity
  8
0
100
AcDbText
 10
93.99902987649658
 20
40.47485
 30
0.0
 40
2.0
  1
モータ仕様
100
AcDbText
  0
ENDBLK
  5
2570
330
254C
100
AcDbEntity
  8
0
100
AcDbBlockEnd
  0
BLOCK
  5
2595
330
2572
100
AcDbEntity
  8
0
100
AcDbBlockBegin
  2
MSPEC_T60F-75
 70
     0
 10
0.0
 20
0.0
 30
0.0
  3
MSPEC_T60F-75
  1

  0
LINE
  5
2573
330
2572
100
AcDbEntity
  8
0
100
AcDbLine
 10
126.0
 20
6.180499999999994
 30
0.0
 11
126.0
 21
37.99999999999997
 31
0.0
  0
TEXT
  5
2574
330
2572
100
AcDbEntity
  8
0
100
AcDbText
 10
86.35319943225727
 20
28.10060000000001
 30
0.0
 40
2.0
  1
60 W
100
AcDbText
  0
TEXT
  5
2575
330
2572
100
AcDbEntity
  8
0
100
AcDbText
 10
74.67809444174623
 20
28.10059999999998
 30
0.0
 40
2.0
  1
出力
100
AcDbText
  0
LINE
  5
2576
330
2572
100
AcDbEntity
  8
0
100
AcDbLine
 10
85.5
 20
6.180499999999994
 30
0.0
 11
85.5
 21
38.0
 31
0.0
  0
LINE
  5
2577
330
2572
100
AcDbEntity
  8
0
100
AcDbLine
 10
73.99999999999998
 20
6.180500000000023
 30
0.0
 11
74.0
 21
38.0
 31
0.0
  0
TEXT
  5
2578
330
2572
100
AcDbEntity
  8
0
100
AcDbText
 10
86.35319943225727
 20
13.95859999999993
 30
0.0
 40
2.0
  1
1500/1800/1800 rpm
100
AcDbText
  0
LINE
  5
2579
330
2572
100
AcDbEntity
  8
0
100
AcDbLine
 10
74.0
 20
6.180500000000023
 30
0.0
 11
126.0
 21
6.180499999999994
 31
0.0
  0
LINE
  5
257A
330
2572
100
AcDbEntity
  8
0
100
AcDbLine
 10
74.0
 20
9.716000000000008
 30
0.0
 11
126.0
 21
9.715999999999979
 31
0.0
  0
LINE
  5
257B
330
2572
100
AcDbEntity
  8
0
100
AcDbLine
 10
74.0
 20
13.25149999999999
 30
0.0
 11
126.0
 21
13.25149999999996
 31
0.0
  0
LINE
  5
257C
330
2572
100
AcDbEntity
  8
0
100
AcDbLine
 10
74.0
 20
23.85799999999994
 30
0.0
 11
126.0
 21
23.85799999999992
 31
0.0
  0
LINE
  5
257D
330
2572
100
AcDbEntity
  8
0
100
AcDbLine
 10
74.0
 20
16.78699999999997
 30
0.0
 11
126.0
 21
16.78699999999994
 31
0.0
  0
LINE
  5
257E
330
2572
100
AcDbEntity
  8
0
100
AcDbLine
 10
74.0
 20
20.32249999999996
 30
0.0
 11
126.0
 21
20.32249999999993
 31
0.0
  0
LINE
  5
257F
330
2572
100
AcDbEntity
  8
0
100
AcDbLine
 10
74.0
 20
27.39349999999999
 30
0.0
 11
126.0
 21
27.39349999999996
 31
0.0
  0
TEXT
  5
2580
330
2572
100
AcDbEntity
  8
0
100
AcDbText
 10
86.35319943225727
 20
24.56510000000003
 30
0.0
 40
2.0
  1
200/200/220 V
100
AcDbText
  0
TEXT
  5
2581
330
2572
100
AcDbEntity
  8
0
100
AcDbText
 10
86.35319943225727
 20
21.02959999999995
 30
0.0
 40
2.0
  1
50/60/60 Hz
100
AcDbText
  0
TEXT
  5
2582
330
2572
100
AcDbEntity
  8
0
100
AcDbText
 10
74.67809444174623
 20
10.3295422092805
 30
0.0
 40
2.0
  1
定格
100
AcDbText
  0
TEXT
  5
2583
330
2572
100
AcDbEntity
  8
0
100
AcDbText
 10
74.67809444174623
 20
6.794042209280519
 30
0.0
 40
2.0
  1
絶縁
100
AcDbText
  0
TEXT
  5
2584
330
2572
100
AcDbEntity
  8
0
100
AcDbText
 10
86.35319943225727
 20
10.42309999999994
 30
0.0
 40
2.0
  1
連続
100
AcDbText
  0
TEXT
  5
2585
330
2572
100
AcDbEntity
  8
0
100
AcDbText
 10
86.35319943225727
 20
6.887599999999963
 30
0.0
 40
2.0
  1
E種
100
AcDbText
  0
TEXT
  5
2586
330
2572
100
AcDbEntity
  8
0
100
AcDbText
 10
74.67809444174623
 20
13.86504220928048
 30
0.0
 40
2.0
  1
回転速度
100
AcDbText
  0
TEXT
  5
2587
330
2572
100
AcDbEntity
  8
0
100
AcDbText
 10
74.67809444174633
 20
21.02959999999995
 30
0.0
 40
2.0
  1
周波数
100
AcDbText
  0
TEXT
  5
2588
330
2572
100
AcDbEntity
  8
0
100
AcDbText
 10
74.67809444174623
 20
17.4005422092805
 30
0.0
 40
2.0
  1
極数
100
AcDbText
  0
TEXT
  5
2589
330
2572
100
AcDbEntity
  8
0
100
AcDbText
 10
74.67809444174623
 20
24.56509999999997
 30
0.0
 40
2.0
  1
電圧
100
AcDbText
  0
TEXT
  5
258A
330
2572
100
AcDbEntity
  8
0
100
AcDbText
 10
86.35319943225727
 20
17.49409999999994
 30
0.0
 40
2.0
  1
4
100
AcDbText
  0
TEXT
  5
258B
330
2572
100
AcDbEntity
  8
0
100
AcDbText
 10
86.35319943225727
 20
31.6361
 30
0.0
 40
2.0
  1
全閉外扇形　DT-75
100
AcDbText
  0
LINE
  5
258C
330
2572
100
AcDbEntity
  8
0
100
AcDbLine
 10
74.0
 20
38.0
 30
0.0
 11
126.0
 21
37.99999999999997
 31
0.0
  0
LINE
  5
258D
330
2572
100
AcDbEntity
  8
0
100
AcDbLine
 10
74.0
 20
30.929
 30
0.0
 11
126.0
 21
30.92899999999994
 31
0.0
  0
LINE
  5
258E
330
2572
100
AcDbEntity
  8
0
100
AcDbLine
 10
74.0
 20
34.46450000000001
 30
0.0
 11
126.0
 21
34.46449999999998
 31
0.0
  0
TEXT
  5
258F
330
2572
100
AcDbEntity
  8
0
100
AcDbText
 10
86.35319943225727
 20
35.17159999999998
 30
0.0
 40
2.0
  1
三相誘導電動機
100
AcDbText
  0
TEXT
  5
2590
330
2572
100
AcDbEntity
  8
0
100
AcDbText
 10
74.67809444174623
 20
31.6361
 30
0.0
 40
2.0
  1
型式
100
AcDbText
  0
TEXT
  5
2591
330
2572
100
AcDbEntity
  8
0
100
AcDbText
 10
74.67809444174623
 20
35.17159999999998
 30
0.0
 40
2.0
  1
名称
100
AcDbText
  0
LINE
  5
2592
330
2572
100
AcDbEntity
  8
0
100
AcDbLine
 10
93.80123573807338
 20
40.12129999999999
 30
0.0
 11
106.1987642619266
 21
40.12129999999999
 31
0.0
  0
LINE
  5
2593
330
2572
100
AcDbEntity
  8
0
100
AcDbLine
 10
93.80123573807338
 20
39.41419999999999
 30
0.0
 11
106.1987642619266
 21
39.41419999999999
 31
0.0
  0
TEXT
  5
2594
330
2572
100
AcDbEntity
  8
0
100
AcDbText
 10
93.99902987649658
 20
40.47485
 30
0.0
 40
2.0
  1
モータ仕様
100
AcDbText
  0
ENDBLK
  5
2596
330
2572
100
AcDbEntity
  8
0
100
AcDbBlockEnd
  0
BLOCK
  5
25BB
330
2598
100
AcDbEntity
  8
0
100
AcDbBlockBegin
  2
MSPEC_S15F-75
 70
     0
 10
0.0
 20
0.0
 30
0.0
  3
MSPEC_S15F-75
  1

  0
LINE
  5
2599
330
2598
100
AcDbEntity
  8
0
100
AcDbLine
 10
126.0
 20
6.180499999999994
 30
0.0
 11
126.0
 21
37.99999999999997
 31
0.0
  0
TEXT
  5
259A
330
2598
100
AcDbEntity
  8
0
100
AcDbText
 10
86.35319943225727
 20
28.10060000000001
 30
0.0
 40
2.0
  1
15 W
100
AcDbText
  0
TEXT
  5
259B
330
2598
100
AcDbEntity
  8
0
100
AcDbText
 10
74.67809444174623
 20
28.10059999999998
 30
0.0
 40
2.0
  1
出力
100
AcDbText
  0
LINE
  5
259C
330
2598
100
AcDbEntity
  8
0
100
AcDbLine
 10
85.5
 20
6.180499999999994
 30
0.0
 11
85.5
 21
38.0
 31
0.0
  0
LINE
  5
259D
330
2598
100
AcDbEntity
  8
0
100
AcDbLine
 10
73.99999999999998
 20
6.180500000000023
 30
0.0
 11
74.0
 21
38.0
 31
0.0
  0
TEXT
  5
259E
330
2598
100
AcDbEntity
  8
0
100
AcDbText
 10
86.35319943225727
 20
13.95859999999993
 30
0.0
 40
2.0
  1
1500/1800 rpm
100
AcDbText
  0
LINE
  5
259F
330
2598
100
AcDbEntity
  8
0
100
AcDbLine
 10
74.0
 20
6.180500000000023
 30
0.0
 11
126.0
 21
6.180499999999994
 31
0.0
  0
LINE
  5
25A0
330
2598
100
AcDbEntity
  8
0
100
AcDbLine
 10
74.0
 20
9.716000000000008
 30
0.0
 11
126.0
 21
9.715999999999979
 31
0.0
  0
LINE
  5
25A1
330
2598
100
AcDbEntity
  8
0
100
AcDbLine
 10
74.0
 20
13.25149999999999
 30
0.0
 11
126.0
 21
13.25149999999996
 31
0.0
  0
LINE
  5
25A2
330
2598
100
AcDbEntity
  8
0
100
AcDbLine
 10
74.0
 20
23.85799999999994
 30
0.0
 11
126.0
 21
23.85799999999992
 31
0.0
  0
LINE
  5
25A3
330
2598
100
AcDbEntity
  8
0
100
AcDbLine
 10
74.0
 20
16.78699999999997
 30
0.0
 11
126.0
 21
16.78699999999994
 31
0.0
  0
LINE
  5
25A4
330
2598
100
AcDbEntity
  8
0
100
AcDbLine
 10
74.0
 20
20.32249999999996
 30
0.0
 11
126.0
 21
20.32249999999993
 31
0.0
  0
LINE
  5
25A5
330
2598
100
AcDbEntity
  8
0
100
AcDbLine
 10
74.0
 20
27.39349999999999
 30
0.0
 11
126.0
 21
27.39349999999996
 31
0.0
  0
TEXT
  5
25A6
330
2598
100
AcDbEntity
  8
0
100
AcDbText
 10
86.35319943225727
 20
24.56510000000003
 30
0.0
 40
2.0
  1
100 V
100
AcDbText
  0
TEXT
  5
25A7
330
2598
100
AcDbEntity
  8
0
100
AcDbText
 10
86.35319943225727
 20
21.02959999999995
 30
0.0
 40
2.0
  1
50/60 Hz
100
AcDbText
  0
TEXT
  5
25A8
330
2598
100
AcDbEntity
  8
0
100
AcDbText
 10
74.67809444174623
 20
10.3295422092805
 30
0.0
 40
2.0
  1
定格
100
AcDbText
  0
TEXT
  5
25A9
330
2598
100
AcDbEntity
  8
0
100
AcDbText
 10
74.67809444174623
 20
6.794042209280519
 30
0.0
 40
2.0
  1
絶縁
100
AcDbText
  0
TEXT
  5
25AA
330
2598
100
AcDbEntity
  8
0
100
AcDbText
 10
86.35319943225727
 20
10.42309999999994
 30
0.0
 40
2.0
  1
連続
100
AcDbText
  0
TEXT
  5
25AB
330
2598
100
AcDbEntity
  8
0
100
AcDbText
 10
86.35319943225727
 20
6.887599999999963
 30
0.0
 40
2.0
  1
E種
100
AcDbText
  0
TEXT
  5
25AC
330
2598
100
AcDbEntity
  8
0
100
AcDbText
 10
74.67809444174623
 20
13.86504220928048
 30
0.0
 40
2.0
  1
回転速度
100
AcDbText
  0
TEXT
  5
25AD
330
2598
100
AcDbEntity
  8
0
100
AcDbText
 10
74.67809444174633
 20
21.02959999999995
 30
0.0
 40
2.0
  1
周波数
100
AcDbText
  0
TEXT
  5
25AE
330
2598
100
AcDbEntity
  8
0
100
AcDbText
 10
74.67809444174623
 20
17.4005422092805
 30
0.0
 40
2.0
  1
極数
100
AcDbText
  0
TEXT
  5
25AF
330
2598
100
AcDbEntity
  8
0
100
AcDbText
 10
74.67809444174623
 20
24.56509999999997
 30
0.0
 40
2.0
  1
電圧
100
AcDbText
  0
TEXT
  5
25B0
330
2598
100
AcDbEntity
  8
0
100
AcDbText
 10
86.35319943225727
 20
17.49409999999994
 30
0.0
 40
2.0
  1
4
100
AcDbText
  0
TEXT
  5
25B1
330
2598
100
AcDbEntity
  8
0
100
AcDbText
 10
86.35319943225727
 20
31.6361
 30
0.0
 40
2.0
  1
全閉外扇形（ｺﾝﾃﾞﾝｻﾗﾝ）DS-75
100
AcDbText
  0
LINE
  5
25B2
330
2598
100
AcDbEntity
  8
0
100
AcDbLine
 10
74.0
 20
38.0
 30
0.0
 11
126.0
 21
37.99999999999997
 31
0.0
  0
LINE
  5
25B3
330
2598
100
AcDbEntity
  8
0
100
AcDbLine
 10
74.0
 20
30.929
 30
0.0
 11
126.0
 21
30.92899999999994
 31
0.0
  0
LINE
  5
25B4
330
2598
100
AcDbEntity
  8
0
100
AcDbLine
 10
74.0
 20
34.46450000000001
 30
0.0
 11
126.0
 21
34.46449999999998
 31
0.0
  0
TEXT
  5
25B5
330
2598
100
AcDbEntity
  8
0
100
AcDbText
 10
86.35319943225727
 20
35.17159999999998
 30
0.0
 40
2.0
  1
単相誘導電動機
100
AcDbText
  0
TEXT
  5
25B6
330
2598
100
AcDbEntity
  8
0
100
AcDbText
 10
74.67809444174623
 20
31.6361
 30
0.0
 40
2.0
  1
型式
100
AcDbText
  0
TEXT
  5
25B7
330
2598
100
AcDbEntity
  8
0
100
AcDbText
 10
74.67809444174623
 20
35.17159999999998
 30
0.0
 40
2.0
  1
名称
100
AcDbText
  0
LINE
  5
25B8
330
2598
100
AcDbEntity
  8
0
100
AcDbLine
 10
93.80123573807338
 20
40.12129999999999
 30
0.0
 11
106.1987642619266
 21
40.12129999999999
 31
0.0
  0
LINE
  5
25B9
330
2598
100
AcDbEntity
  8
0
100
AcDbLine
 10
93.80123573807338
 20
39.41419999999999
 30
0.0
 11
106.1987642619266
 21
39.41419999999999
 31
0.0
  0
TEXT
  5
25BA
330
2598
100
AcDbEntity
  8
0
100
AcDbText
 10
93.99902987649658
 20
40.47485
 30
0.0
 40
2.0
  1
モータ仕様
100
AcDbText
  0
ENDBLK
  5
25BC
330
2598
100
AcDbEntity
  8
0
100
AcDbBlockEnd
  0
BLOCK
  5
25E1
330
25BE
100
AcDbEntity
  8
0
100
AcDbBlockBegin
  2
MSPEC_S15WF-75
 70
     0
 10
0.0
 20
0.0
 30
0.0
  3
MSPEC_S15WF-75
  1

  0
LINE
  5
25BF
330
25BE
100
AcDbEntity
  8
0
100
AcDbLine
 10
126.0
 20
6.180499999999994
 30
0.0
 11
126.0
 21
37.99999999999997
 31
0.0
  0
TEXT
  5
25C0
330
25BE
100
AcDbEntity
  8
0
100
AcDbText
 10
86.35319943225727
 20
28.10060000000001
 30
0.0
 40
2.0
  1
15 W
100
AcDbText
  0
TEXT
  5
25C1
330
25BE
100
AcDbEntity
  8
0
100
AcDbText
 10
74.67809444174623
 20
28.10059999999998
 30
0.0
 40
2.0
  1
出力
100
AcDbText
  0
LINE
  5
25C2
330
25BE
100
AcDbEntity
  8
0
100
AcDbLine
 10
85.5
 20
6.180499999999994
 30
0.0
 11
85.5
 21
38.0
 31
0.0
  0
LINE
  5
25C3
330
25BE
100
AcDbEntity
  8
0
100
AcDbLine
 10
73.99999999999998
 20
6.180500000000023
 30
0.0
 11
74.0
 21
38.0
 31
0.0
  0
TEXT
  5
25C4
330
25BE
100
AcDbEntity
  8
0
100
AcDbText
 10
86.35319943225727
 20
13.95859999999993
 30
0.0
 40
2.0
  1
1500/1800 rpm
100
AcDbText
  0
LINE
  5
25C5
330
25BE
100
AcDbEntity
  8
0
100
AcDbLine
 10
74.0
 20
6.180500000000023
 30
0.0
 11
126.0
 21
6.180499999999994
 31
0.0
  0
LINE
  5
25C6
330
25BE
100
AcDbEntity
  8
0
100
AcDbLine
 10
74.0
 20
9.716000000000008
 30
0.0
 11
126.0
 21
9.715999999999979
 31
0.0
  0
LINE
  5
25C7
330
25BE
100
AcDbEntity
  8
0
100
AcDbLine
 10
74.0
 20
13.25149999999999
 30
0.0
 11
126.0
 21
13.25149999999996
 31
0.0
  0
LINE
  5
25C8
330
25BE
100
AcDbEntity
  8
0
100
AcDbLine
 10
74.0
 20
23.85799999999994
 30
0.0
 11
126.0
 21
23.85799999999992
 31
0.0
  0
LINE
  5
25C9
330
25BE
100
AcDbEntity
  8
0
100
AcDbLine
 10
74.0
 20
16.78699999999997
 30
0.0
 11
126.0
 21
16.78699999999994
 31
0.0
  0
LINE
  5
25CA
330
25BE
100
AcDbEntity
  8
0
100
AcDbLine
 10
74.0
 20
20.32249999999996
 30
0.0
 11
126.0
 21
20.32249999999993
 31
0.0
  0
LINE
  5
25CB
330
25BE
100
AcDbEntity
  8
0
100
AcDbLine
 10
74.0
 20
27.39349999999999
 30
0.0
 11
126.0
 21
27.39349999999996
 31
0.0
  0
TEXT
  5
25CC
330
25BE
100
AcDbEntity
  8
0
100
AcDbText
 10
86.35319943225727
 20
24.56510000000003
 30
0.0
 40
2.0
  1
200 V
100
AcDbText
  0
TEXT
  5
25CD
330
25BE
100
AcDbEntity
  8
0
100
AcDbText
 10
86.35319943225727
 20
21.02959999999995
 30
0.0
 40
2.0
  1
50/60 Hz
100
AcDbText
  0
TEXT
  5
25CE
330
25BE
100
AcDbEntity
  8
0
100
AcDbText
 10
74.67809444174623
 20
10.3295422092805
 30
0.0
 40
2.0
  1
定格
100
AcDbText
  0
TEXT
  5
25CF
330
25BE
100
AcDbEntity
  8
0
100
AcDbText
 10
74.67809444174623
 20
6.794042209280519
 30
0.0
 40
2.0
  1
絶縁
100
AcDbText
  0
TEXT
  5
25D0
330
25BE
100
AcDbEntity
  8
0
100
AcDbText
 10
86.35319943225727
 20
10.42309999999994
 30
0.0
 40
2.0
  1
連続
100
AcDbText
  0
TEXT
  5
25D1
330
25BE
100
AcDbEntity
  8
0
100
AcDbText
 10
86.35319943225727
 20
6.887599999999963
 30
0.0
 40
2.0
  1
E種
100
AcDbText
  0
TEXT
  5
25D2
330
25BE
100
AcDbEntity
  8
0
100
AcDbText
 10
74.67809444174623
 20
13.86504220928048
 30
0.0
 40
2.0
  1
回転速度
100
AcDbText
  0
TEXT
  5
25D3
330
25BE
100
AcDbEntity
  8
0
100
AcDbText
 10
74.67809444174633
 20
21.02959999999995
 30
0.0
 40
2.0
  1
周波数
100
AcDbText
  0
TEXT
  5
25D4
330
25BE
100
AcDbEntity
  8
0
100
AcDbText
 10
74.67809444174623
 20
17.4005422092805
 30
0.0
 40
2.0
  1
極数
100
AcDbText
  0
TEXT
  5
25D5
330
25BE
100
AcDbEntity
  8
0
100
AcDbText
 10
74.67809444174623
 20
24.56509999999997
 30
0.0
 40
2.0
  1
電圧
100
AcDbText
  0
TEXT
  5
25D6
330
25BE
100
AcDbEntity
  8
0
100
AcDbText
 10
86.35319943225727
 20
17.49409999999994
 30
0.0
 40
2.0
  1
4
100
AcDbText
  0
TEXT
  5
25D7
330
25BE
100
AcDbEntity
  8
0
100
AcDbText
 10
86.35319943225727
 20
31.6361
 30
0.0
 40
2.0
  1
全閉外扇形（ｺﾝﾃﾞﾝｻﾗﾝ）DS-75
100
AcDbText
  0
LINE
  5
25D8
330
25BE
100
AcDbEntity
  8
0
100
AcDbLine
 10
74.0
 20
38.0
 30
0.0
 11
126.0
 21
37.99999999999997
 31
0.0
  0
LINE
  5
25D9
330
25BE
100
AcDbEntity
  8
0
100
AcDbLine
 10
74.0
 20
30.929
 30
0.0
 11
126.0
 21
30.92899999999994
 31
0.0
  0
LINE
  5
25DA
330
25BE
100
AcDbEntity
  8
0
100
AcDbLine
 10
74.0
 20
34.46450000000001
 30
0.0
 11
126.0
 21
34.46449999999998
 31
0.0
  0
TEXT
  5
25DB
330
25BE
100
AcDbEntity
  8
0
100
AcDbText
 10
86.35319943225727
 20
35.17159999999998
 30
0.0
 40
2.0
  1
単相誘導電動機
100
AcDbText
  0
TEXT
  5
25DC
330
25BE
100
AcDbEntity
  8
0
100
AcDbText
 10
74.67809444174623
 20
31.6361
 30
0.0
 40
2.0
  1
型式
100
AcDbText
  0
TEXT
  5
25DD
330
25BE
100
AcDbEntity
  8
0
100
AcDbText
 10
74.67809444174623
 20
35.17159999999998
 30
0.0
 40
2.0
  1
名称
100
AcDbText
  0
LINE
  5
25DE
330
25BE
100
AcDbEntity
  8
0
100
AcDbLine
 10
93.80123573807338
 20
40.12129999999999
 30
0.0
 11
106.1987642619266
 21
40.12129999999999
 31
0.0
  0
LINE
  5
25DF
330
25BE
100
AcDbEntity
  8
0
100
AcDbLine
 10
93.80123573807338
 20
39.41419999999999
 30
0.0
 11
106.1987642619266
 21
39.41419999999999
 31
0.0
  0
TEXT
  5
25E0
330
25BE
100
AcDbEntity
  8
0
100
AcDbText
 10
93.99902987649658
 20
40.47485
 30
0.0
 40
2.0
  1
モータ仕様
100
AcDbText
  0
ENDBLK
  5
25E2
330
25BE
100
AcDbEntity
  8
0
100
AcDbBlockEnd
  0
BLOCK
  5
26C6
330
26C3
100
AcDbEntity
  8
0
100
AcDbBlockBegin
  2
18
 70
     0
 10
0.0
 20
0.0
 30
0.0
  3
18
  1

  0
TEXT
  5
26C4
330
26C3
100
AcDbEntity
  8
0
100
AcDbText
 10
0.0
 20
3.5
 30
0.0
 40
2.0
  1
注。C型ターミナルボックスにはコネクター（キャプコン、膜付ゴム
100
AcDbText
  0
TEXT
  5
26C5
330
26C3
100
AcDbEntity
  8
0
100
AcDbText
 10
0.0
 20
0.0
 30
0.0
 40
2.0
  1
　　ブッシュ）が付属されています。
100
AcDbText
  0
ENDBLK
  5
26C7
330
26C3
100
AcDbEntity
  8
0
100
AcDbBlockEnd
  0
BLOCK
  5
26CB
330
26C8
100
AcDbEntity
  8
0
100
AcDbBlockBegin
  2
19
 70
     0
 10
0.0
 20
0.0
 30
0.0
  3
19
  1

  0
TEXT
  5
26C9
330
26C8
100
AcDbEntity
  8
0
100
AcDbText
 10
0.0
 20
3.5
 30
0.0
 40
2.0
  1
注。整流器はターミナルボックスに内蔵され、交流切り（B）用結線に
100
AcDbText
  0
TEXT
  5
26CA
330
26C8
100
AcDbEntity
  8
0
100
AcDbText
 10
0.0
 20
0.0
 30
0.0
 40
2.0
  1
　　なっています。
100
AcDbText
  0
ENDBLK
  5
26CC
330
26C8
100
AcDbEntity
  8
0
100
AcDbBlockEnd
  0
ENDSEC
  0
SECTION
  2
ENTITIES
  0
LINE
  5
814
330
2
100
AcDbEntity
  8
HIDS
100
AcDbLine
 10
428.0201439161595
 20
121.1803181390592
 30
0.0
 11
472.5886859161595
 21
121.1803181390592
 31
0.0
  0
LINE
  5
815
330
2
100
AcDbEntity
  8
HIDS
100
AcDbLine
 10
474.0201439161595
 20
201.1803181390592
 30
0.0
 11
429.4516019161595
 21
201.1803181390592
 31
0.0
  0
LINE
  5
823
330
2
100
AcDbEntity
  8
HIDS
100
AcDbLine
 10
429.9852319161595
 20
123.5474831390592
 30
0.0
 11
451.0201439161595
 21
123.1803181390592
 31
0.0
  0
LINE
  5
824
330
2
100
AcDbEntity
  8
HIDS
100
AcDbLine
 10
429.9852319161595
 20
198.8131461390592
 30
0.0
 11
451.0201439161595
 21
199.1803181390592
 31
0.0
  0
CIRCLE
  5
828
330
2
100
AcDbEntity
  8
HOJO
100
AcDbCircle
 10
315.573363233222
 20
194.6803181390592
 30
0.0
 40
4.0
  0
CIRCLE
  5
829
330
2
100
AcDbEntity
  8
0
100
AcDbCircle
 10
315.573363233222
 20
194.6803181390592
 30
0.0
 40
4.25
  0
CIRCLE
  5
82A
330
2
100
AcDbEntity
  8
HOJO
100
AcDbCircle
 10
229.573363233222
 20
194.6803181390592
 30
0.0
 40
4.0
  0
CIRCLE
  5
82B
330
2
100
AcDbEntity
  8
0
100
AcDbCircle
 10
229.573363233222
 20
194.6803181390592
 30
0.0
 40
4.25
  0
LINE
  5
82C
330
2
100
AcDbEntity
  8
HIDS
100
AcDbLine
 10
425.9160789161596
 20
199.7158561390592
 30
0.0
 11
412.4846219161595
 21
186.2843981390592
 31
0.0
  0
ARC
  5
82D
330
2
100
AcDbEntity
  8
0
100
AcDbCircle
 10
224.573363233222
 20
191.1803181390592
 30
0.0
 40
2.0
100
AcDbArc
 50
180.0
 51
270.0
  0
ARC
  5
82E
330
2
100
AcDbEntity
  8
0
100
AcDbCircle
 10
320.573363233222
 20
191.1803181390592
 30
0.0
 40
2.0
100
AcDbArc
 50
270.0
 51
0.0
  0
LINE
  5
82F
330
2
100
AcDbEntity
  8
0
100
AcDbLine
 10
91.01787123322203
 20
196.1803181390592
 30
0.0
 11
91.01787123322203
 21
126.1803181390592
 31
0.0
  0
LINE
  5
830
330
2
100
AcDbEntity
  8
0
100
AcDbLine
 10
140.017859233222
 20
121.1803181390592
 30
0.0
 11
140.017859233222
 21
201.1803181390592
 31
0.0
  0
ARC
  5
831
330
2
100
AcDbEntity
  8
0
100
AcDbCircle
 10
244.573363233222
 20
192.1803181390592
 30
0.0
 40
2.0
100
AcDbArc
 50
319.3987049999997
 51
0.0
  0
LINE
  5
832
330
2
100
AcDbEntity
  8
0
100
AcDbLine
 10
236.172011233222
 20
182.3787281390592
 30
0.0
 11
244.091872233222
 21
191.6185811390592
 31
0.0
  0
ARC
  5
833
330
2
100
AcDbEntity
  8
0
100
AcDbCircle
 10
300.573363233222
 20
192.1803181390592
 30
0.0
 40
2.0
100
AcDbArc
 50
180.0
 51
220.601288
  0
LINE
  5
834
330
2
100
AcDbEntity
  8
0
100
AcDbLine
 10
308.974730233222
 20
182.3787281390592
 30
0.0
 11
301.054839233222
 21
191.6185811390592
 31
0.0
  0
LINE
  5
836
330
2
100
AcDbEntity
  8
0
100
AcDbLine
 10
322.573363233222
 20
127.6803181390592
 30
0.0
 11
322.573363233222
 21
194.6803181390592
 31
0.0
  0
LINE
  5
838
330
2
100
AcDbEntity
  8
0
100
AcDbLine
 10
222.573363233222
 20
194.6803181390592
 30
0.0
 11
222.573363233222
 21
177.5087481390592
 31
0.0
  0
LINE
  5
839
330
2
100
AcDbEntity
  8
0
100
AcDbLine
 10
149.517859233222
 20
199.1803181390592
 30
0.0
 11
149.517859233222
 21
123.1803181390592
 31
0.0
  0
ARC
  5
83D
330
2
100
AcDbEntity
  8
HIDS
100
AcDbCircle
 10
425.0201439161595
 20
192.8820541390592
 30
0.0
 40
3.0
100
AcDbArc
 50
309.3567009999997
 51
0.0
  0
LINE
  5
83F
330
2
100
AcDbEntity
  8
0
100
AcDbLine
 10
149.517859233222
 20
130.9313561390592
 30
0.0
 11
222.573363233222
 21
130.9313561390592
 31
0.0
  0
LINE
  5
840
330
2
100
AcDbEntity
  8
0
100
AcDbLine
 10
149.517859233222
 20
123.1803181390592
 30
0.0
 11
221.214614233222
 21
123.1803181390592
 31
0.0
  0
LINE
  5
841
330
2
100
AcDbEntity
  8
CENTER
100
AcDbLine
 10
330.114134233222
 20
161.1803181390592
 30
0.0
 11
82.49734126498795
 21
161.1803181390592
 31
0.0
  0
LINE
  5
843
330
2
100
AcDbEntity
  8
0
100
AcDbLine
 10
96.01787123322203
 20
121.1803181390592
 30
0.0
 11
140.017859233222
 21
121.1803181390592
 31
0.0
  0
ARC
  5
844
330
2
100
AcDbEntity
  8
0
100
AcDbCircle
 10
96.01787823322204
 20
126.1803181390592
 30
0.0
 40
5.0
100
AcDbArc
 50
180.0
 51
270.0
  0
LINE
  5
845
330
2
100
AcDbEntity
  8
0
100
AcDbLine
 10
140.017859233222
 20
130.9313171390592
 30
0.0
 11
149.517859233222
 21
130.9313171390592
 31
0.0
  0
LINE
  5
846
330
2
100
AcDbEntity
  8
0
100
AcDbLine
 10
140.017859233222
 20
123.1803181390592
 30
0.0
 11
149.517859233222
 21
123.1803181390592
 31
0.0
  0
LINE
  5
847
330
2
100
AcDbEntity
  8
0
100
AcDbLine
 10
93.76787123322204
 20
185.1803181390592
 30
0.0
 11
140.017859233222
 21
185.1803181390592
 31
0.0
  0
LINE
  5
848
330
2
100
AcDbEntity
  8
0
100
AcDbLine
 10
93.76787123322204
 20
135.1803181390592
 30
0.0
 11
140.017859233222
 21
135.1803181390592
 31
0.0
  0
CIRCLE
  5
851
330
2
100
AcDbEntity
  8
HOJO
100
AcDbCircle
 10
315.573363233222
 20
127.6803181390592
 30
0.0
 40
4.0
  0
CIRCLE
  5
852
330
2
100
AcDbEntity
  8
0
100
AcDbCircle
 10
315.573363233222
 20
127.6803181390592
 30
0.0
 40
4.25
  0
CIRCLE
  5
853
330
2
100
AcDbEntity
  8
0
100
AcDbCircle
 10
315.573363233222
 20
127.6803181390592
 30
0.0
 40
3.399999999999999
  0
LINE
  5
855
330
2
100
AcDbEntity
  8
0
100
AcDbLine
 10
320.573363233222
 20
180.1803181390592
 30
0.0
 11
318.073363233222
 21
180.1803181390592
 31
0.0
  0
LINE
  5
856
330
2
100
AcDbEntity
  8
0
100
AcDbLine
 10
320.573363233222
 20
189.1803181390592
 30
0.0
 11
318.073363233222
 21
189.1803181390592
 31
0.0
  0
LINE
  5
857
330
2
100
AcDbEntity
  8
0
100
AcDbLine
 10
318.073363233222
 20
182.8803001390592
 30
0.0
 11
319.573363233222
 21
183.7463281390592
 31
0.0
  0
LINE
  5
858
330
2
100
AcDbEntity
  8
0
100
AcDbLine
 10
318.073363233222
 20
186.4803061390592
 30
0.0
 11
319.573363233222
 21
185.6142781390592
 31
0.0
  0
CIRCLE
  5
859
330
2
100
AcDbEntity
  8
0
100
AcDbCircle
 10
318.073363233222
 20
184.6803181390592
 30
0.0
 40
3.5
  0
CIRCLE
  5
85A
330
2
100
AcDbEntity
  8
0
100
AcDbCircle
 10
318.073363233222
 20
184.6803181390592
 30
0.0
 40
3.799999999999999
  0
LINE
  5
85B
330
2
100
AcDbEntity
  8
0
100
AcDbLine
 10
320.573363233222
 20
142.1803181390592
 30
0.0
 11
318.073363233222
 21
142.1803181390592
 31
0.0
  0
LINE
  5
85C
330
2
100
AcDbEntity
  8
0
100
AcDbLine
 10
320.573363233222
 20
133.1803181390592
 30
0.0
 11
318.073363233222
 21
133.1803181390592
 31
0.0
  0
LINE
  5
85E
330
2
100
AcDbEntity
  8
0
100
AcDbLine
 10
318.073363233222
 20
139.4803361390592
 30
0.0
 11
319.573363233222
 21
138.6143081390592
 31
0.0
  0
LINE
  5
85F
330
2
100
AcDbEntity
  8
0
100
AcDbLine
 10
318.073363233222
 20
135.8803301390592
 30
0.0
 11
319.573363233222
 21
136.7463581390592
 31
0.0
  0
CIRCLE
  5
860
330
2
100
AcDbEntity
  8
0
100
AcDbCircle
 10
318.073363233222
 20
137.6803181390592
 30
0.0
 40
3.5
  0
CIRCLE
  5
861
330
2
100
AcDbEntity
  8
0
100
AcDbCircle
 10
318.073363233222
 20
137.6803181390592
 30
0.0
 40
3.799999999999999
  0
ARC
  5
862
330
2
100
AcDbEntity
  8
0
100
AcDbCircle
 10
315.573363233222
 20
127.6803181390592
 30
0.0
 40
7.0
100
AcDbArc
 50
227.3640749999997
 51
0.0
  0
CIRCLE
  5
865
330
2
100
AcDbEntity
  8
0
100
AcDbCircle
 10
227.073363233222
 20
137.6803181390592
 30
0.0
 40
3.5
  0
CIRCLE
  5
866
330
2
100
AcDbEntity
  8
0
100
AcDbCircle
 10
227.073363233222
 20
137.6803181390592
 30
0.0
 40
3.799999999999999
  0
ARC
  5
867
330
2
100
AcDbEntity
  8
0
100
AcDbCircle
 10
227.073363233222
 20
137.6803181390592
 30
0.0
 40
4.5
100
AcDbArc
 50
270.0
 51
90.0
  0
ARC
  5
868
330
2
100
AcDbEntity
  8
0
100
AcDbCircle
 10
318.073363233222
 20
137.6803181390592
 30
0.0
 40
4.5
100
AcDbArc
 50
90.0
 51
270.0
  0
LINE
  5
86A
330
2
100
AcDbEntity
  8
0
100
AcDbLine
 10
237.091872233222
 20
141.9819081390592
 30
0.0
 11
246.091872233222
 21
131.4819001390592
 31
0.0
  0
LINE
  5
86B
330
2
100
AcDbEntity
  8
0
100
AcDbLine
 10
236.172011233222
 20
139.9819081390592
 30
0.0
 11
244.091872233222
 21
130.7420551390592
 31
0.0
  0
LINE
  5
86C
330
2
100
AcDbEntity
  8
0
100
AcDbLine
 10
308.054839233222
 20
141.9819081390592
 30
0.0
 11
299.054854233222
 21
131.4819001390592
 31
0.0
  0
LINE
  5
86D
330
2
100
AcDbEntity
  8
0
100
AcDbLine
 10
308.974730233222
 20
139.9819081390592
 30
0.0
 11
301.054839233222
 21
130.7420551390592
 31
0.0
  0
LINE
  5
86E
330
2
100
AcDbEntity
  8
0
100
AcDbLine
 10
222.573363233222
 20
144.8518881390592
 30
0.0
 11
222.573363233222
 21
127.6803181390592
 31
0.0
  0
LINE
  5
86F
330
2
100
AcDbEntity
  8
0
100
AcDbLine
 10
291.573363233222
 20
125.6803181390592
 30
0.0
 11
253.573363233222
 21
125.6803181390592
 31
0.0
  0
LINE
  5
870
330
2
100
AcDbEntity
  8
0
100
AcDbLine
 10
229.573363233222
 20
120.6803181390592
 30
0.0
 11
315.573363233222
 21
120.6803181390592
 31
0.0
  0
ARC
  5
871
330
2
100
AcDbEntity
  8
0
100
AcDbCircle
 10
224.573363233222
 20
131.1803181390592
 30
0.0
 40
2.0
100
AcDbArc
 50
90.0
 51
180.0
  0
LINE
  5
872
330
2
100
AcDbEntity
  8
0
100
AcDbLine
 10
221.909743233222
 20
123.0556231390592
 30
0.0
 11
227.140380233222
 21
121.1167351390592
 31
0.0
  0
ARC
  5
873
330
2
100
AcDbEntity
  8
0
100
AcDbCircle
 10
229.573363233222
 20
127.6803181390592
 30
0.0
 40
7.0
100
AcDbArc
 50
180.0
 51
312.6359250000002
  0
ARC
  5
875
330
2
100
AcDbEntity
  8
0
100
AcDbCircle
 10
221.214614233222
 20
121.1803181390592
 30
0.0
 40
2.0
100
AcDbArc
 50
69.66126999999999
 51
90.0
  0
ARC
  5
876
330
2
100
AcDbEntity
  8
0
100
AcDbCircle
 10
248.974028233222
 20
130.6803181390592
 30
0.0
 40
10.0
100
AcDbArc
 50
247.6683580000006
 51
270.0
  0
ARC
  5
878
330
2
100
AcDbEntity
  8
0
100
AcDbCircle
 10
238.378752233222
 20
118.1165741390592
 30
0.0
 40
6.0
100
AcDbArc
 50
59.64169700000056
 51
132.6359250000002
  0
CIRCLE
  5
879
330
2
100
AcDbEntity
  8
HOJO
100
AcDbCircle
 10
229.573363233222
 20
127.6803181390592
 30
0.0
 40
4.0
  0
CIRCLE
  5
87A
330
2
100
AcDbEntity
  8
0
100
AcDbCircle
 10
229.573363233222
 20
127.6803181390592
 30
0.0
 40
4.25
  0
CIRCLE
  5
87B
330
2
100
AcDbEntity
  8
0
100
AcDbCircle
 10
229.573363233222
 20
127.6803181390592
 30
0.0
 40
3.399999999999999
  0
LINE
  5
87C
330
2
100
AcDbEntity
  8
0
100
AcDbLine
 10
224.573363233222
 20
133.1803181390592
 30
0.0
 11
227.073363233222
 21
133.1803181390592
 31
0.0
  0
ARC
  5
87D
330
2
100
AcDbEntity
  8
0
100
AcDbCircle
 10
246.573363233222
 20
128.9453251390592
 30
0.0
 40
2.0
100
AcDbArc
 50
180.0
 51
249.5126799999996
  0
ARC
  5
87E
330
2
100
AcDbEntity
  8
0
100
AcDbCircle
 10
248.573363233222
 20
128.3154041390592
 30
0.0
 40
2.0
100
AcDbArc
 50
180.0
 51
255.5224910000005
  0
ARC
  5
87F
330
2
100
AcDbEntity
  8
0
100
AcDbCircle
 10
253.573363233222
 20
147.6803181390592
 30
0.0
 40
22.0
100
AcDbArc
 50
249.5126879999996
 51
270.0
  0
ARC
  5
880
330
2
100
AcDbEntity
  8
0
100
AcDbCircle
 10
256.573363233222
 20
149.1803181390592
 30
0.0
 40
30.0
100
AcDbArc
 50
239.6417009999999
 51
247.6683580000006
  0
LINE
  5
881
330
2
100
AcDbEntity
  8
0
100
AcDbLine
 10
246.449126233222
 20
130.8742111390592
 30
0.0
 11
244.449126233222
 21
130.1343591390592
 31
0.0
  0
ARC
  5
882
330
2
100
AcDbEntity
  8
0
100
AcDbCircle
 10
242.573363233222
 20
129.4404731390592
 30
0.0
 40
2.0
100
AcDbArc
 50
0.0
 51
40.60129500000027
  0
ARC
  5
883
330
2
100
AcDbEntity
  8
0
100
AcDbCircle
 10
244.573363233222
 20
130.1803181390592
 30
0.0
 40
2.0
100
AcDbArc
 50
0.0
 51
40.60129500000027
  0
LINE
  5
884
330
2
100
AcDbEntity
  8
0
100
AcDbLine
 10
246.573363233222
 20
130.1803181390592
 30
0.0
 11
246.573363233222
 21
128.3154041390592
 31
0.0
  0
LINE
  5
885
330
2
100
AcDbEntity
  8
0
100
AcDbLine
 10
244.573363233222
 20
129.4404731390592
 30
0.0
 11
244.573363233222
 21
128.9453251390592
 31
0.0
  0
ARC
  5
886
330
2
100
AcDbEntity
  8
0
100
AcDbCircle
 10
296.172698233222
 20
130.6803181390592
 30
0.0
 40
10.0
100
AcDbArc
 50
270.0
 51
292.3316419999995
  0
ARC
  5
888
330
2
100
AcDbEntity
  8
0
100
AcDbCircle
 10
288.573363233222
 20
149.1803181390592
 30
0.0
 40
30.0
100
AcDbArc
 50
292.3316419999995
 51
300.3583029999994
  0
ARC
  5
889
330
2
100
AcDbEntity
  8
0
100
AcDbCircle
 10
298.573363233222
 20
128.9453251390592
 30
0.0
 40
2.0
100
AcDbArc
 50
290.4873119999995
 51
0.0
  0
ARC
  5
88A
330
2
100
AcDbEntity
  8
0
100
AcDbCircle
 10
296.573363233222
 20
128.3154041390592
 30
0.0
 40
2.0
100
AcDbArc
 50
284.4775089999994
 51
0.0
  0
ARC
  5
88B
330
2
100
AcDbEntity
  8
0
100
AcDbCircle
 10
291.573363233222
 20
147.6803181390592
 30
0.0
 40
22.0
100
AcDbArc
 50
270.0
 51
290.4873049999995
  0
LINE
  5
88C
330
2
100
AcDbEntity
  8
0
100
AcDbLine
 10
298.697600233222
 20
130.8742111390592
 30
0.0
 11
300.697600233222
 21
130.1343591390592
 31
0.0
  0
ARC
  5
88D
330
2
100
AcDbEntity
  8
0
100
AcDbCircle
 10
302.573363233222
 20
129.4404731390592
 30
0.0
 40
2.0
100
AcDbArc
 50
139.398712
 51
180.0
  0
ARC
  5
88E
330
2
100
AcDbEntity
  8
0
100
AcDbCircle
 10
300.573363233222
 20
130.1803181390592
 30
0.0
 40
2.0
100
AcDbArc
 50
139.398712
 51
180.0
  0
LINE
  5
88F
330
2
100
AcDbEntity
  8
0
100
AcDbLine
 10
298.573363233222
 20
130.1803181390592
 30
0.0
 11
298.573363233222
 21
128.3154041390592
 31
0.0
  0
LINE
  5
890
330
2
100
AcDbEntity
  8
0
100
AcDbLine
 10
300.573363233222
 20
129.4404731390592
 30
0.0
 11
300.573363233222
 21
128.9453251390592
 31
0.0
  0
ARC
  5
891
330
2
100
AcDbEntity
  8
0
100
AcDbCircle
 10
306.767974233222
 20
118.1165741390592
 30
0.0
 40
6.0
100
AcDbArc
 50
47.3640670000003
 51
120.358299
  0
LINE
  5
892
330
2
100
AcDbEntity
  8
0
100
AcDbLine
 10
231.573363233222
 20
174.6803181390592
 30
0.0
 11
231.573363233222
 21
147.6803181390592
 31
0.0
  0
LINE
  5
893
330
2
100
AcDbEntity
  8
0
100
AcDbLine
 10
226.573363233222
 20
150.5087481390592
 30
0.0
 11
226.573363233222
 21
171.8518881390592
 31
0.0
  0
LINE
  5
894
330
2
100
AcDbEntity
  8
0
100
AcDbLine
 10
222.073363233222
 20
186.8707781390592
 30
0.0
 11
222.073363233222
 21
135.4898501390592
 31
0.0
  0
ARC
  5
895
330
2
100
AcDbEntity
  8
0
100
AcDbCircle
 10
224.573363233222
 20
144.1803181390592
 30
0.0
 40
2.0
100
AcDbArc
 50
180.0
 51
270.0
  0
LINE
  5
897
330
2
100
AcDbEntity
  8
0
100
AcDbLine
 10
225.987578233222
 20
149.0945331390592
 30
0.0
 11
223.159148233222
 21
146.2661031390592
 31
0.0
  0
LINE
  5
898
330
2
100
AcDbEntity
  8
0
100
AcDbLine
 10
222.073363233222
 20
135.4898501390592
 30
0.0
 11
222.573363233222
 21
135.4898501390592
 31
0.0
  0
ARC
  5
899
330
2
100
AcDbEntity
  8
0
100
AcDbCircle
 10
224.573363233222
 20
144.8518881390592
 30
0.0
 40
2.0
100
AcDbArc
 50
134.9999999999994
 51
180.0
  0
ARC
  5
89A
330
2
100
AcDbEntity
  8
0
100
AcDbCircle
 10
234.208449233222
 20
142.6803181390592
 30
0.0
 40
2.0
100
AcDbArc
 50
194.4775090000004
 51
270.0
  0
LINE
  5
89B
330
2
100
AcDbEntity
  8
0
100
AcDbLine
 10
236.409072233222
 20
142.4973501390592
 30
0.0
 11
235.489211233222
 21
140.4973501390592
 31
0.0
  0
LINE
  5
89C
330
2
100
AcDbEntity
  8
0
100
AcDbLine
 10
227.073363233222
 20
135.8803301390592
 30
0.0
 11
228.573363233222
 21
136.7463581390592
 31
0.0
  0
LINE
  5
89D
330
2
100
AcDbEntity
  8
0
100
AcDbLine
 10
228.573363233222
 20
138.6143081390592
 30
0.0
 11
228.573363233222
 21
136.7463581390592
 31
0.0
  0
LINE
  5
89E
330
2
100
AcDbEntity
  8
0
100
AcDbLine
 10
227.073363233222
 20
139.4803361390592
 30
0.0
 11
228.573363233222
 21
138.6143081390592
 31
0.0
  0
LINE
  5
89F
330
2
100
AcDbEntity
  8
0
100
AcDbLine
 10
227.073363233222
 20
139.4803361390592
 30
0.0
 11
225.573363233222
 21
138.6143081390592
 31
0.0
  0
LINE
  5
8A0
330
2
100
AcDbEntity
  8
0
100
AcDbLine
 10
225.573363233222
 20
138.6143081390592
 30
0.0
 11
225.573363233222
 21
136.7463581390592
 31
0.0
  0
LINE
  5
8A1
330
2
100
AcDbEntity
  8
0
100
AcDbLine
 10
227.073363233222
 20
135.8803301390592
 30
0.0
 11
225.573363233222
 21
136.7463581390592
 31
0.0
  0
LINE
  5
8A2
330
2
100
AcDbEntity
  8
0
100
AcDbLine
 10
234.653487233222
 20
140.6803181390592
 30
0.0
 11
234.208449233222
 21
140.6803181390592
 31
0.0
  0
ARC
  5
8A3
330
2
100
AcDbEntity
  8
0
100
AcDbCircle
 10
234.653487233222
 20
138.6803181390592
 30
0.0
 40
2.0
100
AcDbArc
 50
40.60129500000027
 51
90.0
  0
ARC
  5
8A4
330
2
100
AcDbEntity
  8
0
100
AcDbCircle
 10
233.799636233222
 20
144.6803181390592
 30
0.0
 40
2.0
100
AcDbArc
 50
188.626923
 51
270.0
  0
LINE
  5
8A5
330
2
100
AcDbEntity
  8
0
100
AcDbLine
 10
224.573363233222
 20
142.1803181390592
 30
0.0
 11
227.073363233222
 21
142.1803181390592
 31
0.0
  0
ARC
  5
8A6
330
2
100
AcDbEntity
  8
0
100
AcDbCircle
 10
253.573363233222
 20
147.6803181390592
 30
0.0
 40
22.0
100
AcDbArc
 50
180.0
 51
194.4775090000004
  0
LINE
  5
8A7
330
2
100
AcDbEntity
  8
0
100
AcDbLine
 10
235.573363233222
 20
142.6803181390592
 30
0.0
 11
233.799636233222
 21
142.6803181390592
 31
0.0
  0
ARC
  5
8A8
330
2
100
AcDbEntity
  8
0
100
AcDbCircle
 10
235.573363233222
 20
140.6803181390592
 30
0.0
 40
2.0
100
AcDbArc
 50
40.60129500000027
 51
90.0
  0
ARC
  5
8A9
330
2
100
AcDbEntity
  8
0
100
AcDbCircle
 10
224.573363233222
 20
150.5087481390592
 30
0.0
 40
2.0
100
AcDbArc
 50
314.9999999999994
 51
0.0
  0
ARC
  5
8AB
330
2
100
AcDbEntity
  8
0
100
AcDbCircle
 10
224.573363233222
 20
178.1803181390592
 30
0.0
 40
2.0
100
AcDbArc
 50
90.0
 51
180.0
  0
CIRCLE
  5
8AC
330
2
100
AcDbEntity
  8
0
100
AcDbCircle
 10
227.073363233222
 20
184.6803181390592
 30
0.0
 40
3.5
  0
CIRCLE
  5
8AD
330
2
100
AcDbEntity
  8
0
100
AcDbCircle
 10
227.073363233222
 20
184.6803181390592
 30
0.0
 40
3.799999999999999
  0
LINE
  5
8AE
330
2
100
AcDbEntity
  8
0
100
AcDbLine
 10
225.987578233222
 20
173.2661031390592
 30
0.0
 11
223.159148233222
 21
176.0945331390592
 31
0.0
  0
ARC
  5
8AF
330
2
100
AcDbEntity
  8
0
100
AcDbCircle
 10
224.573363233222
 20
177.5087481390592
 30
0.0
 40
2.0
100
AcDbArc
 50
180.0
 51
225.0000000000006
  0
LINE
  5
8B0
330
2
100
AcDbEntity
  8
0
100
AcDbLine
 10
222.073363233222
 20
186.8707781390592
 30
0.0
 11
222.573363233222
 21
186.8707781390592
 31
0.0
  0
ARC
  5
8B1
330
2
100
AcDbEntity
  8
0
100
AcDbCircle
 10
253.573363233222
 20
174.6803181390592
 30
0.0
 40
22.0
100
AcDbArc
 50
165.5224909999995
 51
180.0
  0
ARC
  5
8B2
330
2
100
AcDbEntity
  8
0
100
AcDbCircle
 10
224.573363233222
 20
171.8518881390592
 30
0.0
 40
2.0
100
AcDbArc
 50
0.0
 51
45.00000000000057
  0
LINE
  5
8B3
330
2
100
AcDbEntity
  8
0
100
AcDbLine
 10
237.091872233222
 20
180.3787281390592
 30
0.0
 11
246.091872233222
 21
190.8787281390592
 31
0.0
  0
ARC
  5
8B5
330
2
100
AcDbEntity
  8
0
100
AcDbCircle
 10
227.073363233222
 20
184.6803181390592
 30
0.0
 40
4.5
100
AcDbArc
 50
270.0
 51
90.0
  0
LINE
  5
8B6
330
2
100
AcDbEntity
  8
0
100
AcDbLine
 10
225.573363233222
 20
183.7463281390592
 30
0.0
 11
225.573363233222
 21
185.6142781390592
 31
0.0
  0
LINE
  5
8B7
330
2
100
AcDbEntity
  8
0
100
AcDbLine
 10
228.573363233222
 20
183.7463281390592
 30
0.0
 11
228.573363233222
 21
185.6142781390592
 31
0.0
  0
ARC
  5
8B8
330
2
100
AcDbEntity
  8
0
100
AcDbCircle
 10
234.208449233222
 20
179.6803181390592
 30
0.0
 40
2.0
100
AcDbArc
 50
90.0
 51
165.5224909999995
  0
ARC
  5
8B9
330
2
100
AcDbEntity
  8
0
100
AcDbCircle
 10
233.799636233222
 20
177.6803181390592
 30
0.0
 40
2.0
100
AcDbArc
 50
90.0
 51
171.3730769999999
  0
LINE
  5
8BA
330
2
100
AcDbEntity
  8
0
100
AcDbLine
 10
224.573363233222
 20
180.1803181390592
 30
0.0
 11
227.073363233222
 21
180.1803181390592
 31
0.0
  0
LINE
  5
8BB
330
2
100
AcDbEntity
  8
0
100
AcDbLine
 10
227.073363233222
 20
182.8803001390592
 30
0.0
 11
228.573363233222
 21
183.7463281390592
 31
0.0
  0
LINE
  5
8BC
330
2
100
AcDbEntity
  8
0
100
AcDbLine
 10
227.073363233222
 20
182.8803001390592
 30
0.0
 11
225.573363233222
 21
183.7463281390592
 31
0.0
  0
LINE
  5
8BD
330
2
100
AcDbEntity
  8
0
100
AcDbLine
 10
234.653487233222
 20
181.6803181390592
 30
0.0
 11
234.208449233222
 21
181.6803181390592
 31
0.0
  0
LINE
  5
8BE
330
2
100
AcDbEntity
  8
0
100
AcDbLine
 10
235.573363233222
 20
179.6803181390592
 30
0.0
 11
233.799636233222
 21
179.6803181390592
 31
0.0
  0
LINE
  5
8BF
330
2
100
AcDbEntity
  8
0
100
AcDbLine
 10
236.409072233222
 20
179.8632861390592
 30
0.0
 11
235.489211233222
 21
181.8632861390592
 31
0.0
  0
ARC
  5
8C0
330
2
100
AcDbEntity
  8
0
100
AcDbCircle
 10
235.573363233222
 20
181.6803181390592
 30
0.0
 40
2.0
100
AcDbArc
 50
270.0
 51
319.3987049999997
  0
ARC
  5
8C1
330
2
100
AcDbEntity
  8
0
100
AcDbCircle
 10
234.653487233222
 20
183.6803181390592
 30
0.0
 40
2.0
100
AcDbArc
 50
270.0
 51
319.3987049999997
  0
LINE
  5
8C2
330
2
100
AcDbEntity
  8
0
100
AcDbLine
 10
224.573363233222
 20
189.1803181390592
 30
0.0
 11
227.073363233222
 21
189.1803181390592
 31
0.0
  0
LINE
  5
8C3
330
2
100
AcDbEntity
  8
0
100
AcDbLine
 10
227.073363233222
 20
186.4803061390592
 30
0.0
 11
225.573363233222
 21
185.6142781390592
 31
0.0
  0
LINE
  5
8C4
330
2
100
AcDbEntity
  8
0
100
AcDbLine
 10
227.073363233222
 20
186.4803061390592
 30
0.0
 11
228.573363233222
 21
185.6142781390592
 31
0.0
  0
ARC
  5
8C5
330
2
100
AcDbEntity
  8
0
100
AcDbCircle
 10
283.573363233222
 20
161.1803181390592
 30
0.0
 40
6.0
100
AcDbArc
 50
109.4712219999995
 51
70.52877800000044
  0
CIRCLE
  5
8C6
330
2
100
AcDbEntity
  8
0
100
AcDbCircle
 10
283.573363233222
 20
161.1803181390592
 30
0.0
 40
10.0
  0
CIRCLE
  5
8C7
330
2
100
AcDbEntity
  8
0
100
AcDbCircle
 10
283.573363233222
 20
161.1803181390592
 30
0.0
 40
25.002001
  0
CIRCLE
  5
8C8
330
2
100
AcDbEntity
  8
0
100
AcDbCircle
 10
283.573363233222
 20
161.1803181390592
 30
0.0
 40
23.0
  0
CIRCLE
  5
8C9
330
2
100
AcDbEntity
  8
0
100
AcDbCircle
 10
283.573363233222
 20
161.1803181390592
 30
0.0
 40
16.0
  0
CIRCLE
  5
8CA
330
2
100
AcDbEntity
  8
0
100
AcDbCircle
 10
283.573363233222
 20
161.1803181390592
 30
0.0
 40
19.5
  0
LINE
  5
8CB
330
2
100
AcDbEntity
  8
0
100
AcDbLine
 10
313.573363233222
 20
174.6803181390592
 30
0.0
 11
313.573363233222
 21
147.6803181390592
 31
0.0
  0
ARC
  5
8CC
330
2
100
AcDbEntity
  8
0
100
AcDbCircle
 10
310.938292233222
 20
142.6803181390592
 30
0.0
 40
2.0
100
AcDbArc
 50
270.0
 51
345.5224909999996
  0
LINE
  5
8CD
330
2
100
AcDbEntity
  8
0
100
AcDbLine
 10
308.737639233222
 20
142.4973501390592
 30
0.0
 11
309.657530233222
 21
140.4973501390592
 31
0.0
  0
ARC
  5
8CE
330
2
100
AcDbEntity
  8
0
100
AcDbCircle
 10
310.493224233222
 20
138.6803181390592
 30
0.0
 40
2.0
100
AcDbArc
 50
90.0
 51
139.398712
  0
LINE
  5
8CF
330
2
100
AcDbEntity
  8
0
100
AcDbLine
 10
318.073363233222
 20
139.4803361390592
 30
0.0
 11
316.573363233222
 21
138.6143081390592
 31
0.0
  0
LINE
  5
8D0
330
2
100
AcDbEntity
  8
0
100
AcDbLine
 10
318.073363233222
 20
135.8803301390592
 30
0.0
 11
316.573363233222
 21
136.7463581390592
 31
0.0
  0
LINE
  5
8D1
330
2
100
AcDbEntity
  8
0
100
AcDbLine
 10
316.573363233222
 20
138.6143081390592
 30
0.0
 11
316.573363233222
 21
136.7463581390592
 31
0.0
  0
LINE
  5
8D2
330
2
100
AcDbEntity
  8
0
100
AcDbLine
 10
310.493224233222
 20
140.6803181390592
 30
0.0
 11
310.938292233222
 21
140.6803181390592
 31
0.0
  0
LINE
  5
8D3
330
2
100
AcDbEntity
  8
0
100
AcDbLine
 10
309.573363233222
 20
142.6803181390592
 30
0.0
 11
311.347075233222
 21
142.6803181390592
 31
0.0
  0
ARC
  5
8D4
330
2
100
AcDbEntity
  8
0
100
AcDbCircle
 10
309.573363233222
 20
140.6803181390592
 30
0.0
 40
2.0
100
AcDbArc
 50
90.0
 51
139.398712
  0
ARC
  5
8D5
330
2
100
AcDbEntity
  8
0
100
AcDbCircle
 10
291.573363233222
 20
147.6803181390592
 30
0.0
 40
22.0
100
AcDbArc
 50
345.5224880000002
 51
0.0
  0
ARC
  5
8D6
330
2
100
AcDbEntity
  8
0
100
AcDbCircle
 10
311.347075233222
 20
144.6803181390592
 30
0.0
 40
2.0
100
AcDbArc
 50
270.0
 51
351.373077
  0
LINE
  5
8D7
330
2
100
AcDbEntity
  8
0
100
AcDbLine
 10
285.573363233222
 20
168.9803211390592
 30
0.0
 11
285.573363233222
 21
166.8371781390592
 31
0.0
  0
LINE
  5
8D8
330
2
100
AcDbEntity
  8
0
100
AcDbLine
 10
281.573363233222
 20
168.9803211390592
 30
0.0
 11
281.573363233222
 21
166.8371781390592
 31
0.0
  0
LINE
  5
8D9
330
2
100
AcDbEntity
  8
0
100
AcDbLine
 10
281.573363233222
 20
168.9803211390592
 30
0.0
 11
285.573363233222
 21
168.9803211390592
 31
0.0
  0
ARC
  5
8DA
330
2
100
AcDbEntity
  8
0
100
AcDbCircle
 10
291.573363233222
 20
174.6803181390592
 30
0.0
 40
22.0
100
AcDbArc
 50
0.0
 51
14.47751199999975
  0
LINE
  5
8DB
330
2
100
AcDbEntity
  8
0
100
AcDbLine
 10
308.054839233222
 20
180.3787281390592
 30
0.0
 11
299.054854233222
 21
190.8787281390592
 31
0.0
  0
ARC
  5
8DC
330
2
100
AcDbEntity
  8
0
100
AcDbCircle
 10
318.073363233222
 20
184.6803181390592
 30
0.0
 40
4.5
100
AcDbArc
 50
90.0
 51
270.0
  0
LINE
  5
8DE
330
2
100
AcDbEntity
  8
0
100
AcDbLine
 10
316.573363233222
 20
183.7463281390592
 30
0.0
 11
316.573363233222
 21
185.6142781390592
 31
0.0
  0
LINE
  5
8DF
330
2
100
AcDbEntity
  8
0
100
AcDbLine
 10
309.573363233222
 20
179.6803181390592
 30
0.0
 11
311.347075233222
 21
179.6803181390592
 31
0.0
  0
ARC
  5
8E0
330
2
100
AcDbEntity
  8
0
100
AcDbCircle
 10
310.493224233222
 20
183.6803181390592
 30
0.0
 40
2.0
100
AcDbArc
 50
220.601288
 51
270.0
  0
LINE
  5
8E1
330
2
100
AcDbEntity
  8
0
100
AcDbLine
 10
308.737639233222
 20
179.8632861390592
 30
0.0
 11
309.657530233222
 21
181.8632861390592
 31
0.0
  0
ARC
  5
8E2
330
2
100
AcDbEntity
  8
0
100
AcDbCircle
 10
309.573363233222
 20
181.6803181390592
 30
0.0
 40
2.0
100
AcDbArc
 50
220.601288
 51
270.0
  0
LINE
  5
8E3
330
2
100
AcDbEntity
  8
0
100
AcDbLine
 10
318.073363233222
 20
182.8803001390592
 30
0.0
 11
316.573363233222
 21
183.7463281390592
 31
0.0
  0
ARC
  5
8E4
330
2
100
AcDbEntity
  8
0
100
AcDbCircle
 10
310.938292233222
 20
179.6803181390592
 30
0.0
 40
2.0
100
AcDbArc
 50
14.47751199999975
 51
90.0
  0
ARC
  5
8E5
330
2
100
AcDbEntity
  8
0
100
AcDbCircle
 10
311.347075233222
 20
177.6803181390592
 30
0.0
 40
2.0
100
AcDbArc
 50
8.62692699999976
 51
90.0
  0
LINE
  5
8E6
330
2
100
AcDbEntity
  8
0
100
AcDbLine
 10
310.493224233222
 20
181.6803181390592
 30
0.0
 11
310.938292233222
 21
181.6803181390592
 31
0.0
  0
LINE
  5
8E7
330
2
100
AcDbEntity
  8
0
100
AcDbLine
 10
318.073363233222
 20
186.4803061390592
 30
0.0
 11
316.573363233222
 21
185.6142781390592
 31
0.0
  0
LINE
  5
8E8
330
2
100
AcDbEntity
  8
HIDS
100
AcDbLine
 10
417.6231709161595
 20
135.1803181390592
 30
0.0
 11
425.0201439161595
 21
127.7833451390592
 31
0.0
  0
ARC
  5
8E9
330
2
100
AcDbEntity
  8
HIDS
100
AcDbCircle
 10
414.0201439161595
 20
138.1803181390592
 30
0.0
 40
3.0
100
AcDbArc
 50
180.0
 51
270.0
  0
ARC
  5
8EF
330
2
100
AcDbEntity
  8
HIDS
100
AcDbCircle
 10
451.0201439161595
 20
161.1803181390592
 30
0.0
 40
38.0
100
AcDbArc
 50
129.3567049999994
 51
230.6432950000005
  0
ARC
  5
8F0
330
2
100
AcDbEntity
  8
0
100
AcDbCircle
 10
320.573363233222
 20
131.1803181390592
 30
0.0
 40
2.0
100
AcDbArc
 50
0.0
 51
90.0
  0
ARC
  5
8FC
330
2
100
AcDbEntity
  8
HIDS
100
AcDbCircle
 10
428.0201439161595
 20
124.1803181390592
 30
0.0
 40
3.0
100
AcDbArc
 50
180.0
 51
270.0
  0
LINE
  5
900
330
2
100
AcDbEntity
  8
HIDS
100
AcDbLine
 10
428.0201439161595
 20
125.5471771390592
 30
0.0
 11
428.0201439161595
 21
129.4785821390592
 31
0.0
  0
LINE
  5
901
330
2
100
AcDbEntity
  8
HIDS
100
AcDbLine
 10
425.0201439161595
 20
124.1803181390592
 30
0.0
 11
425.0201439161595
 21
127.7833451390592
 31
0.0
  0
ARC
  5
902
330
2
100
AcDbEntity
  8
HIDS
100
AcDbCircle
 10
430.0201439161595
 20
125.5471771390592
 30
0.0
 40
2.0
100
AcDbArc
 50
180.0
 51
268.9999999999998
  0
ARC
  5
904
330
2
100
AcDbEntity
  8
HIDS
100
AcDbCircle
 10
425.0201439161595
 20
129.4785821390592
 30
0.0
 40
3.0
100
AcDbArc
 50
0.0
 51
50.64329900000029
  0
LINE
  5
90B
330
2
100
AcDbEntity
  8
0
100
AcDbLine
 10
318.573363233222
 20
150.5087481390592
 30
0.0
 11
318.573363233222
 21
171.8518881390592
 31
0.0
  0
LINE
  5
90C
330
2
100
AcDbEntity
  8
0
100
AcDbLine
 10
319.159148233222
 20
149.0945331390592
 30
0.0
 11
321.987578233222
 21
146.2661031390592
 31
0.0
  0
ARC
  5
90D
330
2
100
AcDbEntity
  8
0
100
AcDbCircle
 10
320.573363233222
 20
144.1803181390592
 30
0.0
 40
2.0
100
AcDbArc
 50
270.0
 51
0.0
  0
LINE
  5
90E
330
2
100
AcDbEntity
  8
0
100
AcDbLine
 10
319.573363233222
 20
138.6143081390592
 30
0.0
 11
319.573363233222
 21
136.7463581390592
 31
0.0
  0
ARC
  5
90F
330
2
100
AcDbEntity
  8
0
100
AcDbCircle
 10
320.573363233222
 20
144.8518881390592
 30
0.0
 40
2.0
100
AcDbArc
 50
0.0
 51
45.00000000000057
  0
ARC
  5
910
330
2
100
AcDbEntity
  8
0
100
AcDbCircle
 10
320.573363233222
 20
150.5087481390592
 30
0.0
 40
2.0
100
AcDbArc
 50
180.0
 51
225.0000000000006
  0
ARC
  5
911
330
2
100
AcDbEntity
  8
0
100
AcDbCircle
 10
320.573363233222
 20
177.5087481390592
 30
0.0
 40
2.0
100
AcDbArc
 50
314.9999999999994
 51
0.0
  0
ARC
  5
912
330
2
100
AcDbEntity
  8
0
100
AcDbCircle
 10
320.573363233222
 20
171.8518881390592
 30
0.0
 40
2.0
100
AcDbArc
 50
134.9999999999994
 51
180.0
  0
LINE
  5
913
330
2
100
AcDbEntity
  8
0
100
AcDbLine
 10
319.159148233222
 20
173.2661031390592
 30
0.0
 11
321.987578233222
 21
176.0945331390592
 31
0.0
  0
LINE
  5
914
330
2
100
AcDbEntity
  8
0
100
AcDbLine
 10
319.573363233222
 20
183.7463281390592
 30
0.0
 11
319.573363233222
 21
185.6142781390592
 31
0.0
  0
ARC
  5
915
330
2
100
AcDbEntity
  8
0
100
AcDbCircle
 10
320.573363233222
 20
178.1803181390592
 30
0.0
 40
2.0
100
AcDbArc
 50
0.0
 51
90.0
  0
LINE
  5
916
330
2
100
AcDbEntity
  8
HIDS
100
AcDbLine
 10
411.0201439161595
 20
138.1803181390592
 30
0.0
 11
411.0201439161595
 21
182.7488601390592
 31
0.0
  0
LINE
  5
929
330
2
100
AcDbEntity
  8
HIDS
100
AcDbLine
 10
414.0201439161595
 20
135.1803181390592
 30
0.0
 11
417.6231709161595
 21
135.1803181390592
 31
0.0
  0
ARC
  5
952
330
2
100
AcDbEntity
  8
HIDS
100
AcDbCircle
 10
416.0201439161595
 20
182.7488601390592
 30
0.0
 40
5.0
100
AcDbArc
 50
134.9999999999994
 51
180.0
  0
LINE
  5
981
330
2
100
AcDbEntity
  8
0
100
AcDbLine
 10
149.517859233222
 20
191.4292801390592
 30
0.0
 11
222.573363233222
 21
191.4292801390592
 31
0.0
  0
LINE
  5
982
330
2
100
AcDbEntity
  8
0
100
AcDbLine
 10
149.517859233222
 20
199.1803181390592
 30
0.0
 11
221.214614233222
 21
199.1803181390592
 31
0.0
  0
LINE
  5
983
330
2
100
AcDbEntity
  8
0
100
AcDbLine
 10
96.01787123322203
 20
201.1803181390592
 30
0.0
 11
140.017859233222
 21
201.1803181390592
 31
0.0
  0
ARC
  5
984
330
2
100
AcDbEntity
  8
0
100
AcDbCircle
 10
96.01787123322203
 20
196.1803181390592
 30
0.0
 40
5.0
100
AcDbArc
 50
90.0
 51
180.0
  0
LINE
  5
989
330
2
100
AcDbEntity
  8
0
100
AcDbLine
 10
140.017859233222
 20
191.4293111390592
 30
0.0
 11
149.517859233222
 21
191.4293111390592
 31
0.0
  0
LINE
  5
98A
330
2
100
AcDbEntity
  8
0
100
AcDbLine
 10
140.017859233222
 20
199.1803181390592
 30
0.0
 11
149.517859233222
 21
199.1803181390592
 31
0.0
  0
CIRCLE
  5
991
330
2
100
AcDbEntity
  8
0
100
AcDbCircle
 10
315.573363233222
 20
194.6803181390592
 30
0.0
 40
3.399999999999999
  0
ARC
  5
992
330
2
100
AcDbEntity
  8
0
100
AcDbCircle
 10
315.573363233222
 20
194.6803181390592
 30
0.0
 40
7.0
100
AcDbArc
 50
0.0
 51
132.6359250000002
  0
LINE
  5
994
330
2
100
AcDbEntity
  8
0
100
AcDbLine
 10
291.573363233222
 20
196.6803181390592
 30
0.0
 11
253.573363233222
 21
196.6803181390592
 31
0.0
  0
LINE
  5
995
330
2
100
AcDbEntity
  8
0
100
AcDbLine
 10
229.573363233222
 20
201.6803181390592
 30
0.0
 11
315.573363233222
 21
201.6803181390592
 31
0.0
  0
LINE
  5
996
330
2
100
AcDbEntity
  8
0
100
AcDbLine
 10
221.909743233222
 20
199.3050131390592
 30
0.0
 11
227.140380233222
 21
201.2439011390592
 31
0.0
  0
ARC
  5
997
330
2
100
AcDbEntity
  8
0
100
AcDbCircle
 10
229.573363233222
 20
194.6803181390592
 30
0.0
 40
7.0
100
AcDbArc
 50
47.3640670000003
 51
180.0
  0
ARC
  5
999
330
2
100
AcDbEntity
  8
0
100
AcDbCircle
 10
221.214614233222
 20
201.1803181390592
 30
0.0
 40
2.0
100
AcDbArc
 50
270.0
 51
290.3387299999999
  0
ARC
  5
99A
330
2
100
AcDbEntity
  8
0
100
AcDbCircle
 10
238.378752233222
 20
204.2440541390592
 30
0.0
 40
6.0
100
AcDbArc
 50
227.3640749999997
 51
300.3583029999994
  0
CIRCLE
  5
99B
330
2
100
AcDbEntity
  8
0
100
AcDbCircle
 10
229.573363233222
 20
194.6803181390592
 30
0.0
 40
3.399999999999999
  0
ARC
  5
99C
330
2
100
AcDbEntity
  8
0
100
AcDbCircle
 10
248.573363233222
 20
194.0452321390592
 30
0.0
 40
2.0
100
AcDbArc
 50
104.4775089999994
 51
180.0
  0
ARC
  5
99D
330
2
100
AcDbEntity
  8
0
100
AcDbCircle
 10
253.573363233222
 20
174.6803181390592
 30
0.0
 40
22.0
100
AcDbArc
 50
90.0
 51
110.4873119999995
  0
ARC
  5
99E
330
2
100
AcDbEntity
  8
0
100
AcDbCircle
 10
246.573363233222
 20
193.4153191390592
 30
0.0
 40
2.0
100
AcDbArc
 50
110.4873119999995
 51
180.0
  0
LINE
  5
99F
330
2
100
AcDbEntity
  8
0
100
AcDbLine
 10
246.449126233222
 20
191.4864251390592
 30
0.0
 11
244.449126233222
 21
192.2262771390592
 31
0.0
  0
ARC
  5
9A0
330
2
100
AcDbEntity
  8
0
100
AcDbCircle
 10
242.573363233222
 20
192.9201711390592
 30
0.0
 40
2.0
100
AcDbArc
 50
319.3987049999997
 51
0.0
  0
LINE
  5
9A1
330
2
100
AcDbEntity
  8
0
100
AcDbLine
 10
246.573363233222
 20
192.1803181390592
 30
0.0
 11
246.573363233222
 21
194.0452321390592
 31
0.0
  0
LINE
  5
9A2
330
2
100
AcDbEntity
  8
0
100
AcDbLine
 10
244.573363233222
 20
192.9201711390592
 30
0.0
 11
244.573363233222
 21
193.4153191390592
 31
0.0
  0
ARC
  5
9A3
330
2
100
AcDbEntity
  8
0
100
AcDbCircle
 10
248.974028233222
 20
191.6803181390592
 30
0.0
 40
10.0
100
AcDbArc
 50
90.0
 51
112.3316419999994
  0
ARC
  5
9A4
330
2
100
AcDbEntity
  8
0
100
AcDbCircle
 10
256.573363233222
 20
173.1803181390592
 30
0.0
 40
30.0
100
AcDbArc
 50
112.3316419999994
 51
120.358299
  0
ARC
  5
9A5
330
2
100
AcDbEntity
  8
0
100
AcDbCircle
 10
288.573363233222
 20
173.1803181390592
 30
0.0
 40
30.0
100
AcDbArc
 50
59.64169700000056
 51
67.66835800000055
  0
ARC
  5
9A6
330
2
100
AcDbEntity
  8
0
100
AcDbCircle
 10
291.573363233222
 20
174.6803181390592
 30
0.0
 40
22.0
100
AcDbArc
 50
69.51268799999965
 51
90.0
  0
ARC
  5
9A7
330
2
100
AcDbEntity
  8
0
100
AcDbCircle
 10
298.573363233222
 20
193.4153191390592
 30
0.0
 40
2.0
100
AcDbArc
 50
0.0
 51
69.51268799999965
  0
ARC
  5
9A8
330
2
100
AcDbEntity
  8
0
100
AcDbCircle
 10
296.573363233222
 20
194.0452321390592
 30
0.0
 40
2.0
100
AcDbArc
 50
0.0
 51
75.52249100000058
  0
LINE
  5
9A9
330
2
100
AcDbEntity
  8
0
100
AcDbLine
 10
298.697600233222
 20
191.4864251390592
 30
0.0
 11
300.697600233222
 21
192.2262771390592
 31
0.0
  0
ARC
  5
9AA
330
2
100
AcDbEntity
  8
0
100
AcDbCircle
 10
302.573363233222
 20
192.9201711390592
 30
0.0
 40
2.0
100
AcDbArc
 50
180.0
 51
220.601288
  0
LINE
  5
9AB
330
2
100
AcDbEntity
  8
0
100
AcDbLine
 10
298.573363233222
 20
192.1803181390592
 30
0.0
 11
298.573363233222
 21
194.0452321390592
 31
0.0
  0
LINE
  5
9AC
330
2
100
AcDbEntity
  8
0
100
AcDbLine
 10
300.573363233222
 20
192.9201711390592
 30
0.0
 11
300.573363233222
 21
193.4153191390592
 31
0.0
  0
ARC
  5
9AD
330
2
100
AcDbEntity
  8
0
100
AcDbCircle
 10
296.172698233222
 20
191.6803181390592
 30
0.0
 40
10.0
100
AcDbArc
 50
67.66835800000055
 51
90.0
  0
ARC
  5
9AE
330
2
100
AcDbEntity
  8
0
100
AcDbCircle
 10
306.767974233222
 20
204.2440541390592
 30
0.0
 40
6.0
100
AcDbArc
 50
239.6417009999999
 51
312.6359329999997
  0
ARC
  5
9B1
330
2
100
AcDbEntity
  8
HIDS
100
AcDbCircle
 10
430.0201439161595
 20
196.8134511390592
 30
0.0
 40
2.0
100
AcDbArc
 50
91.00000000000013
 51
180.0
  0
LINE
  5
9B2
330
2
100
AcDbEntity
  8
HIDS
100
AcDbLine
 10
428.0201439161595
 20
196.8134511390592
 30
0.0
 11
428.0201439161595
 21
192.8820541390592
 31
0.0
  0
ARC
  5
9B3
330
2
100
AcDbEntity
  8
HIDS
100
AcDbCircle
 10
429.4516019161595
 20
196.1803181390592
 30
0.0
 40
5.0
100
AcDbArc
 50
90.0
 51
134.9999999999994
  0
CIRCLE
  5
9B4
330
2
100
AcDbEntity
  8
HOJO
100
AcDbCircle
 10
630.7222260744596
 20
194.6803181390592
 30
0.0
 40
4.0
  0
CIRCLE
  5
9B5
330
2
100
AcDbEntity
  8
HOJO
100
AcDbCircle
 10
716.7222260744596
 20
194.6803181390592
 30
0.0
 40
4.0
  0
LINE
  5
9B6
330
2
100
AcDbEntity
  8
HIDS
100
AcDbLine
 10
477.0201439161595
 20
194.5772911390592
 30
0.0
 11
484.4171169161596
 21
187.1803181390592
 31
0.0
  0
LINE
  5
9B7
330
2
100
AcDbEntity
  8
0
100
AcDbLine
 10
855.2777070744596
 20
196.1803181390592
 30
0.0
 11
855.2777070744596
 21
126.1803181390592
 31
0.0
  0
LINE
  5
9B8
330
2
100
AcDbEntity
  8
0
100
AcDbLine
 10
806.2777070744596
 20
121.1803181390592
 30
0.0
 11
806.2777070744596
 21
201.1803181390592
 31
0.0
  0
ARC
  5
9B9
330
2
100
AcDbEntity
  8
0
100
AcDbCircle
 10
701.7222260744595
 20
192.1803181390592
 30
0.0
 40
2.0
100
AcDbArc
 50
180.0
 51
220.6012879999999
  0
LINE
  5
9BA
330
2
100
AcDbEntity
  8
0
100
AcDbLine
 10
710.1235930744596
 20
182.3787281390592
 30
0.0
 11
702.2037320744596
 21
191.6185811390592
 31
0.0
  0
ARC
  5
9BB
330
2
100
AcDbEntity
  8
0
100
AcDbCircle
 10
645.7222260744596
 20
192.1803181390592
 30
0.0
 40
2.0
100
AcDbArc
 50
319.3987049999997
 51
0.0
  0
LINE
  5
9BC
330
2
100
AcDbEntity
  8
0
100
AcDbLine
 10
637.3208590744597
 20
182.3787281390592
 30
0.0
 11
645.2407200744596
 21
191.6185811390592
 31
0.0
  0
LINE
  5
9BE
330
2
100
AcDbEntity
  8
0
100
AcDbLine
 10
623.7222260744596
 20
127.6803181390592
 30
0.0
 11
623.7222260744596
 21
194.6803181390592
 31
0.0
  0
LINE
  5
9C0
330
2
100
AcDbEntity
  8
0
100
AcDbLine
 10
723.7222260744596
 20
194.6803181390592
 30
0.0
 11
723.7222260744596
 21
177.5087481390592
 31
0.0
  0
LINE
  5
9C1
330
2
100
AcDbEntity
  8
0
100
AcDbLine
 10
796.7777070744596
 20
199.1803181390592
 30
0.0
 11
796.7777070744596
 21
123.1803181390592
 31
0.0
  0
ARC
  5
9C4
330
2
100
AcDbEntity
  8
HIDS
100
AcDbCircle
 10
477.0201439161595
 20
192.8820541390592
 30
0.0
 40
3.0
100
AcDbArc
 50
180.0
 51
230.6432950000005
  0
ARC
  5
9C7
330
2
100
AcDbEntity
  8
0
100
AcDbCircle
 10
707.9168670744596
 20
118.1165741390592
 30
0.0
 40
6.0
100
AcDbArc
 50
47.3640670000003
 51
120.358299
  0
LINE
  5
9C8
330
2
100
AcDbEntity
  8
0
100
AcDbLine
 10
710.7222260744596
 20
142.6803181390592
 30
0.0
 11
712.4959690744596
 21
142.6803181390592
 31
0.0
  0
ARC
  5
9C9
330
2
100
AcDbEntity
  8
0
100
AcDbCircle
 10
711.6420870744597
 20
138.6803181390592
 30
0.0
 40
2.0
100
AcDbArc
 50
90.0
 51
139.398712
  0
LINE
  5
9CA
330
2
100
AcDbEntity
  8
0
100
AcDbLine
 10
710.7222260744596
 20
179.6803181390592
 30
0.0
 11
712.4959690744596
 21
179.6803181390592
 31
0.0
  0
ARC
  5
9CB
330
2
100
AcDbEntity
  8
0
100
AcDbCircle
 10
711.6420870744597
 20
183.6803181390592
 30
0.0
 40
2.0
100
AcDbArc
 50
220.6012879999999
 51
270.0
  0
LINE
  5
9CC
330
2
100
AcDbEntity
  8
0
100
AcDbLine
 10
716.7222260744596
 20
120.6803181390592
 30
0.0
 11
630.7222260744596
 21
120.6803181390592
 31
0.0
  0
LINE
  5
9CE
330
2
100
AcDbEntity
  8
CENTER
100
AcDbLine
 10
616.1814550744597
 20
161.1803181390592
 30
0.0
 11
863.7982370426938
 21
161.1803181390592
 31
0.0
  0
LINE
  5
9CF
330
2
100
AcDbEntity
  8
HIDS
100
AcDbLine
 10
489.5556659161595
 20
136.0762451390592
 30
0.0
 11
476.1242089161596
 21
122.6447801390592
 31
0.0
  0
ARC
  5
9D2
330
2
100
AcDbEntity
  8
HIDS
100
AcDbCircle
 10
451.0201439161595
 20
161.1803181390592
 30
0.0
 40
38.0
100
AcDbArc
 50
309.3567009999997
 51
50.64329900000029
  0
ARC
  5
9D7
330
2
100
AcDbEntity
  8
HIDS
100
AcDbCircle
 10
472.5886859161595
 20
126.1803181390592
 30
0.0
 40
5.0
100
AcDbArc
 50
270.0
 51
314.9999999999994
  0
LINE
  5
9D9
330
2
100
AcDbEntity
  8
HIDS
100
AcDbLine
 10
472.0550559161595
 20
123.5474831390592
 30
0.0
 11
451.0201439161595
 21
123.1803181390592
 31
0.0
  0
LINE
  5
9DD
330
2
100
AcDbEntity
  8
HIDS
100
AcDbLine
 10
474.0201439161595
 20
125.5471771390592
 30
0.0
 11
474.0201439161595
 21
129.4785821390592
 31
0.0
  0
ARC
  5
9DE
330
2
100
AcDbEntity
  8
HIDS
100
AcDbCircle
 10
472.0201439161595
 20
125.5471771390592
 30
0.0
 40
2.0
100
AcDbArc
 50
271.0000000000001
 51
0.0
  0
ARC
  5
9E2
330
2
100
AcDbEntity
  8
HIDS
100
AcDbCircle
 10
477.0201439161595
 20
129.4785821390592
 30
0.0
 40
3.0
100
AcDbArc
 50
129.3567049999994
 51
180.0
  0
LINE
  5
9E8
330
2
100
AcDbEntity
  8
HIDS
100
AcDbLine
 10
491.0201439161595
 20
184.1803181390592
 30
0.0
 11
491.0201439161595
 21
139.6117761390592
 31
0.0
  0
ARC
  5
A11
330
2
100
AcDbEntity
  8
HIDS
100
AcDbCircle
 10
486.0201439161595
 20
139.6117761390592
 30
0.0
 40
5.0
100
AcDbArc
 50
314.9999999999994
 51
0.0
  0
ARC
  5
A40
330
2
100
AcDbEntity
  8
HIDS
100
AcDbCircle
 10
488.0201439161595
 20
184.1803181390592
 30
0.0
 40
3.0
100
AcDbArc
 50
0.0
 51
90.0
  0
LINE
  5
A43
330
2
100
AcDbEntity
  8
HIDS
100
AcDbLine
 10
488.0201439161595
 20
187.1803181390592
 30
0.0
 11
484.4171169161596
 21
187.1803181390592
 31
0.0
  0
LINE
  5
A49
330
2
100
AcDbEntity
  8
0
100
AcDbLine
 10
709.2037320744595
 20
141.9819081390592
 30
0.0
 11
700.2037320744595
 21
131.4819001390592
 31
0.0
  0
LINE
  5
A4A
330
2
100
AcDbEntity
  8
0
100
AcDbLine
 10
710.1235930744596
 20
139.9819081390592
 30
0.0
 11
702.2037320744596
 21
130.7420551390592
 31
0.0
  0
LINE
  5
A4B
330
2
100
AcDbEntity
  8
0
100
AcDbLine
 10
638.2407200744596
 20
141.9819081390592
 30
0.0
 11
647.2407200744596
 21
131.4819001390592
 31
0.0
  0
LINE
  5
A4C
330
2
100
AcDbEntity
  8
0
100
AcDbLine
 10
637.3208590744597
 20
139.9819081390592
 30
0.0
 11
645.2407200744596
 21
130.7420551390592
 31
0.0
  0
ARC
  5
A4D
330
2
100
AcDbEntity
  8
0
100
AcDbCircle
 10
649.7222260744596
 20
128.3154041390592
 30
0.0
 40
2.0
100
AcDbArc
 50
180.0
 51
255.5224910000005
  0
ARC
  5
A4E
330
2
100
AcDbEntity
  8
0
100
AcDbCircle
 10
654.7222260744596
 20
147.6803181390592
 30
0.0
 40
22.0
100
AcDbArc
 50
249.5126879999996
 51
270.0
  0
ARC
  5
A4F
330
2
100
AcDbEntity
  8
0
100
AcDbCircle
 10
650.1228610744596
 20
130.6803181390592
 30
0.0
 40
10.0
100
AcDbArc
 50
247.6683499999999
 51
270.0
  0
ARC
  5
A50
330
2
100
AcDbEntity
  8
0
100
AcDbCircle
 10
630.7222260744596
 20
127.6803181390592
 30
0.0
 40
7.0
100
AcDbArc
 50
180.0
 51
312.6359250000002
  0
CIRCLE
  5
A52
330
2
100
AcDbEntity
  8
HOJO
100
AcDbCircle
 10
630.7222260744596
 20
127.6803181390592
 30
0.0
 40
4.0
  0
CIRCLE
  5
A53
330
2
100
AcDbEntity
  8
0
100
AcDbCircle
 10
630.7222260744596
 20
127.6803181390592
 30
0.0
 40
3.399999999999999
  0
ARC
  5
A55
330
2
100
AcDbEntity
  8
0
100
AcDbCircle
 10
647.7222260744596
 20
128.9453251390592
 30
0.0
 40
2.0
100
AcDbArc
 50
180.0
 51
249.5126799999996
  0
ARC
  5
A56
330
2
100
AcDbEntity
  8
0
100
AcDbCircle
 10
639.5275850744596
 20
118.1165741390592
 30
0.0
 40
6.0
100
AcDbArc
 50
59.64169700000056
 51
132.6359250000002
  0
ARC
  5
A57
330
2
100
AcDbEntity
  8
0
100
AcDbCircle
 10
657.7222260744596
 20
149.1803181390592
 30
0.0
 40
30.0
100
AcDbArc
 50
239.6416930000005
 51
247.6683499999999
  0
LINE
  5
A58
330
2
100
AcDbEntity
  8
0
100
AcDbLine
 10
647.5980190744595
 20
130.8742111390592
 30
0.0
 11
645.5980190744595
 21
130.1343591390592
 31
0.0
  0
ARC
  5
A59
330
2
100
AcDbEntity
  8
0
100
AcDbCircle
 10
643.7222260744596
 20
129.4404731390592
 30
0.0
 40
2.0
100
AcDbArc
 50
0.0
 51
40.60129500000027
  0
ARC
  5
A5A
330
2
100
AcDbEntity
  8
0
100
AcDbCircle
 10
645.7222260744596
 20
130.1803181390592
 30
0.0
 40
2.0
100
AcDbArc
 50
0.0
 51
40.60129500000027
  0
LINE
  5
A5B
330
2
100
AcDbEntity
  8
0
100
AcDbLine
 10
647.7222260744596
 20
130.1803181390592
 30
0.0
 11
647.7222260744596
 21
128.3154041390592
 31
0.0
  0
LINE
  5
A5C
330
2
100
AcDbEntity
  8
0
100
AcDbLine
 10
645.7222260744596
 20
129.4404731390592
 30
0.0
 11
645.7222260744596
 21
128.9453251390592
 31
0.0
  0
LINE
  5
A5D
330
2
100
AcDbEntity
  8
0
100
AcDbLine
 10
654.7222260744596
 20
125.6803181390592
 30
0.0
 11
692.7222260744596
 21
125.6803181390592
 31
0.0
  0
ARC
  5
A5E
330
2
100
AcDbEntity
  8
0
100
AcDbCircle
 10
697.3215910744596
 20
130.6803181390592
 30
0.0
 40
10.0
100
AcDbArc
 50
270.0
 51
292.3316350000003
  0
ARC
  5
A5F
330
2
100
AcDbEntity
  8
0
100
AcDbCircle
 10
692.7222260744596
 20
147.6803181390592
 30
0.0
 40
22.0
100
AcDbArc
 50
270.0
 51
290.4873049999995
  0
ARC
  5
A60
330
2
100
AcDbEntity
  8
0
100
AcDbCircle
 10
699.7222260744596
 20
128.9453251390592
 30
0.0
 40
2.0
100
AcDbArc
 50
290.4873119999995
 51
0.0
  0
ARC
  5
A61
330
2
100
AcDbEntity
  8
0
100
AcDbCircle
 10
697.7222260744596
 20
128.3154041390592
 30
0.0
 40
2.0
100
AcDbArc
 50
284.4775089999994
 51
0.0
  0
ARC
  5
A62
330
2
100
AcDbEntity
  8
0
100
AcDbCircle
 10
689.7222260744596
 20
149.1803181390592
 30
0.0
 40
30.0
100
AcDbArc
 50
292.3316350000003
 51
300.3583069999994
  0
LINE
  5
A63
330
2
100
AcDbEntity
  8
0
100
AcDbLine
 10
699.8464330744597
 20
130.8742111390592
 30
0.0
 11
701.8464330744596
 21
130.1343591390592
 31
0.0
  0
ARC
  5
A64
330
2
100
AcDbEntity
  8
0
100
AcDbCircle
 10
703.7222260744596
 20
129.4404731390592
 30
0.0
 40
2.0
100
AcDbArc
 50
139.398712
 51
180.0
  0
ARC
  5
A65
330
2
100
AcDbEntity
  8
0
100
AcDbCircle
 10
701.7222260744595
 20
130.1803181390592
 30
0.0
 40
2.0
100
AcDbArc
 50
139.398712
 51
180.0
  0
LINE
  5
A66
330
2
100
AcDbEntity
  8
0
100
AcDbLine
 10
699.7222260744596
 20
130.1803181390592
 30
0.0
 11
699.7222260744596
 21
128.3154041390592
 31
0.0
  0
LINE
  5
A67
330
2
100
AcDbEntity
  8
0
100
AcDbLine
 10
701.7222260744595
 20
129.4404731390592
 30
0.0
 11
701.7222260744595
 21
128.9453251390592
 31
0.0
  0
CIRCLE
  5
A68
330
2
100
AcDbEntity
  8
0
100
AcDbCircle
 10
662.7222260744596
 20
161.1803181390592
 30
0.0
 40
25.002001
  0
CIRCLE
  5
A69
330
2
100
AcDbEntity
  8
0
100
AcDbCircle
 10
662.7222260744596
 20
161.1803181390592
 30
0.0
 40
23.0
  0
CIRCLE
  5
A6A
330
2
100
AcDbEntity
  8
0
100
AcDbCircle
 10
662.7222260744596
 20
161.1803181390592
 30
0.0
 40
16.0
  0
CIRCLE
  5
A6B
330
2
100
AcDbEntity
  8
0
100
AcDbCircle
 10
662.7222260744596
 20
161.1803181390592
 30
0.0
 40
19.5
  0
LINE
  5
A6C
330
2
100
AcDbEntity
  8
0
100
AcDbLine
 10
632.7222260744596
 20
174.6803181390592
 30
0.0
 11
632.7222260744596
 21
147.6803181390592
 31
0.0
  0
LINE
  5
A6D
330
2
100
AcDbEntity
  8
0
100
AcDbLine
 10
627.7222260744596
 20
150.5087481390592
 30
0.0
 11
627.7222260744596
 21
171.8518881390592
 31
0.0
  0
LINE
  5
A6E
330
2
100
AcDbEntity
  8
0
100
AcDbLine
 10
627.1364110744595
 20
149.0945331390592
 30
0.0
 11
624.3080410744596
 21
146.2661031390592
 31
0.0
  0
ARC
  5
A6F
330
2
100
AcDbEntity
  8
0
100
AcDbCircle
 10
635.3572970744596
 20
142.6803181390592
 30
0.0
 40
2.0
100
AcDbArc
 50
194.4775090000004
 51
270.0
  0
ARC
  5
A70
330
2
100
AcDbEntity
  8
0
100
AcDbCircle
 10
634.9484830744597
 20
144.6803181390592
 30
0.0
 40
2.0
100
AcDbArc
 50
188.626923
 51
270.0
  0
ARC
  5
A71
330
2
100
AcDbEntity
  8
0
100
AcDbCircle
 10
625.7222260744596
 20
144.8518881390592
 30
0.0
 40
2.0
100
AcDbArc
 50
134.9999999999994
 51
180.0
  0
ARC
  5
A72
330
2
100
AcDbEntity
  8
0
100
AcDbCircle
 10
654.7222260744596
 20
147.6803181390592
 30
0.0
 40
22.0
100
AcDbArc
 50
180.0
 51
194.4775090000004
  0
LINE
  5
A73
330
2
100
AcDbEntity
  8
0
100
AcDbLine
 10
637.5579190744596
 20
142.4973501390592
 30
0.0
 11
636.6380590744596
 21
140.4973501390592
 31
0.0
  0
LINE
  5
A74
330
2
100
AcDbEntity
  8
0
100
AcDbLine
 10
635.8023650744595
 20
140.6803181390592
 30
0.0
 11
635.3572970744596
 21
140.6803181390592
 31
0.0
  0
ARC
  5
A75
330
2
100
AcDbEntity
  8
0
100
AcDbCircle
 10
635.8023650744595
 20
138.6803181390592
 30
0.0
 40
2.0
100
AcDbArc
 50
40.60129500000027
 51
90.0
  0
LINE
  5
A76
330
2
100
AcDbEntity
  8
0
100
AcDbLine
 10
636.7222260744596
 20
142.6803181390592
 30
0.0
 11
634.9484830744597
 21
142.6803181390592
 31
0.0
  0
ARC
  5
A77
330
2
100
AcDbEntity
  8
0
100
AcDbCircle
 10
636.7222260744596
 20
140.6803181390592
 30
0.0
 40
2.0
100
AcDbArc
 50
40.60129500000027
 51
90.0
  0
ARC
  5
A78
330
2
100
AcDbEntity
  8
0
100
AcDbCircle
 10
625.7222260744596
 20
150.5087481390592
 30
0.0
 40
2.0
100
AcDbArc
 50
314.9999999999994
 51
0.0
  0
ARC
  5
A79
330
2
100
AcDbEntity
  8
0
100
AcDbCircle
 10
654.7222260744596
 20
174.6803181390592
 30
0.0
 40
22.0
100
AcDbArc
 50
165.5224909999995
 51
180.0
  0
ARC
  5
A7A
330
2
100
AcDbEntity
  8
0
100
AcDbCircle
 10
625.7222260744596
 20
177.5087481390592
 30
0.0
 40
2.0
100
AcDbArc
 50
180.0
 51
225.0000000000006
  0
LINE
  5
A7B
330
2
100
AcDbEntity
  8
0
100
AcDbLine
 10
627.1364110744595
 20
173.2661031390592
 30
0.0
 11
624.3080410744596
 21
176.0945331390592
 31
0.0
  0
ARC
  5
A7C
330
2
100
AcDbEntity
  8
0
100
AcDbCircle
 10
625.7222260744596
 20
171.8518881390592
 30
0.0
 40
2.0
100
AcDbArc
 50
0.0
 51
45.00000000000057
  0
ARC
  5
A7D
330
2
100
AcDbEntity
  8
0
100
AcDbCircle
 10
635.3572970744596
 20
179.6803181390592
 30
0.0
 40
2.0
100
AcDbArc
 50
90.0
 51
165.5224909999995
  0
ARC
  5
A7E
330
2
100
AcDbEntity
  8
0
100
AcDbCircle
 10
634.9484830744597
 20
177.6803181390592
 30
0.0
 40
2.0
100
AcDbArc
 50
90.0
 51
171.3730769999999
  0
LINE
  5
A7F
330
2
100
AcDbEntity
  8
0
100
AcDbLine
 10
638.2407200744596
 20
180.3787281390592
 30
0.0
 11
647.2407200744596
 21
190.8787281390592
 31
0.0
  0
LINE
  5
A80
330
2
100
AcDbEntity
  8
0
100
AcDbLine
 10
635.8023650744595
 20
181.6803181390592
 30
0.0
 11
635.3572970744596
 21
181.6803181390592
 31
0.0
  0
LINE
  5
A81
330
2
100
AcDbEntity
  8
0
100
AcDbLine
 10
636.7222260744596
 20
179.6803181390592
 30
0.0
 11
634.9484830744597
 21
179.6803181390592
 31
0.0
  0
LINE
  5
A82
330
2
100
AcDbEntity
  8
0
100
AcDbLine
 10
637.5579190744596
 20
179.8632861390592
 30
0.0
 11
636.6380590744596
 21
181.8632861390592
 31
0.0
  0
ARC
  5
A83
330
2
100
AcDbEntity
  8
0
100
AcDbCircle
 10
636.7222260744596
 20
181.6803181390592
 30
0.0
 40
2.0
100
AcDbArc
 50
270.0
 51
319.3987049999997
  0
ARC
  5
A84
330
2
100
AcDbEntity
  8
0
100
AcDbCircle
 10
635.8023650744595
 20
183.6803181390592
 30
0.0
 40
2.0
100
AcDbArc
 50
270.0
 51
319.3987049999997
  0
ARC
  5
A85
330
2
100
AcDbEntity
  8
0
100
AcDbCircle
 10
662.7222260744596
 20
161.1803181390592
 30
0.0
 40
6.0
100
AcDbArc
 50
109.4712219999995
 51
70.52877800000044
  0
CIRCLE
  5
A86
330
2
100
AcDbEntity
  8
0
100
AcDbCircle
 10
662.7222260744596
 20
161.1803181390592
 30
0.0
 40
10.0
  0
LINE
  5
A87
330
2
100
AcDbEntity
  8
0
100
AcDbLine
 10
709.8865330744596
 20
142.4973501390592
 30
0.0
 11
710.8063930744596
 21
140.4973501390592
 31
0.0
  0
ARC
  5
A88
330
2
100
AcDbEntity
  8
0
100
AcDbCircle
 10
710.7222260744596
 20
140.6803181390592
 30
0.0
 40
2.0
100
AcDbArc
 50
90.0
 51
139.398712
  0
LINE
  5
A89
330
2
100
AcDbEntity
  8
0
100
AcDbLine
 10
664.7222260744596
 20
168.9803211390592
 30
0.0
 11
664.7222260744596
 21
166.8371781390592
 31
0.0
  0
LINE
  5
A8A
330
2
100
AcDbEntity
  8
0
100
AcDbLine
 10
660.7222260744596
 20
168.9803211390592
 30
0.0
 11
660.7222260744596
 21
166.8371781390592
 31
0.0
  0
LINE
  5
A8B
330
2
100
AcDbEntity
  8
0
100
AcDbLine
 10
660.7222260744596
 20
168.9803211390592
 30
0.0
 11
664.7222260744596
 21
168.9803211390592
 31
0.0
  0
LINE
  5
A8C
330
2
100
AcDbEntity
  8
0
100
AcDbLine
 10
709.2037320744595
 20
180.3787281390592
 30
0.0
 11
700.2037320744595
 21
190.8787281390592
 31
0.0
  0
LINE
  5
A8D
330
2
100
AcDbEntity
  8
0
100
AcDbLine
 10
709.8865330744596
 20
179.8632861390592
 30
0.0
 11
710.8063930744596
 21
181.8632861390592
 31
0.0
  0
ARC
  5
A8E
330
2
100
AcDbEntity
  8
0
100
AcDbCircle
 10
710.7222260744596
 20
181.6803181390592
 30
0.0
 40
2.0
100
AcDbArc
 50
220.6012879999999
 51
270.0
  0
LINE
  5
A8F
330
2
100
AcDbEntity
  8
0
100
AcDbLine
 10
852.5277070744596
 20
185.1803181390592
 30
0.0
 11
806.2777070744596
 21
185.1803181390592
 31
0.0
  0
LINE
  5
A90
330
2
100
AcDbEntity
  8
0
100
AcDbLine
 10
852.5277070744596
 20
135.1803181390592
 30
0.0
 11
806.2777070744596
 21
135.1803181390592
 31
0.0
  0
LINE
  5
A91
330
2
100
AcDbEntity
  8
0
100
AcDbLine
 10
850.2777070744595
 20
121.1803181390592
 30
0.0
 11
806.2777070744596
 21
121.1803181390592
 31
0.0
  0
LINE
  5
A92
330
2
100
AcDbEntity
  8
0
100
AcDbLine
 10
723.7222260744596
 20
144.8518881390592
 30
0.0
 11
723.7222260744596
 21
127.6803181390592
 31
0.0
  0
LINE
  5
A93
330
2
100
AcDbEntity
  8
0
100
AcDbLine
 10
796.7777070744596
 20
130.9313561390592
 30
0.0
 11
723.7222260744596
 21
130.9313561390592
 31
0.0
  0
LINE
  5
A94
330
2
100
AcDbEntity
  8
0
100
AcDbLine
 10
796.7777070744596
 20
123.1803181390592
 30
0.0
 11
725.0809910744597
 21
123.1803181390592
 31
0.0
  0
ARC
  5
A95
330
2
100
AcDbEntity
  8
0
100
AcDbCircle
 10
716.7222260744596
 20
127.6803181390592
 30
0.0
 40
7.0
100
AcDbArc
 50
227.3640749999997
 51
0.0
  0
CIRCLE
  5
A97
330
2
100
AcDbEntity
  8
HOJO
100
AcDbCircle
 10
716.7222260744596
 20
127.6803181390592
 30
0.0
 40
4.0
  0
CIRCLE
  5
A98
330
2
100
AcDbEntity
  8
0
100
AcDbCircle
 10
716.7222260744596
 20
127.6803181390592
 30
0.0
 40
3.399999999999999
  0
LINE
  5
A99
330
2
100
AcDbEntity
  8
0
100
AcDbLine
 10
724.3858610744596
 20
123.0556231390592
 30
0.0
 11
719.1552090744596
 21
121.1167351390592
 31
0.0
  0
ARC
  5
A9A
330
2
100
AcDbEntity
  8
0
100
AcDbCircle
 10
725.0809910744597
 20
121.1803181390592
 30
0.0
 40
2.0
100
AcDbArc
 50
90.0
 51
110.33873
  0
LINE
  5
A9B
330
2
100
AcDbEntity
  8
0
100
AcDbLine
 10
806.2777070744596
 20
130.9313171390592
 30
0.0
 11
796.7777070744596
 21
130.9313171390592
 31
0.0
  0
LINE
  5
A9C
330
2
100
AcDbEntity
  8
0
100
AcDbLine
 10
806.2777070744596
 20
123.1803181390592
 30
0.0
 11
796.7777070744596
 21
123.1803181390592
 31
0.0
  0
LINE
  5
A9D
330
2
100
AcDbEntity
  8
0
100
AcDbLine
 10
714.7222260744596
 20
174.6803181390592
 30
0.0
 11
714.7222260744596
 21
147.6803181390592
 31
0.0
  0
LINE
  5
A9E
330
2
100
AcDbEntity
  8
0
100
AcDbLine
 10
719.7222260744596
 20
150.5087481390592
 30
0.0
 11
719.7222260744596
 21
171.8518881390592
 31
0.0
  0
LINE
  5
A9F
330
2
100
AcDbEntity
  8
0
100
AcDbLine
 10
720.3080410744596
 20
149.0945331390592
 30
0.0
 11
723.1364110744595
 21
146.2661031390592
 31
0.0
  0
ARC
  5
AA0
330
2
100
AcDbEntity
  8
0
100
AcDbCircle
 10
712.0871550744595
 20
142.6803181390592
 30
0.0
 40
2.0
100
AcDbArc
 50
270.0
 51
345.5224909999996
  0
LINE
  5
AA1
330
2
100
AcDbEntity
  8
0
100
AcDbLine
 10
711.6420870744597
 20
140.6803181390592
 30
0.0
 11
712.0871550744595
 21
140.6803181390592
 31
0.0
  0
ARC
  5
AA2
330
2
100
AcDbEntity
  8
0
100
AcDbCircle
 10
692.7222260744596
 20
147.6803181390592
 30
0.0
 40
22.0
100
AcDbArc
 50
345.5224880000002
 51
0.0
  0
ARC
  5
AA3
330
2
100
AcDbEntity
  8
0
100
AcDbCircle
 10
712.4959690744596
 20
144.6803181390592
 30
0.0
 40
2.0
100
AcDbArc
 50
270.0
 51
351.373077
  0
ARC
  5
AA4
330
2
100
AcDbEntity
  8
0
100
AcDbCircle
 10
721.7222260744596
 20
144.8518881390592
 30
0.0
 40
2.0
100
AcDbArc
 50
0.0
 51
45.00000000000057
  0
ARC
  5
AA5
330
2
100
AcDbEntity
  8
0
100
AcDbCircle
 10
721.7222260744596
 20
150.5087481390592
 30
0.0
 40
2.0
100
AcDbArc
 50
180.0
 51
225.0000000000006
  0
ARC
  5
AA6
330
2
100
AcDbEntity
  8
0
100
AcDbCircle
 10
692.7222260744596
 20
174.6803181390592
 30
0.0
 40
22.0
100
AcDbArc
 50
0.0
 51
14.47751199999975
  0
ARC
  5
AA7
330
2
100
AcDbEntity
  8
0
100
AcDbCircle
 10
721.7222260744596
 20
177.5087481390592
 30
0.0
 40
2.0
100
AcDbArc
 50
314.9999999999994
 51
0.0
  0
ARC
  5
AA8
330
2
100
AcDbEntity
  8
0
100
AcDbCircle
 10
721.7222260744596
 20
171.8518881390592
 30
0.0
 40
2.0
100
AcDbArc
 50
134.9999999999994
 51
180.0
  0
LINE
  5
AA9
330
2
100
AcDbEntity
  8
0
100
AcDbLine
 10
720.3080410744596
 20
173.2661031390592
 30
0.0
 11
723.1364110744595
 21
176.0945331390592
 31
0.0
  0
ARC
  5
AAA
330
2
100
AcDbEntity
  8
0
100
AcDbCircle
 10
712.0871550744595
 20
179.6803181390592
 30
0.0
 40
2.0
100
AcDbArc
 50
14.47751199999975
 51
90.0
  0
ARC
  5
AAB
330
2
100
AcDbEntity
  8
0
100
AcDbCircle
 10
712.4959690744596
 20
177.6803181390592
 30
0.0
 40
2.0
100
AcDbArc
 50
8.62692699999976
 51
90.0
  0
LINE
  5
AAC
330
2
100
AcDbEntity
  8
0
100
AcDbLine
 10
711.6420870744597
 20
181.6803181390592
 30
0.0
 11
712.0871550744595
 21
181.6803181390592
 31
0.0
  0
ARC
  5
AB5
330
2
100
AcDbEntity
  8
0
100
AcDbCircle
 10
850.2777070744595
 20
126.1803181390592
 30
0.0
 40
5.0
100
AcDbArc
 50
270.0
 51
0.0
  0
LINE
  5
AB6
330
2
100
AcDbEntity
  8
0
100
AcDbLine
 10
624.4291350744596
 20
425.2245797406698
 30
0.0
 11
723.0153170744596
 21
425.2245797406698
 31
0.0
  0
ARC
  5
AB7
330
2
100
AcDbEntity
  8
0
100
AcDbCircle
 10
707.9168670744596
 20
204.2440541390592
 30
0.0
 40
6.0
100
AcDbArc
 50
239.6416930000005
 51
312.6359250000002
  0
ARC
  5
AB8
330
2
100
AcDbEntity
  8
0
100
AcDbCircle
 10
708.0642060744597
 20
388.5205697406698
 30
0.0
 40
11.0
100
AcDbArc
 50
248.9246670000001
 51
295.717728
  0
LINE
  5
AB9
330
2
100
AcDbEntity
  8
0
100
AcDbLine
 10
699.0897190744596
 20
379.7245797406698
 30
0.0
 11
716.6349460744596
 21
379.7245797406698
 31
0.0
  0
ARC
  5
ABA
330
2
100
AcDbEntity
  8
0
100
AcDbCircle
 10
708.0642060744597
 20
380.9285897406698
 30
0.0
 40
11.0
100
AcDbArc
 50
64.28227199999999
 51
111.0753329999998
  0
LINE
  5
ABB
330
2
100
AcDbEntity
  8
0
100
AcDbLine
 10
699.0897190744596
 20
389.7245797406698
 30
0.0
 11
716.6349460744596
 21
389.7245797406698
 31
0.0
  0
LINE
  5
ABC
330
2
100
AcDbEntity
  8
0
100
AcDbLine
 10
724.7222260744596
 20
412.7245797406698
 30
0.0
 11
624.2109960744596
 21
412.7245797406698
 31
0.0
  0
LINE
  5
ABD
330
2
100
AcDbEntity
  8
0
100
AcDbLine
 10
723.0153170744596
 20
344.2245797406698
 30
0.0
 11
624.4291350744596
 21
344.2245797406698
 31
0.0
  0
LINE
  5
ABE
330
2
100
AcDbEntity
  8
CENTER
100
AcDbLine
 10
616.1814550744597
 20
384.7245797406698
 30
0.0
 11
863.7982370426938
 21
384.7245797406698
 31
0.0
  0
LINE
  5
ABF
330
2
100
AcDbEntity
  8
0
100
AcDbLine
 10
716.7222260744596
 20
201.6803181390592
 30
0.0
 11
630.7222260744596
 21
201.6803181390592
 31
0.0
  0
LINE
  5
AC1
330
2
100
AcDbEntity
  8
0
100
AcDbLine
 10
708.0642060744597
 20
377.5205697406698
 30
0.0
 11
708.0642060744597
 21
344.2245797406698
 31
0.0
  0
LINE
  5
AC2
330
2
100
AcDbEntity
  8
0
100
AcDbLine
 10
699.0897190744596
 20
379.7245797406698
 30
0.0
 11
699.0897190744596
 21
344.2245797406698
 31
0.0
  0
LINE
  5
AC3
330
2
100
AcDbEntity
  8
0
100
AcDbLine
 10
648.3547330744596
 20
379.7245797406698
 30
0.0
 11
648.3547330744596
 21
344.2245797406698
 31
0.0
  0
LINE
  5
AC4
330
2
100
AcDbEntity
  8
0
100
AcDbLine
 10
639.3802460744596
 20
377.5205697406698
 30
0.0
 11
639.3802460744596
 21
344.2245797406698
 31
0.0
  0
LINE
  5
AC5
330
2
100
AcDbEntity
  8
0
100
AcDbLine
 10
623.7222260744596
 20
384.7245797406698
 30
0.0
 11
624.4291350744596
 21
344.2245797406698
 31
0.0
  0
LINE
  5
AC6
330
2
100
AcDbEntity
  8
CENTER
100
AcDbLine
 10
630.7222260744596
 20
340.8656627406698
 30
0.0
 11
630.7222260744596
 21
428.5406807406698
 31
0.0
  0
LINE
  5
AC7
330
2
100
AcDbEntity
  8
CENTER
100
AcDbLine
 10
662.7222260744596
 20
434.2197267406698
 30
0.0
 11
662.7222260744596
 21
335.2294327406698
 31
0.0
  0
LINE
  5
AC8
330
2
100
AcDbEntity
  8
HIDS
100
AcDbLine
 10
634.7222260744596
 20
344.2245797406698
 30
0.0
 11
634.7222260744596
 21
376.7245797406697
 31
0.0
  0
LINE
  5
AC9
330
2
100
AcDbEntity
  8
HIDS
100
AcDbLine
 10
626.7222260744595
 20
344.2245797406698
 30
0.0
 11
626.7222260744595
 21
376.7245797406697
 31
0.0
  0
LINE
  5
ACA
330
2
100
AcDbEntity
  8
HIDS
100
AcDbLine
 10
634.1222500744597
 20
412.7245797406698
 30
0.0
 11
634.1222500744597
 21
344.2245797406698
 31
0.0
  0
LINE
  5
ACB
330
2
100
AcDbEntity
  8
HIDS
100
AcDbLine
 10
627.3222020744595
 20
412.7245797406698
 30
0.0
 11
627.3222020744595
 21
344.2245797406698
 31
0.0
  0
LINE
  5
ACE
330
2
100
AcDbEntity
  8
HIDS
100
AcDbLine
 10
472.0550559161595
 20
198.8131461390592
 30
0.0
 11
451.0201439161595
 21
199.1803181390592
 31
0.0
  0
ARC
  5
ACF
330
2
100
AcDbEntity
  8
HIDS
100
AcDbCircle
 10
474.0201439161595
 20
198.1803181390592
 30
0.0
 40
3.0
100
AcDbArc
 50
0.0
 51
90.0
  0
ARC
  5
AD0
330
2
100
AcDbEntity
  8
HIDS
100
AcDbCircle
 10
472.0201439161595
 20
196.8134511390592
 30
0.0
 40
2.0
100
AcDbArc
 50
0.0
 51
88.99999999999986
  0
LINE
  5
AD1
330
2
100
AcDbEntity
  8
HIDS
100
AcDbLine
 10
477.0201439161595
 20
198.1803181390592
 30
0.0
 11
477.0201439161595
 21
194.5772911390592
 31
0.0
  0
LINE
  5
AD2
330
2
100
AcDbEntity
  8
HIDS
100
AcDbLine
 10
474.0201439161595
 20
196.8134511390592
 30
0.0
 11
474.0201439161595
 21
192.8820541390592
 31
0.0
  0
ARC
  5
AD3
330
2
100
AcDbEntity
  8
0
100
AcDbCircle
 10
649.7222260744596
 20
194.0452321390592
 30
0.0
 40
2.0
100
AcDbArc
 50
104.4775089999994
 51
180.0
  0
ARC
  5
AD4
330
2
100
AcDbEntity
  8
0
100
AcDbCircle
 10
654.7222260744596
 20
174.6803181390592
 30
0.0
 40
22.0
100
AcDbArc
 50
90.0
 51
110.4873119999995
  0
ARC
  5
AD5
330
2
100
AcDbEntity
  8
0
100
AcDbCircle
 10
650.1228610744596
 20
191.6803181390592
 30
0.0
 40
10.0
100
AcDbArc
 50
90.0
 51
112.3316419999994
  0
CIRCLE
  5
AD6
330
2
100
AcDbEntity
  8
0
100
AcDbCircle
 10
630.7222260744596
 20
194.6803181390592
 30
0.0
 40
3.399999999999999
  0
ARC
  5
AD7
330
2
100
AcDbEntity
  8
0
100
AcDbCircle
 10
630.7222260744596
 20
194.6803181390592
 30
0.0
 40
7.0
100
AcDbArc
 50
47.3640670000003
 51
180.0
  0
ARC
  5
AD9
330
2
100
AcDbEntity
  8
0
100
AcDbCircle
 10
639.5275850744596
 20
204.2440541390592
 30
0.0
 40
6.0
100
AcDbArc
 50
227.3640749999997
 51
300.3583069999994
  0
ARC
  5
ADA
330
2
100
AcDbEntity
  8
0
100
AcDbCircle
 10
647.7222260744596
 20
193.4153191390592
 30
0.0
 40
2.0
100
AcDbArc
 50
110.4873119999995
 51
180.0
  0
LINE
  5
ADB
330
2
100
AcDbEntity
  8
0
100
AcDbLine
 10
647.5980190744595
 20
191.4864251390592
 30
0.0
 11
645.5980190744595
 21
192.2262771390592
 31
0.0
  0
ARC
  5
ADC
330
2
100
AcDbEntity
  8
0
100
AcDbCircle
 10
643.7222260744596
 20
192.9201711390592
 30
0.0
 40
2.0
100
AcDbArc
 50
319.3987049999997
 51
0.0
  0
LINE
  5
ADD
330
2
100
AcDbEntity
  8
0
100
AcDbLine
 10
647.7222260744596
 20
192.1803181390592
 30
0.0
 11
647.7222260744596
 21
194.0452321390592
 31
0.0
  0
LINE
  5
ADE
330
2
100
AcDbEntity
  8
0
100
AcDbLine
 10
645.7222260744596
 20
192.9201711390592
 30
0.0
 11
645.7222260744596
 21
193.4153191390592
 31
0.0
  0
ARC
  5
ADF
330
2
100
AcDbEntity
  8
0
100
AcDbCircle
 10
657.7222260744596
 20
173.1803181390592
 30
0.0
 40
30.0
100
AcDbArc
 50
112.3316419999994
 51
120.358299
  0
LINE
  5
AE0
330
2
100
AcDbEntity
  8
0
100
AcDbLine
 10
654.7222260744596
 20
196.6803181390592
 30
0.0
 11
692.7222260744596
 21
196.6803181390592
 31
0.0
  0
ARC
  5
AE1
330
2
100
AcDbEntity
  8
0
100
AcDbCircle
 10
692.7222260744596
 20
174.6803181390592
 30
0.0
 40
22.0
100
AcDbArc
 50
69.51268799999965
 51
90.0
  0
ARC
  5
AE2
330
2
100
AcDbEntity
  8
0
100
AcDbCircle
 10
699.7222260744596
 20
193.4153191390592
 30
0.0
 40
2.0
100
AcDbArc
 50
0.0
 51
69.51268799999965
  0
ARC
  5
AE3
330
2
100
AcDbEntity
  8
0
100
AcDbCircle
 10
697.7222260744596
 20
194.0452321390592
 30
0.0
 40
2.0
100
AcDbArc
 50
0.0
 51
75.52249100000058
  0
LINE
  5
AE4
330
2
100
AcDbEntity
  8
0
100
AcDbLine
 10
699.8464330744597
 20
191.4864251390592
 30
0.0
 11
701.8464330744596
 21
192.2262771390592
 31
0.0
  0
ARC
  5
AE5
330
2
100
AcDbEntity
  8
0
100
AcDbCircle
 10
703.7222260744596
 20
192.9201711390592
 30
0.0
 40
2.0
100
AcDbArc
 50
180.0
 51
220.6012879999999
  0
LINE
  5
AE6
330
2
100
AcDbEntity
  8
0
100
AcDbLine
 10
699.7222260744596
 20
192.1803181390592
 30
0.0
 11
699.7222260744596
 21
194.0452321390592
 31
0.0
  0
LINE
  5
AE7
330
2
100
AcDbEntity
  8
0
100
AcDbLine
 10
701.7222260744595
 20
192.9201711390592
 30
0.0
 11
701.7222260744595
 21
193.4153191390592
 31
0.0
  0
ARC
  5
AE8
330
2
100
AcDbEntity
  8
0
100
AcDbCircle
 10
689.7222260744596
 20
173.1803181390592
 30
0.0
 40
30.0
100
AcDbArc
 50
59.64169700000056
 51
67.66835800000055
  0
ARC
  5
AE9
330
2
100
AcDbEntity
  8
0
100
AcDbCircle
 10
697.3215910744596
 20
191.6803181390592
 30
0.0
 40
10.0
100
AcDbArc
 50
67.66835800000055
 51
90.0
  0
LINE
  5
AEA
330
2
100
AcDbEntity
  8
0
100
AcDbLine
 10
708.0642060744597
 20
425.2245797406698
 30
0.0
 11
708.0642060744597
 21
391.9285897406698
 31
0.0
  0
LINE
  5
AEB
330
2
100
AcDbEntity
  8
0
100
AcDbLine
 10
699.0897190744596
 20
425.2245797406698
 30
0.0
 11
699.0897190744596
 21
389.7245797406698
 31
0.0
  0
LINE
  5
AEC
330
2
100
AcDbEntity
  8
0
100
AcDbLine
 10
639.3802460744596
 20
425.2245797406698
 30
0.0
 11
639.3802460744596
 21
391.9285897406698
 31
0.0
  0
LINE
  5
AED
330
2
100
AcDbEntity
  8
0
100
AcDbLine
 10
648.3547330744596
 20
425.2245797406698
 30
0.0
 11
648.3547330744596
 21
389.7245797406698
 31
0.0
  0
LINE
  5
AEE
330
2
100
AcDbEntity
  8
0
100
AcDbLine
 10
623.7222260744596
 20
384.7245797406698
 30
0.0
 11
624.4291350744596
 21
425.2245797406698
 31
0.0
  0
LINE
  5
AEF
330
2
100
AcDbEntity
  8
HIDS
  6
SEKKEI_H
100
AcDbLine
 10
634.9722260744596
 20
412.7245797406698
 30
0.0
 11
634.9722260744596
 21
425.2245797406698
 31
0.0
  0
LINE
  5
AF0
330
2
100
AcDbEntity
  8
HIDS
  6
SEKKEI_H
100
AcDbLine
 10
626.4722260744596
 20
412.7245797406698
 30
0.0
 11
626.4722260744596
 21
425.2245797406698
 31
0.0
  0
ARC
  5
AF1
330
2
100
AcDbEntity
  8
0
100
AcDbCircle
 10
639.3802460744596
 20
388.5205697406698
 30
0.0
 40
11.0
100
AcDbArc
 50
244.282272
 51
291.0753169999998
  0
LINE
  5
AF2
330
2
100
AcDbEntity
  8
HIDS
100
AcDbLine
 10
626.7222260744595
 20
376.7245797406697
 30
0.0
 11
634.7222260744596
 21
376.7245797406697
 31
0.0
  0
ARC
  5
AF3
330
2
100
AcDbEntity
  8
0
100
AcDbCircle
 10
630.8095060744595
 20
373.2245797406698
 30
0.0
 40
6.5
100
AcDbArc
 50
64.28227199999999
 51
90.0
  0
LINE
  5
AF4
330
2
100
AcDbEntity
  8
0
100
AcDbLine
 10
648.3547330744596
 20
379.7245797406698
 30
0.0
 11
630.8095060744595
 21
379.7245797406698
 31
0.0
  0
ARC
  5
AF5
330
2
100
AcDbEntity
  8
0
100
AcDbCircle
 10
630.8095060744595
 20
396.2245797406698
 30
0.0
 40
6.5
100
AcDbArc
 50
270.0
 51
295.717728
  0
LINE
  5
AF6
330
2
100
AcDbEntity
  8
0
100
AcDbLine
 10
648.3547330744596
 20
389.7245797406698
 30
0.0
 11
630.8095060744595
 21
389.7245797406698
 31
0.0
  0
LINE
  5
AF7
330
2
100
AcDbEntity
  8
0
100
AcDbLine
 10
634.6069310744596
 20
378.6101997406698
 30
0.0
 11
633.6301240744596
 21
379.0807197406698
 31
0.0
  0
ARC
  5
AF8
330
2
100
AcDbEntity
  8
0
100
AcDbCircle
 10
648.3547330744596
 20
373.2245797406698
 30
0.0
 40
6.5
100
AcDbArc
 50
90.0
 51
111.0753329999998
  0
LINE
  5
AF9
330
2
100
AcDbEntity
  8
0
100
AcDbLine
 10
646.0173310744596
 20
379.2897957406698
 30
0.0
 11
643.3358120744596
 21
378.2563797406698
 31
0.0
  0
ARC
  5
AFA
330
2
100
AcDbEntity
  8
0
100
AcDbCircle
 10
639.3802460744596
 20
380.9285897406698
 30
0.0
 40
11.0
100
AcDbArc
 50
68.92466700000015
 51
115.717728
  0
LINE
  5
AFB
330
2
100
AcDbEntity
  8
0
100
AcDbLine
 10
634.6069310744596
 20
390.8389597406698
 30
0.0
 11
633.6301240744596
 21
390.3684707406698
 31
0.0
  0
ARC
  5
AFC
330
2
100
AcDbEntity
  8
0
100
AcDbCircle
 10
648.3547330744596
 20
396.2245797406698
 30
0.0
 40
6.5
100
AcDbArc
 50
248.9246670000001
 51
270.0
  0
LINE
  5
AFD
330
2
100
AcDbEntity
  8
0
100
AcDbLine
 10
646.0173310744596
 20
390.1593637406698
 30
0.0
 11
643.3358120744596
 21
391.1927807406698
 31
0.0
  0
LINE
  5
AFE
330
2
100
AcDbEntity
  8
HIDS
100
AcDbLine
 10
626.7222260744595
 20
412.7245797406698
 30
0.0
 11
626.7222260744595
 21
392.7245797406698
 31
0.0
  0
LINE
  5
AFF
330
2
100
AcDbEntity
  8
HIDS
100
AcDbLine
 10
634.7222260744596
 20
412.7245797406698
 30
0.0
 11
634.7222260744596
 21
392.7245797406698
 31
0.0
  0
LINE
  5
B00
330
2
100
AcDbEntity
  8
HIDS
100
AcDbLine
 10
626.7222260744595
 20
392.7245797406698
 30
0.0
 11
634.7222260744596
 21
392.7245797406698
 31
0.0
  0
LINE
  5
B01
330
2
100
AcDbEntity
  8
0
100
AcDbLine
 10
701.4270600744596
 20
379.2897957406698
 30
0.0
 11
704.1086400744595
 21
378.2563797406698
 31
0.0
  0
ARC
  5
B02
330
2
100
AcDbEntity
  8
0
100
AcDbCircle
 10
699.0897190744596
 20
373.2245797406698
 30
0.0
 40
6.5
100
AcDbArc
 50
68.92466700000015
 51
90.0
  0
LINE
  5
B03
330
2
100
AcDbEntity
  8
0
100
AcDbLine
 10
701.4270600744596
 20
390.1593637406698
 30
0.0
 11
704.1086400744595
 21
391.1927807406698
 31
0.0
  0
ARC
  5
B04
330
2
100
AcDbEntity
  8
0
100
AcDbCircle
 10
699.0897190744596
 20
396.2245797406698
 30
0.0
 40
6.5
100
AcDbArc
 50
270.0
 51
291.0753169999998
  0
LINE
  5
B05
330
2
100
AcDbEntity
  8
0
100
AcDbLine
 10
855.2777070744596
 20
419.7245797406698
 30
0.0
 11
855.2777070744596
 21
349.7245797406698
 31
0.0
  0
LINE
  5
B06
330
2
100
AcDbEntity
  8
0
100
AcDbLine
 10
806.2777070744596
 20
424.7245797406698
 30
0.0
 11
806.2777070744596
 21
344.7245797406698
 31
0.0
  0
LINE
  5
B07
330
2
100
AcDbEntity
  8
0
100
AcDbLine
 10
719.1552090744596
 20
384.7245797406698
 30
0.0
 11
718.7194180744596
 21
359.7594917406698
 31
0.0
  0
LINE
  5
B08
330
2
100
AcDbEntity
  8
0
100
AcDbLine
 10
724.7222260744596
 20
407.7245797406698
 30
0.0
 11
724.7222260744596
 21
361.7245797406698
 31
0.0
  0
LINE
  5
B09
330
2
100
AcDbEntity
  8
CENTER
100
AcDbLine
 10
716.7222260744596
 20
340.8656627406698
 30
0.0
 11
716.7222260744596
 21
428.5406807406698
 31
0.0
  0
LINE
  5
B0A
330
2
100
AcDbEntity
  8
0
100
AcDbLine
 10
796.7777070744596
 20
346.7245797406698
 30
0.0
 11
796.7777070744596
 21
353.7245797406698
 31
0.0
  0
LINE
  5
B0B
330
2
100
AcDbEntity
  8
HIDS
100
AcDbLine
 10
720.7222260744596
 20
344.2245797406698
 30
0.0
 11
720.7222260744596
 21
376.7245797406697
 31
0.0
  0
LINE
  5
B0C
330
2
100
AcDbEntity
  8
HIDS
100
AcDbLine
 10
712.7222260744596
 20
344.2245797406698
 30
0.0
 11
712.7222260744596
 21
376.7245797406697
 31
0.0
  0
LINE
  5
B0D
330
2
100
AcDbEntity
  8
HIDS
100
AcDbLine
 10
720.1222500744596
 20
412.7245797406698
 30
0.0
 11
720.1222500744596
 21
344.2245797406698
 31
0.0
  0
LINE
  5
B0E
330
2
100
AcDbEntity
  8
HIDS
100
AcDbLine
 10
713.3222020744596
 20
412.7245797406698
 30
0.0
 11
713.3222020744596
 21
344.2245797406698
 31
0.0
  0
LINE
  5
B0F
330
2
100
AcDbEntity
  8
0
100
AcDbLine
 10
853.0277070744595
 20
360.7245797406698
 30
0.0
 11
806.2777070744596
 21
360.7245797406698
 31
0.0
  0
LINE
  5
B10
330
2
100
AcDbEntity
  8
0
100
AcDbLine
 10
850.2777070744595
 20
344.7245797406698
 30
0.0
 11
806.2777070744596
 21
344.7245797406698
 31
0.0
  0
LINE
  5
B11
330
2
100
AcDbEntity
  8
0
100
AcDbLine
 10
850.2777070744595
 20
201.1803181390592
 30
0.0
 11
806.2777070744596
 21
201.1803181390592
 31
0.0
  0
LINE
  5
B12
330
2
100
AcDbEntity
  8
0
100
AcDbLine
 10
796.7777070744596
 20
191.4292801390592
 30
0.0
 11
723.7222260744596
 21
191.4292801390592
 31
0.0
  0
LINE
  5
B13
330
2
100
AcDbEntity
  8
0
100
AcDbLine
 10
796.7777070744596
 20
199.1803181390592
 30
0.0
 11
725.0809910744597
 21
199.1803181390592
 31
0.0
  0
ARC
  5
B14
330
2
100
AcDbEntity
  8
0
100
AcDbCircle
 10
716.7222260744596
 20
194.6803181390592
 30
0.0
 40
7.0
100
AcDbArc
 50
0.0
 51
132.6359250000002
  0
CIRCLE
  5
B15
330
2
100
AcDbEntity
  8
0
100
AcDbCircle
 10
716.7222260744596
 20
194.6803181390592
 30
0.0
 40
3.399999999999999
  0
LINE
  5
B16
330
2
100
AcDbEntity
  8
0
100
AcDbLine
 10
724.3858610744596
 20
199.3050131390592
 30
0.0
 11
719.1552090744596
 21
201.2439011390592
 31
0.0
  0
ARC
  5
B17
330
2
100
AcDbEntity
  8
0
100
AcDbCircle
 10
725.0809910744597
 20
201.1803181390592
 30
0.0
 40
2.0
100
AcDbArc
 50
249.6612699999999
 51
270.0
  0
LINE
  5
B18
330
2
100
AcDbEntity
  8
0
100
AcDbLine
 10
806.2777070744596
 20
191.4293111390592
 30
0.0
 11
796.7777070744596
 21
191.4293111390592
 31
0.0
  0
LINE
  5
B19
330
2
100
AcDbEntity
  8
0
100
AcDbLine
 10
806.2777070744596
 20
199.1803181390592
 30
0.0
 11
796.7777070744596
 21
199.1803181390592
 31
0.0
  0
LINE
  5
B24
330
2
100
AcDbEntity
  8
0
100
AcDbLine
 10
806.2777070744596
 20
361.7245797406698
 30
0.0
 11
805.7776990744596
 21
361.7245797406698
 31
0.0
  0
LINE
  5
B25
330
2
100
AcDbEntity
  8
0
100
AcDbLine
 10
725.0243500744597
 20
346.7245797406698
 30
0.0
 11
796.7777070744596
 21
346.7245797406698
 31
0.0
  0
LINE
  5
B26
330
2
100
AcDbEntity
  8
0
100
AcDbLine
 10
723.0153170744596
 20
344.2245797406698
 30
0.0
 11
723.3207370744596
 21
361.7245797406698
 31
0.0
  0
ARC
  5
B27
330
2
100
AcDbEntity
  8
0
100
AcDbCircle
 10
725.0243500744597
 20
344.7245797406698
 30
0.0
 40
2.0
100
AcDbArc
 50
90.0
 51
178.9999999999998
  0
ARC
  5
B28
330
2
100
AcDbEntity
  8
0
100
AcDbCircle
 10
720.7191130744596
 20
359.7245797406698
 30
0.0
 40
2.0
100
AcDbArc
 50
90.0
 51
178.9999999999998
  0
LINE
  5
B29
330
2
100
AcDbEntity
  8
0
100
AcDbLine
 10
806.2777070744596
 20
346.7245797406698
 30
0.0
 11
796.7777070744596
 21
346.7245797406698
 31
0.0
  0
ARC
  5
B2A
330
2
100
AcDbEntity
  8
0
100
AcDbCircle
 10
850.2777070744595
 20
196.1803181390592
 30
0.0
 40
5.0
100
AcDbArc
 50
0.0
 51
90.0
  0
ARC
  5
B2B
330
2
100
AcDbEntity
  8
0
100
AcDbCircle
 10
850.2777070744595
 20
349.7245797406698
 30
0.0
 40
5.0
100
AcDbArc
 50
270.0
 51
0.0
  0
LINE
  5
B2C
330
2
100
AcDbEntity
  8
0
100
AcDbLine
 10
853.0277070744595
 20
408.7245797406698
 30
0.0
 11
806.2777070744596
 21
408.7245797406698
 31
0.0
  0
LINE
  5
B2D
330
2
100
AcDbEntity
  8
0
100
AcDbLine
 10
850.2777070744595
 20
424.7245797406698
 30
0.0
 11
806.2777070744596
 21
424.7245797406698
 31
0.0
  0
LINE
  5
B31
330
2
100
AcDbEntity
  8
0
100
AcDbLine
 10
796.7777070744597
 20
415.7245797406697
 30
0.0
 11
796.7777070744596
 21
422.7245797406697
 31
0.0
  0
LINE
  5
B32
330
2
100
AcDbEntity
  8
0
100
AcDbLine
 10
723.0153170744596
 20
425.2245797406698
 30
0.0
 11
723.3207370744596
 21
407.7245797406698
 31
0.0
  0
LINE
  5
B33
330
2
100
AcDbEntity
  8
0
100
AcDbLine
 10
724.7222260744596
 20
422.1038527406697
 30
0.0
 11
724.7222260744596
 21
412.7245797406698
 31
0.0
  0
LINE
  5
B34
330
2
100
AcDbEntity
  8
HIDS
  6
SEKKEI_H
100
AcDbLine
 10
720.9722260744596
 20
412.7245797406698
 30
0.0
 11
720.9722260744596
 21
425.2245797406698
 31
0.0
  0
LINE
  5
B35
330
2
100
AcDbEntity
  8
HIDS
  6
SEKKEI_H
100
AcDbLine
 10
712.4722260744596
 20
412.7245797406698
 30
0.0
 11
712.4722260744596
 21
425.2245797406698
 31
0.0
  0
LINE
  5
B36
330
2
100
AcDbEntity
  8
0
100
AcDbLine
 10
806.2777070744596
 20
407.7245797406698
 30
0.0
 11
805.7776990744596
 21
407.7245797406698
 31
0.0
  0
LINE
  5
B37
330
2
100
AcDbEntity
  8
0
100
AcDbLine
 10
719.1552090744596
 20
384.7245797406698
 30
0.0
 11
718.7194180744596
 21
409.6896677406697
 31
0.0
  0
LINE
  5
B38
330
2
100
AcDbEntity
  8
HIDS
100
AcDbLine
 10
712.7222260744596
 20
376.7245797406697
 30
0.0
 11
720.7222260744596
 21
376.7245797406697
 31
0.0
  0
LINE
  5
B39
330
2
100
AcDbEntity
  8
0
100
AcDbLine
 10
712.8375210744597
 20
378.6101997406698
 30
0.0
 11
713.8143280744595
 21
379.0807197406698
 31
0.0
  0
ARC
  5
B3A
330
2
100
AcDbEntity
  8
0
100
AcDbCircle
 10
716.6349460744596
 20
373.2245797406698
 30
0.0
 40
6.5
100
AcDbArc
 50
90.0
 51
115.717728
  0
LINE
  5
B3B
330
2
100
AcDbEntity
  8
0
100
AcDbLine
 10
712.8375210744597
 20
390.8389597406698
 30
0.0
 11
713.8143280744595
 21
390.3684707406698
 31
0.0
  0
ARC
  5
B3C
330
2
100
AcDbEntity
  8
0
100
AcDbCircle
 10
716.6349460744596
 20
396.2245797406698
 30
0.0
 40
6.5
100
AcDbArc
 50
244.282272
 51
270.0
  0
LINE
  5
B3D
330
2
100
AcDbEntity
  8
HIDS
100
AcDbLine
 10
712.7222260744596
 20
412.7245797406698
 30
0.0
 11
712.7222260744596
 21
392.7245797406698
 31
0.0
  0
LINE
  5
B3E
330
2
100
AcDbEntity
  8
HIDS
100
AcDbLine
 10
720.7222260744596
 20
412.7245797406698
 30
0.0
 11
720.7222260744596
 21
392.7245797406698
 31
0.0
  0
LINE
  5
B3F
330
2
100
AcDbEntity
  8
HIDS
100
AcDbLine
 10
712.7222260744596
 20
392.7245797406698
 30
0.0
 11
720.7222260744596
 21
392.7245797406698
 31
0.0
  0
ARC
  5
B40
330
2
100
AcDbEntity
  8
0
100
AcDbCircle
 10
720.7191130744596
 20
409.7245797406698
 30
0.0
 40
2.0
100
AcDbArc
 50
181.0000000000001
 51
270.0
  0
LINE
  5
B50
330
2
100
AcDbEntity
  8
0
100
AcDbLine
 10
726.1705290744596
 20
422.7245797406697
 30
0.0
 11
796.7777070744596
 21
422.7245797406697
 31
0.0
  0
ARC
  5
B51
330
2
100
AcDbEntity
  8
0
100
AcDbCircle
 10
726.1705290744596
 20
420.7245797406698
 30
0.0
 40
2.0
100
AcDbArc
 50
90.0
 51
136.3987579999997
  0
LINE
  5
B52
330
2
100
AcDbEntity
  8
0
100
AcDbLine
 10
806.2777070744596
 20
422.7245797406697
 30
0.0
 11
796.7777070744596
 21
422.7245797406697
 31
0.0
  0
ARC
  5
B55
330
2
100
AcDbEntity
  8
0
100
AcDbCircle
 10
850.2777070744595
 20
419.7246107406698
 30
0.0
 40
5.0
100
AcDbArc
 50
0.0
 51
90.0
  0
LINE
  5
1074
330
2
100
AcDbEntity
  8
HIDS
100
AcDbLine
 10
459.0201439161595
 20
198.6803181390592
 30
0.0
 11
459.0201439161595
 21
190.6803181390592
 31
0.0
  0
LINE
  5
1076
330
2
100
AcDbEntity
  8
HIDS
100
AcDbLine
 10
443.0201439161595
 20
198.6803181390592
 30
0.0
 11
443.0201439161595
 21
190.6803181390592
 31
0.0
  0
LINE
  5
1077
330
2
100
AcDbEntity
  8
0
100
AcDbLine
 10
410.5201439161595
 20
200.9733941390592
 30
0.0
 11
410.5201439161595
 21
121.3872501390592
 31
0.0
  0
LINE
  5
1078
330
2
100
AcDbEntity
  8
0
100
AcDbLine
 10
423.0201439161595
 20
121.1690571390592
 30
0.0
 11
423.0201439161595
 21
201.1915805588123
 31
0.0
  0
LINE
  5
1079
330
2
100
AcDbEntity
  8
0
100
AcDbLine
 10
491.5201439161595
 20
200.9733941390592
 30
0.0
 11
491.5201439161595
 21
121.3872501390592
 31
0.0
  0
LINE
  5
107A
330
2
100
AcDbEntity
  8
CENTER
100
AcDbLine
 10
451.0201439161595
 20
256.0678181390593
 30
0.0
 11
451.0201439161595
 21
113.6321921390592
 31
0.0
  0
TEXT
  5
108F
330
2
100
AcDbEntity
  8
TITLE
100
AcDbText
 10
213.7613313417572
 20
75.30799974698408
 30
0.0
 40
7.0
  1
F2SB-12-10～240-S15WC
 41
0.8
100
AcDbText
  0
TEXT
  5
1090
330
2
100
AcDbEntity
  8
TITLE
100
AcDbText
 10
213.7613313417572
 20
87.30799974698408
 30
0.0
 40
7.0
  1
F2SB-12-10～240-S15C
 41
0.8
100
AcDbText
  0
TEXT
  5
1091
330
2
100
AcDbEntity
  8
TITLE
100
AcDbText
 10
90.00260132853975
 20
15.34275674052429
 30
0.0
 40
7.0
  1
F2SB-12-10～60-T60C
 41
0.8
100
AcDbText
  0
TEXT
  5
1092
330
2
100
AcDbEntity
  8
TITLE
100
AcDbText
 10
90.00260132853975
 20
27.34275674052429
 30
0.0
 40
7.0
  1
F2SB-12-10～120-T40WC
 41
0.8
100
AcDbText
  0
TEXT
  5
1093
330
2
100
AcDbEntity
  8
TITLE
100
AcDbText
 10
90.00260132853975
 20
39.34275674052429
 30
0.0
 40
7.0
  1
F2SB-12-10～120-T40C
 41
0.8
100
AcDbText
  0
TEXT
  5
1094
330
2
100
AcDbEntity
  8
TITLE
100
AcDbText
 10
90.00260132853975
 20
51.34275674052429
 30
0.0
 40
7.0
  1
F2SB-12-10～240-T25WC
 41
0.8
100
AcDbText
  0
TEXT
  5
1095
330
2
100
AcDbEntity
  8
TITLE
100
AcDbText
 10
90.00260132853975
 20
63.34275674052429
 30
0.0
 40
7.0
  1
F2SB-12-10～240-T25C
 41
0.8
100
AcDbText
  0
TEXT
  5
1096
330
2
100
AcDbEntity
  8
TITLE
100
AcDbText
 10
90.00260132853975
 20
75.34275674052429
 30
0.0
 40
7.0
  1
F2SB-12-10～240-T15WC
 41
0.8
100
AcDbText
  0
TEXT
  5
10A1
330
2
100
AcDbEntity
  8
TITLE
100
AcDbText
 10
90.00260132853975
 20
87.3427567405243
 30
0.0
 40
7.0
  1
F2SB-12-10~240-T15C
 41
0.8
100
AcDbText
  0
ARC
  5
10E7
330
2
100
AcDbEntity
  8
PHAS
  6
SEKKEI_P_S
100
AcDbCircle
 10
403.0201439161595
 20
148.2042131390592
 30
0.0
 40
3.0
100
AcDbArc
 50
180.0
 51
254.9999999999988
  0
ARC
  5
10E8
330
2
100
AcDbEntity
  8
PHAS
  6
SEKKEI_P_S
100
AcDbCircle
 10
403.0201439161595
 20
174.1564231390592
 30
0.0
 40
3.0
100
AcDbArc
 50
105.0000000000011
 51
180.0
  0
LINE
  5
10EB
330
2
100
AcDbEntity
  8
CENTER
100
AcDbLine
 10
394.2815269161595
 20
161.1803181390592
 30
0.0
 11
507.7587609161595
 21
161.1803181390592
 31
0.0
  0
LINE
  5
1152
330
2
100
AcDbEntity
  8
PHAS
  6
SEKKEI_P_S
100
AcDbLine
 10
400.0201439161595
 20
174.1564231390592
 30
0.0
 11
400.0201439161595
 21
148.2672931390592
 31
0.0
  0
LINE
  5
1162
330
2
100
AcDbEntity
  8
HIDS
100
AcDbLine
 10
459.0201439161595
 20
190.6803181390592
 30
0.0
 11
491.5201439161595
 21
190.6803181390592
 31
0.0
  0
LINE
  5
1163
330
2
100
AcDbEntity
  8
0
100
AcDbLine
 10
457.9851399161595
 20
176.0949301390592
 30
0.0
 11
491.5201439161595
 21
176.6803181390592
 31
0.0
  0
LINE
  5
1164
330
2
100
AcDbEntity
  8
0
100
AcDbLine
 10
460.3181479161595
 20
172.1357321390592
 30
0.0
 11
491.5201439161595
 21
172.6803181390592
 31
0.0
  0
LINE
  5
1165
330
2
100
AcDbEntity
  8
HIDS
100
AcDbLine
 10
423.0201439161595
 20
191.2803241390592
 30
0.0
 11
491.5201439161595
 21
191.2803241390592
 31
0.0
  0
LINE
  5
1166
330
2
100
AcDbEntity
  8
0
100
AcDbLine
 10
423.0201439161595
 20
131.0803201390592
 30
0.0
 11
491.5201439161595
 21
131.0803201390592
 31
0.0
  0
LINE
  5
1167
330
2
100
AcDbEntity
  8
0
100
AcDbLine
 10
423.0201439161595
 20
124.2803161390592
 30
0.0
 11
491.5201439161595
 21
124.2803161390592
 31
0.0
  0
LINE
  5
1168
330
2
100
AcDbEntity
  8
CENTER
100
AcDbLine
 10
408.0151699161596
 20
127.6803181390592
 30
0.0
 11
495.0639059161595
 21
127.6803181390592
 31
0.0
  0
LINE
  5
1169
330
2
100
AcDbEntity
  8
HOJO
100
AcDbLine
 10
459.0201439161595
 20
123.6803181390592
 30
0.0
 11
491.5201439161595
 21
123.6803181390592
 31
0.0
  0
LINE
  5
116A
330
2
100
AcDbEntity
  8
HOJO
100
AcDbLine
 10
459.0201439161595
 20
131.6803181390592
 30
0.0
 11
491.5201439161595
 21
131.6803181390592
 31
0.0
  0
LINE
  5
116B
330
2
100
AcDbEntity
  8
0
100
AcDbLine
 10
451.0201439161595
 20
120.6803181390592
 30
0.0
 11
491.5201439161595
 21
121.3872501390592
 31
0.0
  0
LINE
  5
116C
330
2
100
AcDbEntity
  8
0
100
AcDbLine
 10
460.3181479161595
 20
150.2249041390592
 30
0.0
 11
491.5201439161595
 21
149.6803181390592
 31
0.0
  0
LINE
  5
116D
330
2
100
AcDbEntity
  8
0
100
AcDbLine
 10
457.9851399161595
 20
146.2657061390592
 30
0.0
 11
491.5201439161595
 21
145.6803181390592
 31
0.0
  0
LWPOLYLINE
  5
116E
330
2
100
AcDbEntity
  8
HOJO
100
AcDbPolyline
 90
       21
 70
     0
 43
0.0
 10
410.5201439161595
 20
135.7983309411063
 10
414.0513939161595
 20
135.5593779411063
 10
417.7701439161595
 20
136.0281279411063
 10
421.5513939161595
 20
135.6218779411063
 10
425.0513939161595
 20
136.1218779411063
 10
429.0826439161596
 20
135.5906279411063
 10
432.6138939161595
 20
136.1531279411063
 10
437.1451439161595
 20
135.6531279411063
 10
441.8326439161595
 20
136.2781279411063
 10
446.5201439161595
 20
135.6843779411063
 10
450.3326439161595
 20
136.3093779411063
 10
455.6451439161596
 20
135.8093779411063
 10
459.5513939161596
 20
136.4656279411063
 10
464.1763939161595
 20
135.6218779411063
 10
468.5826439161595
 20
136.4656279411063
 10
472.6451439161595
 20
135.5906279411063
 10
476.0201439161595
 20
136.4343779411063
 10
480.3013939161595
 20
135.6843779411063
 10
483.9263939161595
 20
136.4031279411063
 10
487.8013939161595
 20
135.6843779411063
 10
491.5201439161595
 20
136.2266979411063
  0
LINE
  5
1170
330
2
100
AcDbEntity
  8
0
100
AcDbLine
 10
458.7819539161595
 20
150.9871111390592
 30
0.0
 11
456.4489459161596
 21
147.0279131390592
 31
0.0
  0
LINE
  5
1171
330
2
100
AcDbEntity
  8
0
100
AcDbLine
 10
441.7221399161595
 20
150.0067031390591
 30
0.0
 11
423.0201439161595
 21
149.6803181390592
 31
0.0
  0
LINE
  5
1172
330
2
100
AcDbEntity
  8
0
100
AcDbLine
 10
445.5913419161594
 20
146.8097131390591
 30
0.0
 11
443.2583339161595
 21
150.7689111390591
 31
0.0
  0
ARC
  5
1173
330
2
100
AcDbEntity
  8
0
100
AcDbCircle
 10
441.6871359161595
 20
152.0065201390591
 30
0.0
 40
2.0
100
AcDbArc
 50
271.0000000000017
 51
0.0
  0
LINE
  5
1175
330
2
100
AcDbEntity
  8
0
100
AcDbLine
 10
446.0201439161595
 20
148.0471091390591
 30
0.0
 11
446.0201439161595
 21
174.313527139059
 31
0.0
  0
LINE
  5
1176
330
2
100
AcDbEntity
  8
0
100
AcDbLine
 10
456.0201439161595
 20
174.0953271390591
 30
0.0
 11
456.0201439161595
 21
148.2653091390591
 31
0.0
  0
LINE
  5
1177
330
2
100
AcDbEntity
  8
0
100
AcDbLine
 10
444.0551479161596
 20
146.0475061390591
 30
0.0
 11
423.0201439161595
 21
145.6803181390592
 31
0.0
  0
LINE
  5
1179
330
2
100
AcDbEntity
  8
0
100
AcDbLine
 10
451.0201439161595
 20
120.6803181390592
 30
0.0
 11
410.5201439161595
 21
121.3872501390592
 31
0.0
  0
LINE
  5
117B
330
2
100
AcDbEntity
  8
HOJO
100
AcDbLine
 10
443.0201439161595
 20
131.6803181390592
 30
0.0
 11
443.0201439161595
 21
123.6803181390592
 31
0.0
  0
LINE
  5
117C
330
2
100
AcDbEntity
  8
HOJO
100
AcDbLine
 10
423.0201439161595
 20
123.6803181390592
 30
0.0
 11
443.0201439161595
 21
123.6803181390592
 31
0.0
  0
LINE
  5
117D
330
2
100
AcDbEntity
  8
0
100
AcDbLine
 10
410.5201439161595
 20
123.4303181390592
 30
0.0
 11
423.0201439161595
 21
123.4303181390592
 31
0.0
  0
LINE
  5
117F
330
2
100
AcDbEntity
  8
HOJO
100
AcDbLine
 10
423.0201439161595
 20
131.6803181390592
 30
0.0
 11
443.0201439161595
 21
131.6803181390592
 31
0.0
  0
LINE
  5
1180
330
2
100
AcDbEntity
  8
0
100
AcDbLine
 10
412.0201439161595
 20
135.6968287818143
 30
0.0
 11
412.0201439161595
 21
141.1803181390592
 31
0.0
  0
LINE
  5
1181
330
2
100
AcDbEntity
  8
0
100
AcDbLine
 10
417.0201439161595
 20
135.9335901259802
 30
0.0
 11
417.0201439161595
 21
142.1803181390592
 31
0.0
  0
LINE
  5
1182
330
2
100
AcDbEntity
  8
0
100
AcDbLine
 10
416.0201439161595
 20
135.8075397058121
 30
0.0
 11
416.0201439161595
 21
141.4803061390592
 31
0.0
  0
LINE
  5
1183
330
2
100
AcDbEntity
  8
CENTER
100
AcDbLine
 10
410.0805379161593
 20
137.6803181390592
 30
0.0
 11
418.0651569161595
 21
137.6803181390592
 31
0.0
  0
LINE
  5
1184
330
2
100
AcDbEntity
  8
0
100
AcDbLine
 10
410.5201439161595
 20
131.9303181390592
 30
0.0
 11
423.0201439161595
 21
131.9303181390592
 31
0.0
  0
LINE
  5
1185
330
2
100
AcDbEntity
  8
0
100
AcDbLine
 10
423.0201439161595
 20
149.6803181390592
 30
0.0
 11
410.5201439161595
 21
149.6803181390592
 31
0.0
  0
LINE
  5
1186
330
2
100
AcDbEntity
  8
0
100
AcDbLine
 10
423.0201439161595
 20
145.6803181390592
 30
0.0
 11
410.5201439161595
 21
145.6803181390592
 31
0.0
  0
LINE
  5
1187
330
2
100
AcDbEntity
  8
0
100
AcDbLine
 10
410.5201439161595
 20
142.3505151390591
 30
0.0
 11
417.0201439161595
 21
142.1803181390592
 31
0.0
  0
LINE
  5
1188
330
2
100
AcDbEntity
  8
0
100
AcDbLine
 10
412.0201439161595
 20
141.1803181390592
 30
0.0
 11
416.0201439161595
 21
141.1803181390592
 31
0.0
  0
LINE
  5
1189
330
2
100
AcDbEntity
  8
PHAS
  6
SEKKEI_P_S
100
AcDbLine
 10
402.2436849161596
 20
145.3064321390592
 30
0.0
 11
410.5201439161595
 21
143.0887616303136
 31
0.0
  0
LINE
  5
118A
330
2
100
AcDbEntity
  8
0
100
AcDbLine
 10
416.0201439161595
 20
141.4803061390592
 30
0.0
 11
417.0201439161595
 21
141.4803061390592
 31
0.0
  0
LINE
  5
118C
330
2
100
AcDbEntity
  8
HOJO
100
AcDbLine
 10
459.0201439161595
 20
131.6803181390592
 30
0.0
 11
459.0201439161595
 21
123.6803181390592
 31
0.0
  0
ARC
  5
1190
330
2
100
AcDbEntity
  8
0
100
AcDbCircle
 10
444.0201439161596
 20
148.0471091390591
 30
0.0
 40
2.0
100
AcDbArc
 50
271.0000000000017
 51
0.0
  0
ARC
  5
1191
330
2
100
AcDbEntity
  8
0
100
AcDbCircle
 10
458.0201439161595
 20
148.2653091390591
 30
0.0
 40
2.0
100
AcDbArc
 50
180.0
 51
268.9999999999982
  0
LINE
  5
1193
330
2
100
AcDbEntity
  8
0
100
AcDbLine
 10
444.0551479161596
 20
176.3131301390591
 30
0.0
 11
423.0201439161595
 21
176.6803181390592
 31
0.0
  0
LINE
  5
1194
330
2
100
AcDbEntity
  8
0
100
AcDbLine
 10
443.2583339161595
 20
171.5917251390591
 30
0.0
 11
445.5913419161594
 21
175.550923139059
 31
0.0
  0
ARC
  5
1195
330
2
100
AcDbEntity
  8
0
100
AcDbCircle
 10
441.6871359161595
 20
170.3541161390591
 30
0.0
 40
2.0
100
AcDbArc
 50
0.0
 51
88.99999999999822
  0
LINE
  5
1196
330
2
100
AcDbEntity
  8
0
100
AcDbLine
 10
443.6871359161594
 20
170.3541161390591
 30
0.0
 11
443.6871359161594
 21
152.0065201390591
 31
0.0
  0
LINE
  5
1197
330
2
100
AcDbEntity
  8
HIDS
100
AcDbLine
 10
423.0201439161595
 20
190.6803181390592
 30
0.0
 11
443.0201439161595
 21
190.6803181390592
 31
0.0
  0
LINE
  5
1198
330
2
100
AcDbEntity
  8
0
100
AcDbLine
 10
441.7221399161595
 20
172.3539331390591
 30
0.0
 11
423.0201439161595
 21
172.6803181390592
 31
0.0
  0
LINE
  5
1199
330
2
100
AcDbEntity
  8
0
100
AcDbLine
 10
416.0201439161595
 20
188.4803061390592
 30
0.0
 11
416.0201439161595
 21
180.8803301390592
 31
0.0
  0
LINE
  5
119A
330
2
100
AcDbEntity
  8
0
100
AcDbLine
 10
417.0201439161595
 20
189.1803181390592
 30
0.0
 11
417.0201439161595
 21
180.1803181390592
 31
0.0
  0
LINE
  5
119B
330
2
100
AcDbEntity
  8
0
100
AcDbLine
 10
412.0201439161595
 20
188.1803181390592
 30
0.0
 11
412.0201439161595
 21
181.1803181390592
 31
0.0
  0
LINE
  5
119C
330
2
100
AcDbEntity
  8
0
100
AcDbLine
 10
412.0201439161595
 20
181.1803181390592
 30
0.0
 11
416.0201439161595
 21
181.1803181390592
 31
0.0
  0
LINE
  5
119D
330
2
100
AcDbEntity
  8
0
100
AcDbLine
 10
423.0201439161595
 20
176.6803181390592
 30
0.0
 11
410.5201439161595
 21
176.6803181390592
 31
0.0
  0
LINE
  5
119E
330
2
100
AcDbEntity
  8
0
100
AcDbLine
 10
423.0201439161595
 20
172.6803181390592
 30
0.0
 11
410.5201439161595
 21
172.6803181390592
 31
0.0
  0
LINE
  5
119F
330
2
100
AcDbEntity
  8
0
100
AcDbLine
 10
410.5201439161595
 20
180.010121139059
 30
0.0
 11
417.0201439161595
 21
180.1803181390592
 31
0.0
  0
LINE
  5
11A0
330
2
100
AcDbEntity
  8
PHAS
  6
SEKKEI_P_S
100
AcDbLine
 10
402.2436849161596
 20
177.0542041390592
 30
0.0
 11
410.5201439161595
 21
179.2718746478048
 31
0.0
  0
LINE
  5
11A1
330
2
100
AcDbEntity
  8
HIDS
  6
SEKKEI_H
100
AcDbLine
 10
410.5201439161595
 20
190.4303181390592
 30
0.0
 11
423.0201439161595
 21
190.4303181390592
 31
0.0
  0
LINE
  5
11A2
330
2
100
AcDbEntity
  8
CENTER
100
AcDbLine
 10
410.0805379161593
 20
184.6803181390592
 30
0.0
 11
418.0651569161595
 21
184.6803181390592
 31
0.0
  0
LINE
  5
11A3
330
2
100
AcDbEntity
  8
0
100
AcDbLine
 10
410.5201439161595
 20
189.3505151390591
 30
0.0
 11
417.0201439161595
 21
189.1803181390592
 31
0.0
  0
LINE
  5
11A4
330
2
100
AcDbEntity
  8
0
100
AcDbLine
 10
412.0201439161595
 20
188.1803181390592
 30
0.0
 11
416.0201439161595
 21
188.1803181390592
 31
0.0
  0
LINE
  5
11A5
330
2
100
AcDbEntity
  8
0
100
AcDbLine
 10
416.0201439161595
 20
188.4803061390592
 30
0.0
 11
417.0201439161595
 21
188.4803061390592
 31
0.0
  0
ARC
  5
11A7
330
2
100
AcDbEntity
  8
0
100
AcDbCircle
 10
460.3531519161596
 20
170.1359151390591
 30
0.0
 40
2.0
100
AcDbArc
 50
91.00000000000177
 51
180.0
  0
LINE
  5
11A8
330
2
100
AcDbEntity
  8
0
100
AcDbLine
 10
458.7819539161595
 20
171.3735251390591
 30
0.0
 11
456.4489459161596
 21
175.3327231390591
 31
0.0
  0
LINE
  5
11A9
330
2
100
AcDbEntity
  8
0
100
AcDbLine
 10
458.3531519161596
 20
170.1359151390591
 30
0.0
 11
458.3531519161596
 21
152.2247211390591
 31
0.0
  0
ARC
  5
11AA
330
2
100
AcDbEntity
  8
0
100
AcDbCircle
 10
460.3531519161596
 20
152.2247211390591
 30
0.0
 40
2.0
100
AcDbArc
 50
180.0
 51
268.9999999999982
  0
ARC
  5
11AB
330
2
100
AcDbEntity
  8
0
100
AcDbCircle
 10
444.0201439161596
 20
174.313527139059
 30
0.0
 40
2.0
100
AcDbArc
 50
0.0
 51
88.99999999999822
  0
ARC
  5
11AC
330
2
100
AcDbEntity
  8
0
100
AcDbCircle
 10
458.0201439161595
 20
174.0953271390591
 30
0.0
 40
2.0
100
AcDbArc
 50
91.00000000000177
 51
180.0
  0
LINE
  5
11AE
330
2
100
AcDbEntity
  8
PHAS
  6
SEKKEI_P_S
100
AcDbLine
 10
502.0201439161595
 20
174.1564231390592
 30
0.0
 11
502.0201439161595
 21
148.2672931390592
 31
0.0
  0
LINE
  5
11AF
330
2
100
AcDbEntity
  8
PHAS
  6
SEKKEI_P_S
100
AcDbLine
 10
499.7966029161594
 20
145.3064321390592
 30
0.0
 11
491.5201439161595
 21
143.0887616303137
 31
0.0
  0
ARC
  5
11B0
330
2
100
AcDbEntity
  8
PHAS
  6
SEKKEI_P_S
100
AcDbCircle
 10
499.0201439161595
 20
148.2042131390592
 30
0.0
 40
3.0
100
AcDbArc
 50
285.0000000000011
 51
0.0
  0
LINE
  5
11B1
330
2
100
AcDbEntity
  8
PHAS
  6
SEKKEI_P_S
100
AcDbLine
 10
499.7966029161594
 20
177.0542041390592
 30
0.0
 11
491.5201439161595
 21
179.2718746478048
 31
0.0
  0
ARC
  5
11B2
330
2
100
AcDbEntity
  8
PHAS
  6
SEKKEI_P_S
100
AcDbCircle
 10
499.0201439161595
 20
174.1564231390592
 30
0.0
 40
3.0
100
AcDbArc
 50
0.0
 51
74.99999999999883
  0
LINE
  5
11B3
330
2
100
AcDbEntity
  8
0
100
AcDbLine
 10
196.4161472391728
 20
322.1651437734612
 30
0.0
 11
236.9161472391728
 21
322.8720757734612
 31
0.0
  0
LINE
  5
11B4
330
2
100
AcDbEntity
  8
0
100
AcDbLine
 10
196.4161472391728
 20
403.1651437734612
 30
0.0
 11
236.9161472391728
 21
402.4582197734612
 31
0.0
  0
LINE
  5
11B5
330
2
100
AcDbEntity
  8
CENTER
100
AcDbLine
 10
139.6775302391728
 20
362.6651437734612
 30
0.0
 11
253.1547642391728
 21
362.6651437734612
 31
0.0
  0
LINE
  5
11B6
330
2
100
AcDbEntity
  8
PHAS
  6
SEKKEI_P_S
100
AcDbLine
 10
245.1926062391727
 20
346.7912577734612
 30
0.0
 11
231.8161412391729
 21
343.2070447734612
 31
0.0
  0
LINE
  5
11B7
330
2
100
AcDbEntity
  8
PHAS
  6
SEKKEI_P_S
100
AcDbLine
 10
245.1926062391727
 20
378.5390297734612
 30
0.0
 11
231.8161412391729
 21
382.1232427734612
 31
0.0
  0
LWPOLYLINE
  5
11BD
330
2
100
AcDbEntity
  8
HOJO
100
AcDbPolyline
 90
       21
 70
     0
 43
0.0
 10
155.9161472391727
 20
388.7251867734612
 10
159.3902682391727
 20
388.5894757734612
 10
162.9840492391728
 20
389.5570347734612
 10
166.2899872391727
 20
388.2546977734611
 10
166.4495332391728
 20
384.4259467734612
 10
169.5603732391729
 20
380.1983617734612
 10
173.2295932391726
 20
378.6828287734611
 10
175.6225682391729
 20
373.9766517734612
 10
180.2489722391727
 20
372.3813307734612
 10
187.0290622391727
 20
373.0194677734611
 10
193.3305452391729
 20
372.3813307734612
 10
201.3071082391728
 20
373.4182867734612
 10
207.6883642391727
 20
371.9825117734612
 10
213.4314972391726
 20
373.7373487734612
 10
217.8185822391727
 20
372.8599377734612
 10
218.7757662391728
 20
378.3637517734612
 10
225.5558562391728
 20
381.7936837734612
 10
225.7153722391727
 20
386.7391487734612
 10
229.5509742391729
 20
390.0716987734611
 10
233.1989532391727
 20
389.7148267734612
 10
236.9161472391728
 20
390.0865457734612
  0
LWPOLYLINE
  5
11BE
330
2
100
AcDbEntity
  8
HOJO
100
AcDbPolyline
 90
       21
 70
     0
 43
0.0
 10
155.9161472391727
 20
336.6051007734612
 10
159.3902682391727
 20
336.7408047734612
 10
162.9840492391728
 20
335.7732527734612
 10
166.2899872391727
 20
337.0755897734612
 10
166.4495332391728
 20
340.9043407734612
 10
169.5603732391729
 20
345.1319257734612
 10
173.2295932391726
 20
346.6474587734612
 10
175.6225682391729
 20
351.3536357734612
 10
180.2489722391727
 20
352.9489567734612
 10
187.0290622391727
 20
352.3108197734612
 10
193.3305452391729
 20
352.9489567734612
 10
201.3071082391728
 20
351.9120007734612
 10
207.6883642391727
 20
353.3477757734612
 10
213.4314972391726
 20
351.5929387734612
 10
217.8185822391727
 20
352.4703497734612
 10
218.7757662391728
 20
346.9665357734612
 10
225.5558562391728
 20
343.5366037734612
 10
225.7153722391727
 20
338.5911387734612
 10
229.5509742391729
 20
335.2585887734612
 10
233.1989532391727
 20
335.6154537734612
 10
236.9161472391728
 20
335.2437337734612
  0
LINE
  5
11C2
330
2
100
AcDbEntity
  8
0
100
AcDbLine
 10
168.4161472391727
 20
402.6764047734612
 30
0.0
 11
168.4161472391727
 21
381.7533697734612
 31
0.0
  0
LINE
  5
11C3
330
2
100
AcDbEntity
  8
0
100
AcDbLine
 10
155.9161472391727
 20
402.4582197734612
 30
0.0
 11
155.9161472391727
 21
322.8720757734612
 31
0.0
  0
LINE
  5
11C4
330
2
100
AcDbEntity
  8
CENTER
100
AcDbLine
 10
196.4161472391728
 20
410.2132697734612
 30
0.0
 11
196.4161472391728
 21
315.1170177734612
 31
0.0
  0
LINE
  5
11E0
330
2
100
AcDbEntity
  8
PHAS
  6
SEKKEI_P_S
100
AcDbLine
 10
147.6396882391728
 20
378.5390297734612
 30
0.0
 11
161.0161532391726
 21
382.1232427734612
 31
0.0
  0
LINE
  5
11E1
330
2
100
AcDbEntity
  8
PHAS
  6
SEKKEI_P_S
100
AcDbLine
 10
147.6396882391728
 20
346.7912577734612
 30
0.0
 11
161.0161532391726
 21
343.2070447734612
 31
0.0
  0
LINE
  5
11E2
330
2
100
AcDbEntity
  8
PHAS
  6
SEKKEI_P_S
100
AcDbLine
 10
145.4161472391727
 20
375.6412487734612
 30
0.0
 11
145.4161472391727
 21
349.7521187734612
 31
0.0
  0
ARC
  5
11E3
330
2
100
AcDbEntity
  8
PHAS
  6
SEKKEI_P_S
100
AcDbCircle
 10
148.4161472391727
 20
349.6890387734612
 30
0.0
 40
3.0
100
AcDbArc
 50
180.0
 51
254.9999999999988
  0
ARC
  5
11E4
330
2
100
AcDbEntity
  8
PHAS
  6
SEKKEI_P_S
100
AcDbCircle
 10
148.4161472391727
 20
375.6412487734612
 30
0.0
 40
3.0
100
AcDbArc
 50
105.0000000000011
 51
180.0
  0
LINE
  5
11E5
330
2
100
AcDbEntity
  8
0
100
AcDbLine
 10
231.4160552391728
 20
372.6651437734612
 30
0.0
 11
231.4160552391728
 21
352.6651437734612
 31
0.0
  0
LINE
  5
11E6
330
2
100
AcDbEntity
  8
0
100
AcDbLine
 10
161.4162392391728
 20
372.6651437734612
 30
0.0
 11
161.4162392391728
 21
352.6651437734612
 31
0.0
  0
LINE
  5
11E7
330
2
100
AcDbEntity
  8
0
100
AcDbLine
 10
161.0161532391726
 20
383.5151497734612
 30
0.0
 11
161.0161532391726
 21
341.8151377734612
 31
0.0
  0
LINE
  5
11E8
330
2
100
AcDbEntity
  8
0
100
AcDbLine
 10
158.4161472391728
 20
341.0655647734612
 30
0.0
 11
158.4161472391728
 21
384.2647227734612
 31
0.0
  0
LINE
  5
11E9
330
2
100
AcDbEntity
  8
0
100
AcDbLine
 10
231.8161412391729
 20
383.5151497734612
 30
0.0
 11
231.8161412391729
 21
341.8151377734612
 31
0.0
  0
LINE
  5
11EA
330
2
100
AcDbEntity
  8
0
100
AcDbLine
 10
234.4161472391728
 20
341.0655647734612
 30
0.0
 11
234.4161472391728
 21
384.2647227734612
 31
0.0
  0
LINE
  5
11EB
330
2
100
AcDbEntity
  8
0
100
AcDbLine
 10
196.4161472391728
 20
322.1651437734612
 30
0.0
 11
155.9161472391727
 21
322.8720757734612
 31
0.0
  0
LINE
  5
11EC
330
2
100
AcDbEntity
  8
0
100
AcDbLine
 10
168.4161472391727
 20
322.6538827734612
 30
0.0
 11
168.4161472391727
 21
343.5769327734612
 31
0.0
  0
LINE
  5
11ED
330
2
100
AcDbEntity
  8
0
100
AcDbLine
 10
171.4161472391728
 20
350.1651437734612
 30
0.0
 11
175.0182592391728
 21
350.1651437734612
 31
0.0
  0
LINE
  5
11EE
330
2
100
AcDbEntity
  8
0
100
AcDbLine
 10
163.4161472391728
 20
341.8151377734612
 30
0.0
 11
163.4161472391728
 21
352.6651437734612
 31
0.0
  0
LINE
  5
11EF
330
2
100
AcDbEntity
  8
PHAS
100
AcDbLine
 10
162.2161652391729
 20
343.1651437734612
 30
0.0
 11
163.4161472391728
 21
343.2070447734612
 31
0.0
  0
ARC
  5
11F0
330
2
100
AcDbEntity
  8
PHAS
100
AcDbCircle
 10
162.2161652391729
 20
343.3851447734612
 30
0.0
 40
1.219999999999999
100
AcDbArc
 50
188.3022610000004
 51
349.6111449999996
  0
LINE
  5
11F1
330
2
100
AcDbEntity
  8
0
100
AcDbLine
 10
162.6001992391728
 20
338.1422787734612
 30
0.0
 11
159.7320952391727
 21
339.1861707734612
 31
0.0
  0
LINE
  5
11F2
330
2
100
AcDbEntity
  8
0
100
AcDbLine
 10
161.0161532391726
 20
341.8151377734612
 30
0.0
 11
163.4161472391728
 21
341.8151377734612
 31
0.0
  0
LINE
  5
11F3
330
2
100
AcDbEntity
  8
0
100
AcDbLine
 10
158.4161472391728
 20
343.1651437734612
 30
0.0
 11
161.0161532391726
 21
343.1651437734612
 31
0.0
  0
LINE
  5
11F4
330
2
100
AcDbEntity
  8
PHAS
100
AcDbLine
 10
162.2161652391729
 20
343.1651437734612
 30
0.0
 11
161.0161532391726
 21
343.2070447734612
 31
0.0
  0
LINE
  5
11F5
330
2
100
AcDbEntity
  8
0
100
AcDbLine
 10
155.9161472391727
 20
334.4949317734612
 30
0.0
 11
162.4161472391728
 21
334.6651437734612
 31
0.0
  0
ARC
  5
11F6
330
2
100
AcDbEntity
  8
0
100
AcDbCircle
 10
160.4161472391728
 20
341.0655647734612
 30
0.0
 40
2.0
100
AcDbArc
 50
180.0
 51
250.0000000000029
  0
LINE
  5
11F7
330
2
100
AcDbEntity
  8
0
100
AcDbLine
 10
161.4161162391727
 20
335.3651557734612
 30
0.0
 11
162.4161472391728
 21
335.3651557734612
 31
0.0
  0
LINE
  5
11F8
330
2
100
AcDbEntity
  8
0
100
AcDbLine
 10
161.4161162391727
 20
335.3651557734612
 30
0.0
 11
161.4161162391727
 21
336.1953867734612
 31
0.0
  0
LINE
  5
11F9
330
2
100
AcDbEntity
  8
0
100
AcDbLine
 10
157.4161162391727
 20
335.6651287734612
 30
0.0
 11
157.4161162391727
 21
336.6636937734611
 31
0.0
  0
LINE
  5
11FA
330
2
100
AcDbEntity
  8
0
100
AcDbLine
 10
157.4161162391727
 20
335.6651287734612
 30
0.0
 11
161.4161162391727
 21
335.6651127734612
 31
0.0
  0
LINE
  5
11FB
330
2
100
AcDbEntity
  8
0
100
AcDbLine
 10
162.4161472391728
 20
334.6651437734612
 30
0.0
 11
162.4161472391728
 21
335.9261527734612
 31
0.0
  0
LINE
  5
11FC
330
2
100
AcDbEntity
  8
0
100
AcDbLine
 10
163.9161472391728
 20
336.1404397734612
 30
0.0
 11
163.9161472391728
 21
336.2628917734612
 31
0.0
  0
ARC
  5
11FD
330
2
100
AcDbEntity
  8
0
100
AcDbCircle
 10
161.9161472391728
 20
336.2628917734612
 30
0.0
 40
2.0
100
AcDbArc
 50
0.0
 51
69.99999200000162
  0
LINE
  5
11FE
330
2
100
AcDbEntity
  8
0
100
AcDbLine
 10
161.4162392391728
 20
352.6651437734612
 30
0.0
 11
171.4161472391728
 21
352.6651437734612
 31
0.0
  0
LINE
  5
11FF
330
2
100
AcDbEntity
  8
0
100
AcDbLine
 10
164.4161472391727
 20
346.6651437734612
 30
0.0
 11
171.4161472391728
 21
346.6651437734612
 31
0.0
  0
LINE
  5
1200
330
2
100
AcDbEntity
  8
0
100
AcDbLine
 10
164.4161472391727
 20
346.6651437734612
 30
0.0
 11
170.4161472391727
 21
352.6651437734612
 31
0.0
  0
LINE
  5
1201
330
2
100
AcDbEntity
  8
0
100
AcDbLine
 10
170.4161472391727
 20
346.6651437734612
 30
0.0
 11
164.4161472391727
 21
352.6651437734612
 31
0.0
  0
LINE
  5
1202
330
2
100
AcDbEntity
  8
0
100
AcDbLine
 10
164.4161472391727
 20
346.6651437734612
 30
0.0
 11
164.4161472391727
 21
352.6651437734612
 31
0.0
  0
LINE
  5
1203
330
2
100
AcDbEntity
  8
0
100
AcDbLine
 10
164.4161472391727
 20
346.6651437734612
 30
0.0
 11
163.4161472391728
 21
346.0877967734612
 31
0.0
  0
LINE
  5
1204
330
2
100
AcDbEntity
  8
0
100
AcDbLine
 10
171.4161472391728
 20
345.8984357734612
 30
0.0
 11
171.4161472391728
 21
352.6651437734612
 31
0.0
  0
LINE
  5
1205
330
2
100
AcDbEntity
  8
0
100
AcDbLine
 10
170.4161472391727
 20
346.6651437734612
 30
0.0
 11
170.4161472391727
 21
352.6651437734612
 31
0.0
  0
LINE
  5
1206
330
2
100
AcDbEntity
  8
0
100
AcDbLine
 10
189.4510592391728
 20
347.5323157734612
 30
0.0
 11
173.5383092391726
 21
347.2545447734612
 31
0.0
  0
LINE
  5
1207
330
2
100
AcDbEntity
  8
0
100
AcDbLine
 10
187.1181432391728
 20
351.4915907734612
 30
0.0
 11
175.5904022391727
 21
351.2903727734612
 31
0.0
  0
ARC
  5
1208
330
2
100
AcDbEntity
  8
0
100
AcDbCircle
 10
189.4161472391727
 20
349.5320107734612
 30
0.0
 40
2.0
100
AcDbArc
 50
271.0000000000017
 51
0.0
  0
ARC
  5
1209
330
2
100
AcDbEntity
  8
0
100
AcDbCircle
 10
187.0832312391727
 20
353.4912847734612
 30
0.0
 40
2.0
100
AcDbArc
 50
271.0000000000017
 51
330.0149539999982
  0
LINE
  5
120A
330
2
100
AcDbEntity
  8
0
100
AcDbLine
 10
190.9872832391728
 20
348.2944467734612
 30
0.0
 11
188.6543672391727
 21
352.2537367734612
 31
0.0
  0
LINE
  5
120B
330
2
100
AcDbEntity
  8
0
100
AcDbLine
 10
191.4161472391727
 20
349.5320107734612
 30
0.0
 11
191.4161472391727
 21
352.7550947734612
 31
0.0
  0
LINE
  5
120C
330
2
100
AcDbEntity
  8
0
100
AcDbLine
 10
203.3812352391727
 20
347.7505017734612
 30
0.0
 11
218.6858922391728
 21
347.4833507734611
 31
0.0
  0
LINE
  5
120D
330
2
100
AcDbEntity
  8
0
100
AcDbLine
 10
205.7141512391727
 20
351.7097757734612
 30
0.0
 11
217.9881382391728
 21
351.4955267734612
 31
0.0
  0
ARC
  5
120E
330
2
100
AcDbEntity
  8
0
100
AcDbCircle
 10
205.7490632391728
 20
353.7094707734612
 30
0.0
 40
2.0
100
AcDbArc
 50
215.5904390000004
 51
268.9999999999982
  0
ARC
  5
120F
330
2
100
AcDbEntity
  8
0
100
AcDbCircle
 10
203.4161472391728
 20
349.7501957734612
 30
0.0
 40
2.0
100
AcDbArc
 50
180.0
 51
268.9999999999982
  0
LINE
  5
1210
330
2
100
AcDbEntity
  8
0
100
AcDbLine
 10
204.1779272391728
 20
352.4719217734612
 30
0.0
 11
201.8450112391728
 21
348.5126477734612
 31
0.0
  0
LINE
  5
1211
330
2
100
AcDbEntity
  8
0
100
AcDbLine
 10
201.4161472391728
 20
349.7501957734612
 30
0.0
 11
201.4161472391728
 21
351.9365367734612
 31
0.0
  0
LINE
  5
1212
330
2
100
AcDbEntity
  8
0
100
AcDbLine
 10
229.4161472391727
 20
341.8151377734612
 30
0.0
 11
229.4161472391727
 21
352.6651437734612
 31
0.0
  0
LINE
  5
1213
330
2
100
AcDbEntity
  8
0
100
AcDbLine
 10
234.4161472391728
 20
343.1651437734612
 30
0.0
 11
231.8161412391729
 21
343.1651437734612
 31
0.0
  0
LINE
  5
1214
330
2
100
AcDbEntity
  8
PHAS
100
AcDbLine
 10
230.6161292391728
 20
343.1651437734612
 30
0.0
 11
229.4161472391727
 21
343.2070447734612
 31
0.0
  0
LINE
  5
1215
330
2
100
AcDbEntity
  8
PHAS
100
AcDbLine
 10
230.6161292391728
 20
343.1651437734612
 30
0.0
 11
231.8161412391729
 21
343.2070447734612
 31
0.0
  0
ARC
  5
1216
330
2
100
AcDbEntity
  8
PHAS
100
AcDbCircle
 10
230.6161292391728
 20
343.3851447734612
 30
0.0
 40
1.219999999999999
100
AcDbArc
 50
190.3888549999995
 51
351.6977370000001
  0
ARC
  5
1217
330
2
100
AcDbEntity
  8
0
100
AcDbCircle
 10
232.4161472391728
 20
341.0655647734612
 30
0.0
 40
2.0
100
AcDbArc
 50
289.999999999997
 51
0.0
  0
LINE
  5
1218
330
2
100
AcDbEntity
  8
0
100
AcDbLine
 10
230.2320042391728
 20
338.1422407734612
 30
0.0
 11
233.1001992391726
 21
339.1861707734612
 31
0.0
  0
ARC
  5
1219
330
2
100
AcDbEntity
  8
0
100
AcDbCircle
 10
230.9160552391728
 20
336.2628537734612
 30
0.0
 40
2.0
100
AcDbArc
 50
110.0000079999983
 51
180.0
  0
LINE
  5
121A
330
2
100
AcDbEntity
  8
0
100
AcDbLine
 10
228.9160552391728
 20
335.8102397734612
 30
0.0
 11
228.9160552391728
 21
336.2628537734612
 31
0.0
  0
LINE
  5
121B
330
2
100
AcDbEntity
  8
0
100
AcDbLine
 10
231.8161412391729
 20
341.8151377734612
 30
0.0
 11
229.4161472391727
 21
341.8151377734612
 31
0.0
  0
LINE
  5
121C
330
2
100
AcDbEntity
  8
0
100
AcDbLine
 10
231.4160552391728
 20
352.6651437734612
 30
0.0
 11
221.4161472391728
 21
352.6651437734612
 31
0.0
  0
LINE
  5
121D
330
2
100
AcDbEntity
  8
0
100
AcDbLine
 10
228.4161472391728
 20
346.6651437734612
 30
0.0
 11
221.4161472391728
 21
346.6651437734612
 31
0.0
  0
LINE
  5
121E
330
2
100
AcDbEntity
  8
0
100
AcDbLine
 10
228.4161472391728
 20
346.6651437734612
 30
0.0
 11
222.4161472391728
 21
352.6651437734612
 31
0.0
  0
LINE
  5
121F
330
2
100
AcDbEntity
  8
0
100
AcDbLine
 10
222.4161472391728
 20
346.6651437734612
 30
0.0
 11
228.4161472391728
 21
352.6651437734612
 31
0.0
  0
LINE
  5
1220
330
2
100
AcDbEntity
  8
0
100
AcDbLine
 10
221.4161472391728
 20
345.6308117734612
 30
0.0
 11
221.4161472391728
 21
352.6651437734612
 31
0.0
  0
LINE
  5
1221
330
2
100
AcDbEntity
  8
0
100
AcDbLine
 10
222.4161472391728
 20
346.6651437734612
 30
0.0
 11
222.4161472391728
 21
352.6651437734612
 31
0.0
  0
LINE
  5
1222
330
2
100
AcDbEntity
  8
0
100
AcDbLine
 10
221.4161472391728
 20
350.1651437734612
 30
0.0
 11
218.2194922391728
 21
350.1651437734612
 31
0.0
  0
LINE
  5
1223
330
2
100
AcDbEntity
  8
0
100
AcDbLine
 10
228.4161472391728
 20
346.6651437734612
 30
0.0
 11
228.4161472391728
 21
352.6651437734612
 31
0.0
  0
LINE
  5
1224
330
2
100
AcDbEntity
  8
0
100
AcDbLine
 10
228.4161472391728
 20
346.6651437734612
 30
0.0
 11
229.4161472391727
 21
346.0877967734612
 31
0.0
  0
LINE
  5
1225
330
2
100
AcDbEntity
  8
0
100
AcDbLine
 10
181.4162392391727
 20
356.1651437734612
 30
0.0
 11
211.4160552391727
 21
356.1651437734612
 31
0.0
  0
LINE
  5
1226
330
2
100
AcDbEntity
  8
0
100
AcDbLine
 10
231.4160552391728
 20
370.4651467734612
 30
0.0
 11
161.4162392391728
 21
370.4651467734612
 31
0.0
  0
LINE
  5
1227
330
2
100
AcDbEntity
  8
0
100
AcDbLine
 10
211.4160552391727
 20
369.1651437734612
 30
0.0
 11
181.4162392391727
 21
369.1651437734612
 31
0.0
  0
ARC
  5
1228
330
2
100
AcDbEntity
  8
0
100
AcDbCircle
 10
189.4161472391727
 20
375.7982767734612
 30
0.0
 40
2.0
100
AcDbArc
 50
0.0
 51
88.99999999999822
  0
LINE
  5
1229
330
2
100
AcDbEntity
  8
0
100
AcDbLine
 10
164.4161472391727
 20
378.6651437734612
 30
0.0
 11
170.4161472391727
 21
372.6651437734612
 31
0.0
  0
LINE
  5
122A
330
2
100
AcDbEntity
  8
0
100
AcDbLine
 10
170.4161472391727
 20
378.6651437734612
 30
0.0
 11
164.4161472391727
 21
372.6651437734612
 31
0.0
  0
LINE
  5
122B
330
2
100
AcDbEntity
  8
0
100
AcDbLine
 10
163.4161472391728
 20
383.5151497734612
 30
0.0
 11
163.4161472391728
 21
372.6651437734612
 31
0.0
  0
LINE
  5
122C
330
2
100
AcDbEntity
  8
0
100
AcDbLine
 10
164.4161472391727
 20
378.6651437734612
 30
0.0
 11
164.4161472391727
 21
372.6651437734612
 31
0.0
  0
LINE
  5
122D
330
2
100
AcDbEntity
  8
0
100
AcDbLine
 10
171.4161472391728
 20
372.6651437734612
 30
0.0
 11
171.4161472391728
 21
379.4318517734612
 31
0.0
  0
LINE
  5
122E
330
2
100
AcDbEntity
  8
0
100
AcDbLine
 10
170.4161472391727
 20
378.6651437734612
 30
0.0
 11
170.4161472391727
 21
372.6651437734612
 31
0.0
  0
LINE
  5
122F
330
2
100
AcDbEntity
  8
0
100
AcDbLine
 10
188.6543672391727
 20
373.0765507734612
 30
0.0
 11
190.9872832391728
 21
377.0358407734612
 31
0.0
  0
LINE
  5
1230
330
2
100
AcDbEntity
  8
0
100
AcDbLine
 10
171.4161472391728
 20
375.1651437734612
 30
0.0
 11
175.0182592391728
 21
375.1651437734612
 31
0.0
  0
LINE
  5
1231
330
2
100
AcDbEntity
  8
0
100
AcDbLine
 10
169.4162392391727
 20
356.6651437734612
 30
0.0
 11
181.4162392391727
 21
356.6651437734612
 31
0.0
  0
LINE
  5
1232
330
2
100
AcDbEntity
  8
0
100
AcDbLine
 10
169.4162392391727
 20
368.3220037734612
 30
0.0
 11
181.4162392391727
 21
368.3220037734612
 31
0.0
  0
LINE
  5
1233
330
2
100
AcDbEntity
  8
0
100
AcDbLine
 10
163.4162392391727
 20
356.6651437734612
 30
0.0
 11
163.4162392391727
 21
368.6651437734612
 31
0.0
  0
LINE
  5
1234
330
2
100
AcDbEntity
  8
0
100
AcDbLine
 10
169.4162392391727
 20
356.4151437734612
 30
0.0
 11
169.4162392391727
 21
368.9151437734612
 31
0.0
  0
LINE
  5
1235
330
2
100
AcDbEntity
  8
0
100
AcDbLine
 10
168.2662452391729
 20
356.4151437734612
 30
0.0
 11
168.2662452391729
 21
368.9151437734612
 31
0.0
  0
LINE
  5
1236
330
2
100
AcDbEntity
  8
0
100
AcDbLine
 10
163.4162392391727
 20
356.6651437734612
 30
0.0
 11
161.4162392391728
 21
355.5104497734612
 31
0.0
  0
LINE
  5
1237
330
2
100
AcDbEntity
  8
0
100
AcDbLine
 10
163.4162392391727
 20
356.6651437734612
 30
0.0
 11
168.2662452391729
 21
356.6651437734612
 31
0.0
  0
LINE
  5
1238
330
2
100
AcDbEntity
  8
0
100
AcDbLine
 10
168.2662452391729
 20
356.4151437734612
 30
0.0
 11
169.4162392391727
 21
356.4151437734612
 31
0.0
  0
LINE
  5
1239
330
2
100
AcDbEntity
  8
0
100
AcDbLine
 10
163.4162392391727
 20
368.6651437734612
 30
0.0
 11
161.4162392391728
 21
369.8198527734612
 31
0.0
  0
LINE
  5
123A
330
2
100
AcDbEntity
  8
0
100
AcDbLine
 10
161.4162392391728
 20
372.6651437734612
 30
0.0
 11
171.4161472391728
 21
372.6651437734612
 31
0.0
  0
LINE
  5
123B
330
2
100
AcDbEntity
  8
0
100
AcDbLine
 10
163.4162392391727
 20
368.3220037734612
 30
0.0
 11
168.2662452391729
 21
368.3220037734612
 31
0.0
  0
LINE
  5
123C
330
2
100
AcDbEntity
  8
0
100
AcDbLine
 10
168.2662452391729
 20
368.9151437734612
 30
0.0
 11
169.4162392391727
 21
368.9151437734612
 31
0.0
  0
LINE
  5
123D
330
2
100
AcDbEntity
  8
0
100
AcDbLine
 10
181.4162392391727
 20
356.1651437734612
 30
0.0
 11
181.4162392391727
 21
369.1651437734612
 31
0.0
  0
LINE
  5
123E
330
2
100
AcDbEntity
  8
0
100
AcDbLine
 10
187.1181432391728
 20
373.8386967734612
 30
0.0
 11
175.5904022391727
 21
374.0399147734612
 31
0.0
  0
ARC
  5
123F
330
2
100
AcDbEntity
  8
0
100
AcDbCircle
 10
187.0832312391727
 20
371.8390027734613
 30
0.0
 40
2.0
100
AcDbArc
 50
29.9850520000009
 51
88.99999999999822
  0
LINE
  5
1240
330
2
100
AcDbEntity
  8
0
100
AcDbLine
 10
191.4161472391727
 20
372.5751927734612
 30
0.0
 11
191.4161472391727
 21
375.7982767734612
 31
0.0
  0
ARC
  5
1241
330
2
100
AcDbEntity
  8
0
100
AcDbCircle
 10
161.9161472391728
 20
389.0673957734612
 30
0.0
 40
2.0
100
AcDbArc
 50
290.0000079999983
 51
0.0
  0
LINE
  5
1242
330
2
100
AcDbEntity
  8
0
100
AcDbLine
 10
162.6001992391728
 20
387.1880167734612
 30
0.0
 11
159.7320952391727
 21
386.1441167734612
 31
0.0
  0
LINE
  5
1243
330
2
100
AcDbEntity
  8
0
100
AcDbLine
 10
161.0161532391726
 20
383.5151497734612
 30
0.0
 11
163.4161472391728
 21
383.5151497734612
 31
0.0
  0
LINE
  5
1244
330
2
100
AcDbEntity
  8
PHAS
100
AcDbLine
 10
162.2161652391729
 20
382.1651437734612
 30
0.0
 11
163.4161472391728
 21
382.1232427734612
 31
0.0
  0
ARC
  5
1245
330
2
100
AcDbEntity
  8
PHAS
100
AcDbCircle
 10
162.2161652391729
 20
381.9451427734612
 30
0.0
 40
1.219999999999999
100
AcDbArc
 50
10.38885499999955
 51
171.6977389999994
  0
LINE
  5
1246
330
2
100
AcDbEntity
  8
0
100
AcDbLine
 10
158.4161472391728
 20
382.1651437734612
 30
0.0
 11
161.0161532391726
 21
382.1651437734612
 31
0.0
  0
LINE
  5
1247
330
2
100
AcDbEntity
  8
PHAS
100
AcDbLine
 10
162.2161652391729
 20
382.1651437734612
 30
0.0
 11
161.0161532391726
 21
382.1232427734612
 31
0.0
  0
ARC
  5
1248
330
2
100
AcDbEntity
  8
0
100
AcDbCircle
 10
160.4161472391728
 20
384.2647227734612
 30
0.0
 40
2.0
100
AcDbArc
 50
109.999999999997
 51
180.0
  0
LINE
  5
1249
330
2
100
AcDbEntity
  8
0
100
AcDbLine
 10
164.4161472391727
 20
378.6651437734612
 30
0.0
 11
171.4161472391728
 21
378.6651437734612
 31
0.0
  0
LINE
  5
124A
330
2
100
AcDbEntity
  8
0
100
AcDbLine
 10
164.4161472391727
 20
378.6651437734612
 30
0.0
 11
163.4161472391728
 21
379.2424907734612
 31
0.0
  0
LINE
  5
124B
330
2
100
AcDbEntity
  8
0
100
AcDbLine
 10
155.9161472391727
 20
390.8353557734613
 30
0.0
 11
162.4161472391728
 21
390.6651437734612
 31
0.0
  0
LINE
  5
124C
330
2
100
AcDbEntity
  8
0
100
AcDbLine
 10
157.4161162391727
 20
389.6651587734612
 30
0.0
 11
157.4161162391727
 21
388.6665937734612
 31
0.0
  0
LINE
  5
124D
330
2
100
AcDbEntity
  8
0
100
AcDbLine
 10
161.4161162391727
 20
389.9651317734612
 30
0.0
 11
162.4161472391728
 21
389.9651317734612
 31
0.0
  0
LINE
  5
124E
330
2
100
AcDbEntity
  8
0
100
AcDbLine
 10
157.4161162391727
 20
389.6651587734612
 30
0.0
 11
161.4161162391727
 21
389.6651747734612
 31
0.0
  0
LINE
  5
124F
330
2
100
AcDbEntity
  8
0
100
AcDbLine
 10
161.4161162391727
 20
389.9651317734612
 30
0.0
 11
161.4161162391727
 21
389.1349007734612
 31
0.0
  0
LINE
  5
1250
330
2
100
AcDbEntity
  8
0
100
AcDbLine
 10
162.4161472391728
 20
390.6651437734612
 30
0.0
 11
162.4161472391728
 21
389.4041417734612
 31
0.0
  0
LINE
  5
1251
330
2
100
AcDbEntity
  8
0
100
AcDbLine
 10
163.9161472391728
 20
389.1898477734612
 30
0.0
 11
163.9161472391728
 21
389.0673957734612
 31
0.0
  0
LINE
  5
1252
330
2
100
AcDbEntity
  8
0
100
AcDbLine
 10
189.4510592391728
 20
377.7979867734612
 30
0.0
 11
173.5383092391726
 21
378.0757427734612
 31
0.0
  0
ARC
  5
1253
330
2
100
AcDbEntity
  8
0
100
AcDbCircle
 10
203.4161472391728
 20
375.5800917734612
 30
0.0
 40
2.0
100
AcDbArc
 50
91.00000000000177
 51
180.0
  0
LINE
  5
1254
330
2
100
AcDbEntity
  8
0
100
AcDbLine
 10
228.4161472391728
 20
378.6651437734612
 30
0.0
 11
222.4161472391728
 21
372.6651437734612
 31
0.0
  0
LINE
  5
1255
330
2
100
AcDbEntity
  8
0
100
AcDbLine
 10
222.4161472391728
 20
378.6651437734612
 30
0.0
 11
228.4161472391728
 21
372.6651437734612
 31
0.0
  0
LINE
  5
1256
330
2
100
AcDbEntity
  8
0
100
AcDbLine
 10
221.4161472391728
 20
372.6651437734612
 30
0.0
 11
221.4161472391728
 21
379.6994757734612
 31
0.0
  0
LINE
  5
1257
330
2
100
AcDbEntity
  8
0
100
AcDbLine
 10
222.4161472391728
 20
378.6651437734612
 30
0.0
 11
222.4161472391728
 21
372.6651437734612
 31
0.0
  0
LINE
  5
1258
330
2
100
AcDbEntity
  8
0
100
AcDbLine
 10
229.4161472391727
 20
383.5151497734612
 30
0.0
 11
229.4161472391727
 21
372.6651437734612
 31
0.0
  0
LINE
  5
1259
330
2
100
AcDbEntity
  8
0
100
AcDbLine
 10
228.4161472391728
 20
378.6651437734612
 30
0.0
 11
228.4161472391728
 21
372.6651437734612
 31
0.0
  0
LINE
  5
125A
330
2
100
AcDbEntity
  8
0
100
AcDbLine
 10
223.4160552391728
 20
368.3220037734612
 30
0.0
 11
211.4160552391727
 21
368.3220037734612
 31
0.0
  0
LINE
  5
125B
330
2
100
AcDbEntity
  8
0
100
AcDbLine
 10
223.4160552391728
 20
356.6651437734612
 30
0.0
 11
211.4160552391727
 21
356.6651437734612
 31
0.0
  0
LINE
  5
125C
330
2
100
AcDbEntity
  8
0
100
AcDbLine
 10
205.7141512391727
 20
373.6205117734612
 30
0.0
 11
217.9881382391728
 21
373.8347607734612
 31
0.0
  0
LINE
  5
125D
330
2
100
AcDbEntity
  8
0
100
AcDbLine
 10
211.4160552391727
 20
356.1651437734612
 30
0.0
 11
211.4160552391727
 21
369.1651437734612
 31
0.0
  0
ARC
  5
125E
330
2
100
AcDbEntity
  8
0
100
AcDbCircle
 10
205.7490632391728
 20
371.6208167734612
 30
0.0
 40
2.0
100
AcDbArc
 50
91.00000000000177
 51
144.4095609999995
  0
LINE
  5
125F
330
2
100
AcDbEntity
  8
0
100
AcDbLine
 10
204.1779272391728
 20
372.8583657734612
 30
0.0
 11
201.8450112391728
 21
376.8176397734612
 31
0.0
  0
LINE
  5
1260
330
2
100
AcDbEntity
  8
0
100
AcDbLine
 10
201.4161472391728
 20
375.5800917734612
 30
0.0
 11
201.4161472391728
 21
373.3937507734612
 31
0.0
  0
LINE
  5
1261
330
2
100
AcDbEntity
  8
0
100
AcDbLine
 10
223.4160552391728
 20
356.4151437734612
 30
0.0
 11
223.4160552391728
 21
368.9151437734612
 31
0.0
  0
LINE
  5
1262
330
2
100
AcDbEntity
  8
0
100
AcDbLine
 10
224.5660492391726
 20
356.4151437734612
 30
0.0
 11
224.5660492391726
 21
368.9151437734612
 31
0.0
  0
LINE
  5
1263
330
2
100
AcDbEntity
  8
0
100
AcDbLine
 10
229.4160552391728
 20
356.6651437734612
 30
0.0
 11
229.4160552391728
 21
368.6651437734612
 31
0.0
  0
LINE
  5
1264
330
2
100
AcDbEntity
  8
0
100
AcDbLine
 10
229.4160552391728
 20
356.6651437734612
 30
0.0
 11
224.5660492391726
 21
356.6651437734612
 31
0.0
  0
LINE
  5
1265
330
2
100
AcDbEntity
  8
0
100
AcDbLine
 10
224.5660492391726
 20
356.4151437734612
 30
0.0
 11
223.4160552391728
 21
356.4151437734612
 31
0.0
  0
LINE
  5
1266
330
2
100
AcDbEntity
  8
0
100
AcDbLine
 10
229.4160552391728
 20
356.6651437734612
 30
0.0
 11
231.4160552391728
 21
355.5104497734612
 31
0.0
  0
LINE
  5
1267
330
2
100
AcDbEntity
  8
0
100
AcDbLine
 10
231.4160552391728
 20
372.6651437734612
 30
0.0
 11
221.4161472391728
 21
372.6651437734612
 31
0.0
  0
LINE
  5
1268
330
2
100
AcDbEntity
  8
0
100
AcDbLine
 10
229.4160552391728
 20
368.3220037734612
 30
0.0
 11
224.5660492391726
 21
368.3220037734612
 31
0.0
  0
LINE
  5
1269
330
2
100
AcDbEntity
  8
0
100
AcDbLine
 10
221.4161472391728
 20
375.1651437734612
 30
0.0
 11
218.2194922391728
 21
375.1651437734612
 31
0.0
  0
LINE
  5
126A
330
2
100
AcDbEntity
  8
0
100
AcDbLine
 10
224.5660492391726
 20
368.9151437734612
 30
0.0
 11
223.4160552391728
 21
368.9151437734612
 31
0.0
  0
LINE
  5
126B
330
2
100
AcDbEntity
  8
0
100
AcDbLine
 10
229.4160552391728
 20
368.6651437734612
 30
0.0
 11
231.4160552391728
 21
369.8198527734612
 31
0.0
  0
LINE
  5
126C
330
2
100
AcDbEntity
  8
0
100
AcDbLine
 10
203.3812352391727
 20
377.5797857734612
 30
0.0
 11
218.6858922391728
 21
377.8469367734612
 31
0.0
  0
ARC
  5
126D
330
2
100
AcDbEntity
  8
0
100
AcDbCircle
 10
230.9160552391728
 20
389.0674267734612
 30
0.0
 40
2.0
100
AcDbArc
 50
180.0
 51
250.0000000000029
  0
LINE
  5
126E
330
2
100
AcDbEntity
  8
0
100
AcDbLine
 10
228.4161472391728
 20
378.6651437734612
 30
0.0
 11
221.4161472391728
 21
378.6651437734612
 31
0.0
  0
LINE
  5
126F
330
2
100
AcDbEntity
  8
0
100
AcDbLine
 10
230.2320042391728
 20
387.1880467734612
 30
0.0
 11
233.1001992391726
 21
386.1441167734612
 31
0.0
  0
LINE
  5
1270
330
2
100
AcDbEntity
  8
0
100
AcDbLine
 10
228.4161472391728
 20
378.6651437734612
 30
0.0
 11
229.4161472391727
 21
379.2424907734612
 31
0.0
  0
LINE
  5
1271
330
2
100
AcDbEntity
  8
0
100
AcDbLine
 10
234.4161472391728
 20
382.1651437734612
 30
0.0
 11
231.8161412391729
 21
382.1651437734612
 31
0.0
  0
LINE
  5
1272
330
2
100
AcDbEntity
  8
0
100
AcDbLine
 10
231.8161412391729
 20
383.5151497734612
 30
0.0
 11
229.4161472391727
 21
383.5151497734612
 31
0.0
  0
LINE
  5
1273
330
2
100
AcDbEntity
  8
PHAS
100
AcDbLine
 10
230.6161292391728
 20
382.1651437734612
 30
0.0
 11
231.8161412391729
 21
382.1232427734612
 31
0.0
  0
LINE
  5
1274
330
2
100
AcDbEntity
  8
PHAS
100
AcDbLine
 10
230.6161292391728
 20
382.1651437734612
 30
0.0
 11
229.4161472391727
 21
382.1232427734612
 31
0.0
  0
ARC
  5
1275
330
2
100
AcDbEntity
  8
PHAS
100
AcDbCircle
 10
230.6161292391728
 20
381.9451427734612
 30
0.0
 40
1.219999999999999
100
AcDbArc
 50
8.302276999999669
 51
169.6111449999996
  0
ARC
  5
1276
330
2
100
AcDbEntity
  8
0
100
AcDbCircle
 10
232.4161472391728
 20
384.2647227734612
 30
0.0
 40
2.0
100
AcDbArc
 50
0.0
 51
70.00000000000297
  0
LINE
  5
1277
330
2
100
AcDbEntity
  8
0
100
AcDbLine
 10
228.9160552391728
 20
389.5200477734612
 30
0.0
 11
228.9160552391728
 21
389.0674267734612
 31
0.0
  0
LINE
  5
1278
330
2
100
AcDbEntity
  8
0
100
AcDbLine
 10
196.4161472391728
 20
403.1651437734612
 30
0.0
 11
155.9161472391727
 21
402.4582197734612
 31
0.0
  0
LINE
  5
1279
330
2
100
AcDbEntity
  8
0
100
AcDbLine
 10
236.9161472391728
 20
402.4582197734612
 30
0.0
 11
236.9161472391728
 21
322.8720757734612
 31
0.0
  0
LINE
  5
1289
330
2
100
AcDbEntity
  8
PHAS
  6
SEKKEI_P_S
100
AcDbLine
 10
247.4161472391728
 20
375.6412487734612
 30
0.0
 11
247.4161472391728
 21
349.7521187734612
 31
0.0
  0
ARC
  5
128A
330
2
100
AcDbEntity
  8
PHAS
  6
SEKKEI_P_S
100
AcDbCircle
 10
244.4161472391728
 20
349.6890387734612
 30
0.0
 40
3.0
100
AcDbArc
 50
285.0000000000011
 51
0.0
  0
ARC
  5
128B
330
2
100
AcDbEntity
  8
PHAS
  6
SEKKEI_P_S
100
AcDbCircle
 10
244.4161472391728
 20
375.6412487734612
 30
0.0
 40
3.0
100
AcDbArc
 50
0.0
 51
74.99999999999883
  0
LINE
  5
128C
330
2
100
AcDbEntity
  8
CENTER
100
AcDbLine
 10
408.0151699161596
 20
194.6803181390592
 30
0.0
 11
495.0639059161595
 21
194.6803181390592
 31
0.0
  0
LINE
  5
128D
330
2
100
AcDbEntity
  8
HIDS
100
AcDbLine
 10
459.0201439161595
 20
198.6803181390592
 30
0.0
 11
491.5201439161595
 21
198.6803181390592
 31
0.0
  0
LINE
  5
128E
330
2
100
AcDbEntity
  8
0
100
AcDbLine
 10
451.0201439161595
 20
201.6803181390592
 30
0.0
 11
491.5201439161595
 21
200.9733941390592
 31
0.0
  0
LINE
  5
128F
330
2
100
AcDbEntity
  8
HIDS
100
AcDbLine
 10
423.0201439161595
 20
198.0803121390592
 30
0.0
 11
491.5201439161595
 21
198.0803121390592
 31
0.0
  0
LINE
  5
1291
330
2
100
AcDbEntity
  8
0
100
AcDbLine
 10
451.0201439161595
 20
201.6803181390592
 30
0.0
 11
410.5201439161595
 21
200.9733941390592
 31
0.0
  0
LINE
  5
1292
330
2
100
AcDbEntity
  8
HIDS
100
AcDbLine
 10
423.0201439161595
 20
198.6803181390592
 30
0.0
 11
443.0201439161595
 21
198.6803181390592
 31
0.0
  0
LINE
  5
1293
330
2
100
AcDbEntity
  8
HIDS
  6
SEKKEI_H
100
AcDbLine
 10
410.5201439161595
 20
198.9303181390592
 30
0.0
 11
423.0201439161595
 21
198.9303181390592
 31
0.0
  0
TEXT
  5
16D4
330
2
100
AcDbEntity
  8
TITLE
100
AcDbText
 10
213.7613313417572
 20
63.30799974698408
 30
0.0
 40
7.0
  1
F2SB-12-10～240-S25C
 41
0.8
100
AcDbText
  0
TEXT
  5
16D5
330
2
100
AcDbEntity
  8
TITLE
100
AcDbText
 10
213.7613313417572
 20
39.30799974698408
 30
0.0
 40
7.0
  1
F2SB-12-10～120-S40C
 41
0.8
100
AcDbText
  0
TEXT
  5
16D6
330
2
100
AcDbEntity
  8
TITLE
100
AcDbText
 10
213.7613313417572
 20
51.30799974698408
 30
0.0
 40
7.0
  1
F2SB-12-10～240-S25WC
 41
0.8
100
AcDbText
  0
TEXT
  5
16D7
330
2
100
AcDbEntity
  8
TITLE
100
AcDbText
 10
213.7613313417572
 20
27.30799974698408
 30
0.0
 40
7.0
  1
F2SB-12-10～120-S40WC
 41
0.8
100
AcDbText
  0
LINE
  5
1743
330
2
100
AcDbEntity
  8
CENTER
100
AcDbLine
 10
283.573363233222
 20
131.0734451390592
 30
0.0
 11
283.573363233222
 21
191.2871911390592
 31
0.0
  0
LINE
  5
1744
330
2
100
AcDbEntity
  8
CENTER
100
AcDbLine
 10
229.573363233222
 20
135.6589561390592
 30
0.0
 11
229.573363233222
 21
119.7016801390592
 31
0.0
  0
LINE
  5
1745
330
2
100
AcDbEntity
  8
CENTER
100
AcDbLine
 10
237.552001233222
 20
127.6803181390592
 30
0.0
 11
221.5947252332219
 21
127.6803181390592
 31
0.0
  0
LINE
  5
1746
330
2
100
AcDbEntity
  8
CENTER
100
AcDbLine
 10
221.5010212332221
 20
137.6803181390592
 30
0.0
 11
232.6457052332219
 21
137.6803181390592
 31
0.0
  0
LINE
  5
1747
330
2
100
AcDbEntity
  8
CENTER
100
AcDbLine
 10
227.073363233222
 20
132.1079761390592
 30
0.0
 11
227.073363233222
 21
143.2526601390592
 31
0.0
  0
LINE
  5
1748
330
2
100
AcDbEntity
  8
CENTER
100
AcDbLine
 10
315.573363233222
 20
135.6589561390592
 30
0.0
 11
315.573363233222
 21
119.7016801390592
 31
0.0
  0
LINE
  5
1749
330
2
100
AcDbEntity
  8
CENTER
100
AcDbLine
 10
318.073363233222
 20
132.1079761390592
 30
0.0
 11
318.073363233222
 21
143.2526601390592
 31
0.0
  0
LINE
  5
174A
330
2
100
AcDbEntity
  8
CENTER
100
AcDbLine
 10
323.552001233222
 20
127.6803181390592
 30
0.0
 11
307.594725233222
 21
127.6803181390592
 31
0.0
  0
LINE
  5
174B
330
2
100
AcDbEntity
  8
CENTER
100
AcDbLine
 10
312.5010212332221
 20
137.6803181390592
 30
0.0
 11
323.645705233222
 21
137.6803181390592
 31
0.0
  0
LINE
  5
174C
330
2
100
AcDbEntity
  8
CENTER
100
AcDbLine
 10
227.073363233222
 20
179.1079761390592
 30
0.0
 11
227.073363233222
 21
190.2526601390592
 31
0.0
  0
LINE
  5
174D
330
2
100
AcDbEntity
  8
CENTER
100
AcDbLine
 10
237.552001233222
 20
194.6803181390592
 30
0.0
 11
221.5947252332219
 21
194.6803181390592
 31
0.0
  0
LINE
  5
174E
330
2
100
AcDbEntity
  8
CENTER
100
AcDbLine
 10
221.5010212332221
 20
184.6803181390592
 30
0.0
 11
232.6457052332219
 21
184.6803181390592
 31
0.0
  0
LINE
  5
174F
330
2
100
AcDbEntity
  8
CENTER
100
AcDbLine
 10
229.573363233222
 20
202.6589561390592
 30
0.0
 11
229.573363233222
 21
186.7016801390592
 31
0.0
  0
LINE
  5
1750
330
2
100
AcDbEntity
  8
CENTER
100
AcDbLine
 10
318.073363233222
 20
179.1079761390592
 30
0.0
 11
318.073363233222
 21
190.2526601390592
 31
0.0
  0
LINE
  5
1751
330
2
100
AcDbEntity
  8
CENTER
100
AcDbLine
 10
315.573363233222
 20
202.6589561390592
 30
0.0
 11
315.573363233222
 21
186.7016801390592
 31
0.0
  0
LINE
  5
1752
330
2
100
AcDbEntity
  8
CENTER
100
AcDbLine
 10
323.552001233222
 20
194.6803181390592
 30
0.0
 11
307.594725233222
 21
194.6803181390592
 31
0.0
  0
LINE
  5
1753
330
2
100
AcDbEntity
  8
CENTER
100
AcDbLine
 10
312.5010212332221
 20
184.6803181390592
 30
0.0
 11
323.645705233222
 21
184.6803181390592
 31
0.0
  0
LINE
  5
1754
330
2
100
AcDbEntity
  8
CENTER
100
AcDbLine
 10
662.7222260744596
 20
131.0734451390592
 30
0.0
 11
662.7222260744596
 21
191.2871911390592
 31
0.0
  0
LINE
  5
1755
330
2
100
AcDbEntity
  8
CENTER
100
AcDbLine
 10
630.7222260744596
 20
135.6589561390592
 30
0.0
 11
630.7222260744596
 21
119.7016801390592
 31
0.0
  0
LINE
  5
1756
330
2
100
AcDbEntity
  8
CENTER
100
AcDbLine
 10
638.7008640744596
 20
127.6803181390592
 30
0.0
 11
622.7435880744596
 21
127.6803181390592
 31
0.0
  0
LINE
  5
1757
330
2
100
AcDbEntity
  8
CENTER
100
AcDbLine
 10
716.7222260744596
 20
135.6589561390592
 30
0.0
 11
716.7222260744596
 21
119.7016801390592
 31
0.0
  0
LINE
  5
1758
330
2
100
AcDbEntity
  8
CENTER
100
AcDbLine
 10
724.7008640744597
 20
127.6803181390592
 30
0.0
 11
708.7435880744595
 21
127.6803181390592
 31
0.0
  0
LINE
  5
1759
330
2
100
AcDbEntity
  8
CENTER
100
AcDbLine
 10
630.7222260744596
 20
202.6589561390592
 30
0.0
 11
630.7222260744596
 21
186.7016801390592
 31
0.0
  0
LINE
  5
175A
330
2
100
AcDbEntity
  8
CENTER
100
AcDbLine
 10
638.7008640744596
 20
194.6803181390592
 30
0.0
 11
622.7435880744596
 21
194.6803181390592
 31
0.0
  0
LINE
  5
175B
330
2
100
AcDbEntity
  8
CENTER
100
AcDbLine
 10
716.7222260744596
 20
202.6589561390592
 30
0.0
 11
716.7222260744596
 21
186.7016801390592
 31
0.0
  0
LINE
  5
175C
330
2
100
AcDbEntity
  8
CENTER
100
AcDbLine
 10
724.7008640744597
 20
194.6803181390592
 30
0.0
 11
708.7435880744595
 21
194.6803181390592
 31
0.0
  0
LINE
  5
2894
330
2
100
AcDbEntity
  8
0
100
AcDbLine
 10
426.9651213057799
 20
249.6803181390592
 30
0.0
 11
475.0751665265392
 21
249.6803181390592
 31
0.0
  0
LINE
  5
2896
330
2
100
AcDbEntity
  8
0
100
AcDbLine
 10
421.0201439161595
 20
250.6803181390592
 30
0.0
 11
481.0201439161595
 21
250.6803181390592
 31
0.0
  0
LINE
  5
2898
330
2
100
AcDbEntity
  8
0
100
AcDbLine
 10
420.0201439161595
 20
202.6803181390592
 30
0.0
 11
482.0201439161595
 21
202.6803181390592
 31
0.0
  0
LINE
  5
2899
330
2
100
AcDbEntity
  8
0
100
AcDbLine
 10
420.0201439161595
 20
212.6803181390592
 30
0.0
 11
482.0201439161595
 21
212.6803181390592
 31
0.0
  0
LINE
  5
289A
330
2
100
AcDbEntity
  8
0
100
AcDbLine
 10
420.0201439161595
 20
213.6803181390592
 30
0.0
 11
482.0201439161595
 21
213.6803181390592
 31
0.0
  0
LINE
  5
289B
330
2
100
AcDbEntity
  8
CENTER
100
AcDbLine
 10
414.3373574291884
 20
233.6803181390592
 30
0.0
 11
487.7029304031306
 21
233.6803181390592
 31
0.0
  0
LINE
  5
28BA
330
2
100
AcDbEntity
  8
0
100
AcDbLine
 10
141.517859233222
 20
250.6803181390592
 30
0.0
 11
201.517867233222
 21
250.6803181390592
 31
0.0
  0
LINE
  5
28BB
330
2
100
AcDbEntity
  8
0
100
AcDbLine
 10
147.4628446228424
 20
249.6803181390592
 30
0.0
 11
195.5728898436017
 21
249.6803181390593
 31
0.0
  0
LINE
  5
28BC
330
2
100
AcDbEntity
  8
0
100
AcDbLine
 10
142.017859233222
 20
200.6803181390592
 30
0.0
 11
200.517867233222
 21
200.6803181390592
 31
0.0
  0
LINE
  5
28BD
330
2
100
AcDbEntity
  8
0
100
AcDbLine
 10
140.517859233222
 20
202.6803181390592
 30
0.0
 11
202.517867233222
 21
202.6803181390592
 31
0.0
  0
LINE
  5
28BE
330
2
100
AcDbEntity
  8
0
100
AcDbLine
 10
140.517859233222
 20
212.6803181390592
 30
0.0
 11
202.517867233222
 21
212.6803181390592
 31
0.0
  0
LINE
  5
28BF
330
2
100
AcDbEntity
  8
0
100
AcDbLine
 10
140.517859233222
 20
213.6803181390592
 30
0.0
 11
202.517867233222
 21
213.6803181390592
 31
0.0
  0
LINE
  5
28C0
330
2
100
AcDbEntity
  8
CENTER
100
AcDbLine
 10
134.8350807462509
 20
233.6803181390592
 30
0.0
 11
208.200653720193
 21
233.6803181390592
 31
0.0
  0
LINE
  5
28D5
330
2
100
AcDbEntity
  8
CENTER
100
AcDbLine
 10
171.517867233222
 20
256.0678181390593
 30
0.0
 11
171.517867233222
 21
196.0863241390594
 31
0.0
  0
LINE
  5
28D7
330
2
100
AcDbEntity
  8
0
100
AcDbLine
 10
140.517859233222
 20
249.6803181390592
 30
0.0
 11
140.517859233222
 21
202.6803181390592
 31
0.0
  0
LINE
  5
28D8
330
2
100
AcDbEntity
  8
0
100
AcDbLine
 10
140.517859233222
 20
202.6803181390592
 30
0.0
 11
142.517859233222
 21
200.6803181390592
 31
0.0
  0
LINE
  5
28D9
330
2
100
AcDbEntity
  8
0
100
AcDbLine
 10
142.017859233222
 20
200.6803181390592
 30
0.0
 11
142.017859233222
 21
199.1803181390592
 31
0.0
  0
LINE
  5
28DA
330
2
100
AcDbEntity
  8
0
100
AcDbLine
 10
139.392859233222
 20
223.1803181390592
 30
0.0
 11
142.517859233222
 21
223.1803181390592
 31
0.0
  0
SPLINE
  5
28DB
330
2
100
AcDbEntity
  8
0
100
AcDbSpline
210
0.0
220
0.0
230
1.0
 70
     8
 71
     3
 72
    11
 73
     7
 74
     0
 42
0.0000000001
 43
0.0000000001
 40
0.0
 40
0.0
 40
0.0
 40
0.0
 40
0.4601364636755307
 40
1.04988694485363
 40
1.713742833862792
 40
2.320347933405154
 40
2.320347933405154
 40
2.320347933405154
 40
2.320347933405179
 10
144.805367233677
 20
248.7633181390593
 30
0.0
 10
144.8277848907848
 20
248.9183415787392
 30
0.0
 10
144.8789349460181
 20
249.2720563966567
 30
0.0
 10
145.3148201075517
 20
249.6967840682584
 30
0.0
 10
145.9198708225591
 20
249.9159712482242
 30
0.0
 10
146.3450554467349
 20
249.8469799486136
 30
0.0
 10
146.5476070563861
 20
249.8327596764368
 30
0.0
  0
ARC
  5
28DC
330
2
100
AcDbEntity
  8
0
100
AcDbCircle
 10
144.5178672332219
 20
241.2803181390593
 30
0.0
 40
9.0
100
AcDbArc
 50
74.11914999171883
 51
105.8808500082811
  0
LINE
  5
28DD
330
2
100
AcDbEntity
  8
0
100
AcDbLine
 10
148.517867233222
 20
247.6803181390592
 30
0.0
 11
140.517867233222
 21
247.6803181390593
 31
0.0
  0
LINE
  5
28DE
330
2
100
AcDbEntity
  8
0
100
AcDbLine
 10
139.392859233222
 20
244.1803181390592
 30
0.0
 11
142.517859233222
 21
244.1803181390592
 31
0.0
  0
LINE
  5
28DF
330
2
100
AcDbEntity
  8
0
100
AcDbLine
 10
141.517867233222
 20
250.6803181390592
 30
0.0
 11
140.517867233222
 21
249.6803181390592
 31
0.0
  0
LINE
  5
28E0
330
2
100
AcDbEntity
  8
0
100
AcDbLine
 10
141.5728898436019
 20
249.6803181390593
 30
0.0
 11
140.517867233222
 21
249.6803181390592
 31
0.0
  0
ARC
  5
28E1
330
2
100
AcDbEntity
  8
0
100
AcDbCircle
 10
142.4108564796291
 20
248.6864308633055
 30
0.0
 40
1.3
100
AcDbArc
 50
105.8808500082811
 51
175.0000000000002
  0
LINE
  5
28E2
330
2
100
AcDbEntity
  8
0
100
AcDbLine
 10
141.017867233222
 20
247.6803181390593
 30
0.0
 11
141.1158033721098
 21
248.7997333288776
 31
0.0
  0
SPLINE
  5
28E3
330
2
100
AcDbEntity
  8
0
100
AcDbSpline
210
0.0
220
0.0
230
1.0
 70
     8
 71
     3
 72
    11
 73
     7
 74
     0
 42
0.0000000001
 43
0.0000000001
 40
0.0
 40
0.0
 40
0.0
 40
0.0
 40
0.4601364636755307
 40
1.04988694485363
 40
1.713742833862792
 40
2.320347933405154
 40
2.320347933405154
 40
2.320347933405154
 40
2.320347933405179
 10
144.2303672327669
 20
248.7633181390593
 30
0.0
 10
144.207949575659
 20
248.9183415787392
 30
0.0
 10
144.1567995204258
 20
249.2720563966567
 30
0.0
 10
143.7209143588922
 20
249.6967840682584
 30
0.0
 10
143.1158636438847
 20
249.9159712482242
 30
0.0
 10
142.6906790197089
 20
249.8469799486136
 30
0.0
 10
142.4881274100578
 20
249.8327596764368
 30
0.0
  0
LINE
  5
28E4
330
2
100
AcDbEntity
  8
0
100
AcDbLine
 10
144.2303672327669
 20
248.7633181390593
 30
0.0
 11
144.805367233677
 21
248.7633181390593
 31
0.0
  0
LINE
  5
28E5
330
2
100
AcDbEntity
  8
0
100
AcDbLine
 10
142.4881274100578
 20
249.8327596764368
 30
0.0
 11
142.4678672332219
 21
250.0437364218984
 31
0.0
  0
LINE
  5
28E6
330
2
100
AcDbEntity
  8
0
100
AcDbLine
 10
149.517867233222
 20
250.6803181390592
 30
0.0
 11
148.517867233222
 21
249.6803181390592
 31
0.0
  0
LINE
  5
28E7
330
2
100
AcDbEntity
  8
0
100
AcDbLine
 10
148.517867233222
 20
249.6803181390592
 30
0.0
 11
148.517867233222
 21
247.6803181390592
 31
0.0
  0
ARC
  5
28E8
330
2
100
AcDbEntity
  8
0
100
AcDbCircle
 10
146.624877986815
 20
248.6864308633055
 30
0.0
 40
1.3
100
AcDbArc
 50
4.999999999999743
 51
74.11914999171883
  0
LINE
  5
28E9
330
2
100
AcDbEntity
  8
0
100
AcDbLine
 10
148.0178672332219
 20
247.6803181390593
 30
0.0
 11
147.9199310943341
 21
248.7997333288776
 31
0.0
  0
LINE
  5
28EA
330
2
100
AcDbEntity
  8
0
100
AcDbLine
 10
146.5476070563861
 20
249.8327596764368
 30
0.0
 11
146.5678672332219
 21
250.0437364218984
 31
0.0
  0
LINE
  5
28EB
330
2
100
AcDbEntity
  8
0
100
AcDbLine
 10
202.517867233222
 20
249.6803181390592
 30
0.0
 11
202.517867233222
 21
202.6803181390592
 31
0.0
  0
LINE
  5
28EC
330
2
100
AcDbEntity
  8
0
100
AcDbLine
 10
188.017867233222
 20
200.6803181390592
 30
0.0
 11
188.017867233222
 21
199.1803181390592
 31
0.0
  0
LINE
  5
28ED
330
2
100
AcDbEntity
  8
0
100
AcDbLine
 10
202.517867233222
 20
202.6803181390592
 30
0.0
 11
200.517867233222
 21
200.6803181390592
 31
0.0
  0
ARC
  5
28EE
330
2
100
AcDbEntity
  8
0
100
AcDbCircle
 10
198.5178672332221
 20
241.2803181390593
 30
0.0
 40
9.0
100
AcDbArc
 50
74.11914999171883
 51
105.8808500082811
  0
SPLINE
  5
28EF
330
2
100
AcDbEntity
  8
0
100
AcDbSpline
210
0.0
220
0.0
230
1.0
 70
     8
 71
     3
 72
    11
 73
     7
 74
     0
 42
0.0000000001
 43
0.0000000001
 40
0.0
 40
0.0
 40
0.0
 40
0.0
 40
0.4601364636755307
 40
1.04988694485363
 40
1.713742833862792
 40
2.320347933405154
 40
2.320347933405154
 40
2.320347933405154
 40
2.320347933405179
 10
198.2303672327671
 20
248.7633181390593
 30
0.0
 10
198.2079495756592
 20
248.9183415787392
 30
0.0
 10
198.1567995204259
 20
249.2720563966567
 30
0.0
 10
197.7209143588923
 20
249.6967840682584
 30
0.0
 10
197.115863643885
 20
249.9159712482242
 30
0.0
 10
196.690679019709
 20
249.8469799486136
 30
0.0
 10
196.488127410058
 20
249.8327596764368
 30
0.0
  0
LINE
  5
28F0
330
2
100
AcDbEntity
  8
0
100
AcDbLine
 10
194.517867233222
 20
247.6803181390592
 30
0.0
 11
202.517867233222
 21
247.6803181390593
 31
0.0
  0
LINE
  5
28F1
330
2
100
AcDbEntity
  8
0
100
AcDbLine
 10
196.488127410058
 20
249.8327596764368
 30
0.0
 11
196.467867233222
 21
250.0437364218984
 31
0.0
  0
LINE
  5
28F2
330
2
100
AcDbEntity
  8
0
100
AcDbLine
 10
195.0178672332221
 20
247.6803181390593
 30
0.0
 11
195.1158033721099
 21
248.7997333288776
 31
0.0
  0
ARC
  5
28F3
330
2
100
AcDbEntity
  8
0
100
AcDbCircle
 10
196.4108564796291
 20
248.6864308633055
 30
0.0
 40
1.3
100
AcDbArc
 50
105.8808500082811
 51
175.0000000000002
  0
LINE
  5
28F4
330
2
100
AcDbEntity
  8
0
100
AcDbLine
 10
193.517867233222
 20
250.6803181390592
 30
0.0
 11
194.517867233222
 21
249.6803181390592
 31
0.0
  0
LINE
  5
28F5
330
2
100
AcDbEntity
  8
0
100
AcDbLine
 10
194.517867233222
 20
249.6803181390592
 30
0.0
 11
194.517867233222
 21
247.6803181390592
 31
0.0
  0
LINE
  5
28F6
330
2
100
AcDbEntity
  8
0
100
AcDbLine
 10
201.4628446228422
 20
249.6803181390593
 30
0.0
 11
202.517867233222
 21
249.6803181390592
 31
0.0
  0
LINE
  5
28F7
330
2
100
AcDbEntity
  8
0
100
AcDbLine
 10
202.017867233222
 20
247.6803181390593
 30
0.0
 11
201.9199310943342
 21
248.7997333288776
 31
0.0
  0
ARC
  5
28F8
330
2
100
AcDbEntity
  8
0
100
AcDbCircle
 10
200.6248779868149
 20
248.6864308633055
 30
0.0
 40
1.3
100
AcDbArc
 50
4.999999999999743
 51
74.11914999171883
  0
LINE
  5
28F9
330
2
100
AcDbEntity
  8
0
100
AcDbLine
 10
200.5476070563862
 20
249.8327596764368
 30
0.0
 11
200.5678672332222
 21
250.0437364218984
 31
0.0
  0
LINE
  5
28FA
330
2
100
AcDbEntity
  8
0
100
AcDbLine
 10
198.8053672336771
 20
248.7633181390593
 30
0.0
 11
198.2303672327671
 21
248.7633181390593
 31
0.0
  0
SPLINE
  5
28FB
330
2
100
AcDbEntity
  8
0
100
AcDbSpline
210
0.0
220
0.0
230
1.0
 70
     8
 71
     3
 72
    11
 73
     7
 74
     0
 42
0.0000000001
 43
0.0000000001
 40
0.0
 40
0.0
 40
0.0
 40
0.0
 40
0.4601364636755307
 40
1.04988694485363
 40
1.713742833862792
 40
2.320347933405154
 40
2.320347933405154
 40
2.320347933405154
 40
2.320347933405179
 10
198.8053672336771
 20
248.7633181390593
 30
0.0
 10
198.827784890785
 20
248.9183415787392
 30
0.0
 10
198.8789349460183
 20
249.2720563966567
 30
0.0
 10
199.3148201075519
 20
249.6967840682584
 30
0.0
 10
199.9198708225592
 20
249.9159712482242
 30
0.0
 10
200.3450554467351
 20
249.8469799486136
 30
0.0
 10
200.5476070563862
 20
249.8327596764368
 30
0.0
  0
LINE
  5
28FC
330
2
100
AcDbEntity
  8
0
100
AcDbLine
 10
201.517867233222
 20
250.6803181390592
 30
0.0
 11
202.517867233222
 21
249.6803181390592
 31
0.0
  0
LINE
  5
28FD
330
2
100
AcDbEntity
  8
0
100
AcDbLine
 10
420.0201439161595
 20
249.6803181390592
 30
0.0
 11
420.0201439161595
 21
202.6803181390592
 31
0.0
  0
LINE
  5
28FE
330
2
100
AcDbEntity
  8
0
100
AcDbLine
 10
420.0201439161595
 20
202.6803181390592
 30
0.0
 11
421.5348079080654
 21
201.1656541471534
 31
0.0
  0
SPLINE
  5
2900
330
2
100
AcDbEntity
  8
0
100
AcDbSpline
210
0.0
220
0.0
230
1.0
 70
     8
 71
     3
 72
    11
 73
     7
 74
     0
 42
0.0000000001
 43
0.0000000001
 40
0.0
 40
0.0
 40
0.0
 40
0.0
 40
0.4601364636755307
 40
1.04988694485363
 40
1.713742833862792
 40
2.320347933405154
 40
2.320347933405154
 40
2.320347933405154
 40
2.320347933405179
 10
424.3076439166145
 20
248.7633181390593
 30
0.0
 10
424.3300615737223
 20
248.9183415787392
 30
0.0
 10
424.3812116289555
 20
249.2720563966567
 30
0.0
 10
424.8170967904892
 20
249.6967840682584
 30
0.0
 10
425.4221475054967
 20
249.9159712482242
 30
0.0
 10
425.8473321296724
 20
249.8469799486136
 30
0.0
 10
426.0498837393235
 20
249.8327596764368
 30
0.0
  0
LINE
  5
2901
330
2
100
AcDbEntity
  8
0
100
AcDbLine
 10
428.0201439161595
 20
247.6803181390592
 30
0.0
 11
420.0201439161595
 21
247.6803181390593
 31
0.0
  0
ARC
  5
2902
330
2
100
AcDbEntity
  8
0
100
AcDbCircle
 10
424.0201439161594
 20
241.2803181390593
 30
0.0
 40
9.0
100
AcDbArc
 50
74.11914999171883
 51
105.8808500082811
  0
ARC
  5
2903
330
2
100
AcDbEntity
  8
0
100
AcDbCircle
 10
421.9131331625666
 20
248.6864308633055
 30
0.0
 40
1.3
100
AcDbArc
 50
105.8808500082811
 51
175.0000000000002
  0
LINE
  5
2904
330
2
100
AcDbEntity
  8
0
100
AcDbLine
 10
421.0751665265394
 20
249.6803181390593
 30
0.0
 11
420.0201439161595
 21
249.6803181390592
 31
0.0
  0
LINE
  5
2905
330
2
100
AcDbEntity
  8
0
100
AcDbLine
 10
420.5201439161595
 20
247.6803181390593
 30
0.0
 11
420.6180800550473
 21
248.7997333288776
 31
0.0
  0
LINE
  5
2906
330
2
100
AcDbEntity
  8
0
100
AcDbLine
 10
421.0201439161595
 20
250.6803181390592
 30
0.0
 11
420.0201439161595
 21
249.6803181390592
 31
0.0
  0
LINE
  5
2907
330
2
100
AcDbEntity
  8
0
100
AcDbLine
 10
420.0201439161595
 20
249.6803181390592
 30
0.0
 11
421.0751665265392
 21
249.6803181390592
 31
0.0
  0
LINE
  5
2908
330
2
100
AcDbEntity
  8
0
100
AcDbLine
 10
423.7326439157044
 20
248.7633181390593
 30
0.0
 11
424.3076439166145
 21
248.7633181390593
 31
0.0
  0
LINE
  5
2909
330
2
100
AcDbEntity
  8
0
100
AcDbLine
 10
421.9904040929954
 20
249.8327596764368
 30
0.0
 11
421.9701439161594
 21
250.0437364218984
 31
0.0
  0
SPLINE
  5
290A
330
2
100
AcDbEntity
  8
0
100
AcDbSpline
210
0.0
220
0.0
230
1.0
 70
     8
 71
     3
 72
    11
 73
     7
 74
     0
 42
0.0000000001
 43
0.0000000001
 40
0.0
 40
0.0
 40
0.0
 40
0.0
 40
0.4601364636755307
 40
1.04988694485363
 40
1.713742833862792
 40
2.320347933405154
 40
2.320347933405154
 40
2.320347933405154
 40
2.320347933405179
 10
423.7326439157044
 20
248.7633181390593
 30
0.0
 10
423.7102262585965
 20
248.9183415787392
 30
0.0
 10
423.6590762033633
 20
249.2720563966567
 30
0.0
 10
423.2231910418297
 20
249.6967840682584
 30
0.0
 10
422.6181403268222
 20
249.9159712482242
 30
0.0
 10
422.1929557026465
 20
249.8469799486136
 30
0.0
 10
421.9904040929954
 20
249.8327596764368
 30
0.0
  0
LINE
  5
290B
330
2
100
AcDbEntity
  8
0
100
AcDbLine
 10
426.0498837393235
 20
249.8327596764368
 30
0.0
 11
426.0701439161595
 21
250.0437364218984
 31
0.0
  0
LINE
  5
290C
330
2
100
AcDbEntity
  8
0
100
AcDbLine
 10
427.5201439161594
 20
247.6803181390593
 30
0.0
 11
427.4222077772716
 21
248.7997333288776
 31
0.0
  0
ARC
  5
290D
330
2
100
AcDbEntity
  8
0
100
AcDbCircle
 10
426.1271546697525
 20
248.6864308633055
 30
0.0
 40
1.3
100
AcDbArc
 50
4.999999999999743
 51
74.11914999171883
  0
LINE
  5
290E
330
2
100
AcDbEntity
  8
0
100
AcDbLine
 10
428.0201439161595
 20
249.6803181390592
 30
0.0
 11
428.0201439161595
 21
247.6803181390592
 31
0.0
  0
LINE
  5
290F
330
2
100
AcDbEntity
  8
0
100
AcDbLine
 10
429.0201439161595
 20
250.6803181390592
 30
0.0
 11
428.0201439161595
 21
249.6803181390592
 31
0.0
  0
LINE
  5
2914
330
2
100
AcDbEntity
  8
0
100
AcDbLine
 10
473.0201439161596
 20
250.6803181390592
 30
0.0
 11
474.0201439161595
 21
249.6803181390592
 31
0.0
  0
LINE
  5
2916
330
2
100
AcDbEntity
  8
0
100
AcDbLine
 10
482.0201439161595
 20
249.6803181390592
 30
0.0
 11
482.0201439161595
 21
202.6803181390592
 31
0.0
  0
LINE
  5
2918
330
2
100
AcDbEntity
  8
0
100
AcDbLine
 10
482.0201439161595
 20
202.6803181390592
 30
0.0
 11
480.5054799242537
 21
201.1656541471533
 31
0.0
  0
LINE
  5
2919
330
2
100
AcDbEntity
  8
0
100
AcDbLine
 10
478.3076439166146
 20
248.7633181390593
 30
0.0
 11
477.7326439157045
 21
248.7633181390593
 31
0.0
  0
ARC
  5
291A
330
2
100
AcDbEntity
  8
0
100
AcDbCircle
 10
478.0201439161596
 20
241.2803181390593
 30
0.0
 40
9.0
100
AcDbArc
 50
74.11914999171883
 51
105.8808500082811
  0
LINE
  5
291B
330
2
100
AcDbEntity
  8
0
100
AcDbLine
 10
474.0201439161595
 20
247.6803181390592
 30
0.0
 11
482.0201439161595
 21
247.6803181390593
 31
0.0
  0
LINE
  5
291C
330
2
100
AcDbEntity
  8
0
100
AcDbLine
 10
474.0201439161595
 20
249.6803181390592
 30
0.0
 11
474.0201439161595
 21
247.6803181390592
 31
0.0
  0
ARC
  5
291D
330
2
100
AcDbEntity
  8
0
100
AcDbCircle
 10
475.9131331625666
 20
248.6864308633055
 30
0.0
 40
1.3
100
AcDbArc
 50
105.8808500082811
 51
175.0000000000002
  0
LINE
  5
291E
330
2
100
AcDbEntity
  8
0
100
AcDbLine
 10
474.5201439161596
 20
247.6803181390593
 30
0.0
 11
474.6180800550474
 21
248.7997333288776
 31
0.0
  0
SPLINE
  5
291F
330
2
100
AcDbEntity
  8
0
100
AcDbSpline
210
0.0
220
0.0
230
1.0
 70
     8
 71
     3
 72
    11
 73
     7
 74
     0
 42
0.0000000001
 43
0.0000000001
 40
0.0
 40
0.0
 40
0.0
 40
0.0
 40
0.4601364636755307
 40
1.04988694485363
 40
1.713742833862792
 40
2.320347933405154
 40
2.320347933405154
 40
2.320347933405154
 40
2.320347933405179
 10
477.7326439157045
 20
248.7633181390593
 30
0.0
 10
477.7102262585968
 20
248.9183415787392
 30
0.0
 10
477.6590762033634
 20
249.2720563966567
 30
0.0
 10
477.2231910418298
 20
249.6967840682584
 30
0.0
 10
476.6181403268224
 20
249.9159712482242
 30
0.0
 10
476.1929557026466
 20
249.8469799486136
 30
0.0
 10
475.9904040929955
 20
249.8327596764368
 30
0.0
  0
LINE
  5
2920
330
2
100
AcDbEntity
  8
0
100
AcDbLine
 10
475.9904040929955
 20
249.8327596764368
 30
0.0
 11
475.9701439161595
 21
250.0437364218984
 31
0.0
  0
LINE
  5
2921
330
2
100
AcDbEntity
  8
0
100
AcDbLine
 10
480.9651213057799
 20
249.6803181390592
 30
0.0
 11
482.0201439161595
 21
249.6803181390592
 31
0.0
  0
LINE
  5
2922
330
2
100
AcDbEntity
  8
0
100
AcDbLine
 10
481.0201439161595
 20
250.6803181390592
 30
0.0
 11
482.0201439161595
 21
249.6803181390592
 31
0.0
  0
LINE
  5
2923
330
2
100
AcDbEntity
  8
0
100
AcDbLine
 10
481.5201439161596
 20
247.6803181390593
 30
0.0
 11
481.4222077772718
 21
248.7997333288776
 31
0.0
  0
SPLINE
  5
2924
330
2
100
AcDbEntity
  8
0
100
AcDbSpline
210
0.0
220
0.0
230
1.0
 70
     8
 71
     3
 72
    11
 73
     7
 74
     0
 42
0.0000000001
 43
0.0000000001
 40
0.0
 40
0.0
 40
0.0
 40
0.0
 40
0.4601364636755307
 40
1.04988694485363
 40
1.713742833862792
 40
2.320347933405154
 40
2.320347933405154
 40
2.320347933405154
 40
2.320347933405179
 10
478.3076439166146
 20
248.7633181390593
 30
0.0
 10
478.3300615737225
 20
248.9183415787392
 30
0.0
 10
478.3812116289558
 20
249.2720563966567
 30
0.0
 10
478.8170967904894
 20
249.6967840682584
 30
0.0
 10
479.4221475054968
 20
249.9159712482242
 30
0.0
 10
479.8473321296726
 20
249.8469799486136
 30
0.0
 10
480.0498837393237
 20
249.8327596764368
 30
0.0
  0
LINE
  5
2925
330
2
100
AcDbEntity
  8
0
100
AcDbLine
 10
480.0498837393237
 20
249.8327596764368
 30
0.0
 11
480.0701439161596
 21
250.0437364218984
 31
0.0
  0
ARC
  5
2926
330
2
100
AcDbEntity
  8
0
100
AcDbCircle
 10
480.1271546697525
 20
248.6864308633055
 30
0.0
 40
1.3
100
AcDbArc
 50
4.999999999999743
 51
74.11914999171883
  0
LINE
  5
2927
330
2
100
AcDbEntity
  8
0
100
AcDbLine
 10
480.9651213057796
 20
249.6803181390593
 30
0.0
 11
482.0201439161595
 21
249.6803181390592
 31
0.0
  0
LINE
  5
2928
330
2
100
AcDbEntity
  8
0
100
AcDbLine
 10
798.8327216848392
 20
249.6803181390592
 30
0.0
 11
750.7226764640798
 21
249.6803181390593
 31
0.0
  0
LINE
  5
292A
330
2
100
AcDbEntity
  8
CENTER
100
AcDbLine
 10
811.4604855614306
 20
233.6803181390592
 30
0.0
 11
738.0949125874885
 21
233.6803181390592
 31
0.0
  0
LINE
  5
292B
330
2
100
AcDbEntity
  8
0
100
AcDbLine
 10
805.7777070744595
 20
213.6803181390592
 30
0.0
 11
743.7776990744596
 21
213.6803181390592
 31
0.0
  0
LINE
  5
292C
330
2
100
AcDbEntity
  8
0
100
AcDbLine
 10
805.7777070744595
 20
212.6803181390592
 30
0.0
 11
743.7776990744596
 21
212.6803181390592
 31
0.0
  0
LINE
  5
292D
330
2
100
AcDbEntity
  8
0
100
AcDbLine
 10
805.7777070744595
 20
202.6803181390592
 30
0.0
 11
743.7776990744596
 21
202.6803181390592
 31
0.0
  0
LINE
  5
292E
330
2
100
AcDbEntity
  8
0
100
AcDbLine
 10
804.2777070744596
 20
200.6803181390592
 30
0.0
 11
745.7776990744596
 21
200.6803181390592
 31
0.0
  0
LINE
  5
292F
330
2
100
AcDbEntity
  8
0
100
AcDbLine
 10
804.7777070744595
 20
250.6803181390592
 30
0.0
 11
744.7776990744596
 21
250.6803181390592
 31
0.0
  0
LINE
  5
2930
330
2
100
AcDbEntity
  8
0
100
AcDbLine
 10
743.7776990744596
 20
249.6803181390592
 30
0.0
 11
743.7776990744596
 21
202.6803181390592
 31
0.0
  0
LINE
  5
2931
330
2
100
AcDbEntity
  8
CENTER
100
AcDbLine
 10
774.7776990744596
 20
256.0678181390593
 30
0.0
 11
774.7776990744596
 21
196.0863241390594
 31
0.0
  0
LINE
  5
2932
330
2
100
AcDbEntity
  8
0
100
AcDbLine
 10
743.7776990744596
 20
202.6803181390592
 30
0.0
 11
745.7776990744596
 21
200.6803181390592
 31
0.0
  0
LINE
  5
2933
330
2
100
AcDbEntity
  8
0
100
AcDbLine
 10
758.2776990744596
 20
200.6803181390592
 30
0.0
 11
758.2776990744596
 21
199.1803181390592
 31
0.0
  0
SPLINE
  5
2934
330
2
100
AcDbEntity
  8
0
100
AcDbSpline
210
0.0
220
0.0
230
1.0
 70
     8
 71
     3
 72
    11
 73
     7
 74
     0
 42
0.0000000001
 43
0.0000000001
 40
0.0
 40
0.0
 40
0.0
 40
0.0
 40
0.4601364636755307
 40
1.04988694485363
 40
1.713742833862792
 40
2.320347933405154
 40
2.320347933405154
 40
2.320347933405154
 40
2.320347933405179
 10
747.4901990740045
 20
248.7633181390593
 30
0.0
 10
747.4677814168966
 20
248.9183415787392
 30
0.0
 10
747.4166313616633
 20
249.2720563966567
 30
0.0
 10
746.9807462001297
 20
249.6967840682584
 30
0.0
 10
746.3756954851223
 20
249.9159712482242
 30
0.0
 10
745.9505108609464
 20
249.8469799486136
 30
0.0
 10
745.7479592512954
 20
249.8327596764368
 30
0.0
  0
LINE
  5
2935
330
2
100
AcDbEntity
  8
0
100
AcDbLine
 10
751.7776990744596
 20
247.6803181390592
 30
0.0
 11
743.7776990744596
 21
247.6803181390593
 31
0.0
  0
ARC
  5
2936
330
2
100
AcDbEntity
  8
0
100
AcDbCircle
 10
747.7776990744595
 20
241.2803181390593
 30
0.0
 40
9.0
100
AcDbArc
 50
74.11914999171883
 51
105.8808500082811
  0
LINE
  5
2937
330
2
100
AcDbEntity
  8
0
100
AcDbLine
 10
744.7776990744596
 20
250.6803181390592
 30
0.0
 11
743.7776990744596
 21
249.6803181390592
 31
0.0
  0
LINE
  5
2938
330
2
100
AcDbEntity
  8
0
100
AcDbLine
 10
745.7479592512954
 20
249.8327596764368
 30
0.0
 11
745.7276990744595
 21
250.0437364218984
 31
0.0
  0
ARC
  5
2939
330
2
100
AcDbEntity
  8
0
100
AcDbCircle
 10
745.6706883208667
 20
248.6864308633055
 30
0.0
 40
1.3
100
AcDbArc
 50
105.8808500082811
 51
175.0000000000002
  0
LINE
  5
293A
330
2
100
AcDbEntity
  8
0
100
AcDbLine
 10
744.2776990744596
 20
247.6803181390593
 30
0.0
 11
744.3756352133474
 21
248.7997333288776
 31
0.0
  0
LINE
  5
293B
330
2
100
AcDbEntity
  8
0
100
AcDbLine
 10
744.8327216848394
 20
249.6803181390593
 30
0.0
 11
743.7776990744596
 21
249.6803181390592
 31
0.0
  0
LINE
  5
293C
330
2
100
AcDbEntity
  8
0
100
AcDbLine
 10
752.7776990744596
 20
250.6803181390592
 30
0.0
 11
751.7776990744596
 21
249.6803181390592
 31
0.0
  0
LINE
  5
293D
330
2
100
AcDbEntity
  8
0
100
AcDbLine
 10
747.4901990740045
 20
248.7633181390593
 30
0.0
 11
748.0651990749144
 21
248.7633181390593
 31
0.0
  0
LINE
  5
293E
330
2
100
AcDbEntity
  8
0
100
AcDbLine
 10
749.8074388976236
 20
249.8327596764368
 30
0.0
 11
749.8276990744596
 21
250.0437364218984
 31
0.0
  0
LINE
  5
293F
330
2
100
AcDbEntity
  8
0
100
AcDbLine
 10
751.7776990744596
 20
249.6803181390592
 30
0.0
 11
751.7776990744596
 21
247.6803181390592
 31
0.0
  0
LINE
  5
2940
330
2
100
AcDbEntity
  8
0
100
AcDbLine
 10
751.2776990744595
 20
247.6803181390593
 30
0.0
 11
751.1797629355717
 21
248.7997333288776
 31
0.0
  0
ARC
  5
2941
330
2
100
AcDbEntity
  8
0
100
AcDbCircle
 10
749.8847098280525
 20
248.6864308633055
 30
0.0
 40
1.3
100
AcDbArc
 50
4.999999999999743
 51
74.11914999171883
  0
SPLINE
  5
2942
330
2
100
AcDbEntity
  8
0
100
AcDbSpline
210
0.0
220
0.0
230
1.0
 70
     8
 71
     3
 72
    11
 73
     7
 74
     0
 42
0.0000000001
 43
0.0000000001
 40
0.0
 40
0.0
 40
0.0
 40
0.0
 40
0.4601364636755307
 40
1.04988694485363
 40
1.713742833862792
 40
2.320347933405154
 40
2.320347933405154
 40
2.320347933405154
 40
2.320347933405179
 10
748.0651990749144
 20
248.7633181390593
 30
0.0
 10
748.0876167320224
 20
248.9183415787392
 30
0.0
 10
748.1387667872557
 20
249.2720563966567
 30
0.0
 10
748.5746519487893
 20
249.6967840682584
 30
0.0
 10
749.1797026637966
 20
249.9159712482242
 30
0.0
 10
749.6048872879725
 20
249.8469799486136
 30
0.0
 10
749.8074388976236
 20
249.8327596764368
 30
0.0
  0
LINE
  5
2944
330
2
100
AcDbEntity
  8
0
100
AcDbLine
 10
805.7777070744595
 20
249.6803181390592
 30
0.0
 11
805.7777070744595
 21
202.6803181390592
 31
0.0
  0
LINE
  5
2945
330
2
100
AcDbEntity
  8
0
100
AcDbLine
 10
805.7777070744595
 20
202.6803181390592
 30
0.0
 11
803.7777070744596
 21
200.6803181390592
 31
0.0
  0
LINE
  5
2946
330
2
100
AcDbEntity
  8
0
100
AcDbLine
 10
804.2777070744596
 20
200.6803181390592
 30
0.0
 11
804.2777070744596
 21
199.1803181390592
 31
0.0
  0
LINE
  5
2947
330
2
100
AcDbEntity
  8
0
100
AcDbLine
 10
806.9027070744596
 20
223.1803181390592
 30
0.0
 11
803.7777070744596
 21
223.1803181390592
 31
0.0
  0
ARC
  5
2948
330
2
100
AcDbEntity
  8
0
100
AcDbCircle
 10
803.8847098280525
 20
248.6864308633055
 30
0.0
 40
1.3
100
AcDbArc
 50
4.999999999999743
 51
74.11914999171883
  0
LINE
  5
2949
330
2
100
AcDbEntity
  8
0
100
AcDbLine
 10
806.9027070744596
 20
244.1803181390592
 30
0.0
 11
803.7777070744596
 21
244.1803181390592
 31
0.0
  0
LINE
  5
294A
330
2
100
AcDbEntity
  8
0
100
AcDbLine
 10
797.7776990744596
 20
247.6803181390592
 30
0.0
 11
805.7776990744596
 21
247.6803181390593
 31
0.0
  0
ARC
  5
294B
330
2
100
AcDbEntity
  8
0
100
AcDbCircle
 10
801.7776990744597
 20
241.2803181390593
 30
0.0
 40
9.0
100
AcDbArc
 50
74.11914999171883
 51
105.8808500082811
  0
ARC
  5
294C
330
2
100
AcDbEntity
  8
0
100
AcDbCircle
 10
799.6706883208667
 20
248.6864308633055
 30
0.0
 40
1.3
100
AcDbArc
 50
105.8808500082811
 51
175.0000000000002
  0
LINE
  5
294D
330
2
100
AcDbEntity
  8
0
100
AcDbLine
 10
797.7776990744596
 20
249.6803181390592
 30
0.0
 11
797.7776990744596
 21
247.6803181390592
 31
0.0
  0
LINE
  5
294E
330
2
100
AcDbEntity
  8
0
100
AcDbLine
 10
796.7776990744596
 20
250.6803181390592
 30
0.0
 11
797.7776990744596
 21
249.6803181390592
 31
0.0
  0
LINE
  5
294F
330
2
100
AcDbEntity
  8
0
100
AcDbLine
 10
798.2776990744596
 20
247.6803181390593
 30
0.0
 11
798.3756352133475
 21
248.7997333288776
 31
0.0
  0
LINE
  5
2950
330
2
100
AcDbEntity
  8
0
100
AcDbLine
 10
799.7479592512956
 20
249.8327596764368
 30
0.0
 11
799.7276990744596
 21
250.0437364218984
 31
0.0
  0
LINE
  5
2951
330
2
100
AcDbEntity
  8
0
100
AcDbLine
 10
802.0651990749147
 20
248.7633181390593
 30
0.0
 11
801.4901990740046
 21
248.7633181390593
 31
0.0
  0
LINE
  5
2952
330
2
100
AcDbEntity
  8
0
100
AcDbLine
 10
803.8074388976237
 20
249.8327596764368
 30
0.0
 11
803.8276990744597
 21
250.0437364218984
 31
0.0
  0
SPLINE
  5
2953
330
2
100
AcDbEntity
  8
0
100
AcDbSpline
210
0.0
220
0.0
230
1.0
 70
     8
 71
     3
 72
    11
 73
     7
 74
     0
 42
0.0000000001
 43
0.0000000001
 40
0.0
 40
0.0
 40
0.0
 40
0.0
 40
0.4601364636755307
 40
1.04988694485363
 40
1.713742833862792
 40
2.320347933405154
 40
2.320347933405154
 40
2.320347933405154
 40
2.320347933405179
 10
802.0651990749147
 20
248.7633181390593
 30
0.0
 10
802.0876167320224
 20
248.9183415787392
 30
0.0
 10
802.1387667872559
 20
249.2720563966567
 30
0.0
 10
802.5746519487894
 20
249.6967840682584
 30
0.0
 10
803.1797026637969
 20
249.9159712482242
 30
0.0
 10
803.6048872879726
 20
249.8469799486136
 30
0.0
 10
803.8074388976237
 20
249.8327596764368
 30
0.0
  0
SPLINE
  5
2954
330
2
100
AcDbEntity
  8
0
100
AcDbSpline
210
0.0
220
0.0
230
1.0
 70
     8
 71
     3
 72
    11
 73
     7
 74
     0
 42
0.0000000001
 43
0.0000000001
 40
0.0
 40
0.0
 40
0.0
 40
0.0
 40
0.4601364636755307
 40
1.04988694485363
 40
1.713742833862792
 40
2.320347933405154
 40
2.320347933405154
 40
2.320347933405154
 40
2.320347933405179
 10
801.4901990740046
 20
248.7633181390593
 30
0.0
 10
801.4677814168967
 20
248.9183415787392
 30
0.0
 10
801.4166313616636
 20
249.2720563966567
 30
0.0
 10
800.9807462001299
 20
249.6967840682584
 30
0.0
 10
800.3756954851224
 20
249.9159712482242
 30
0.0
 10
799.9505108609467
 20
249.8469799486136
 30
0.0
 10
799.7479592512956
 20
249.8327596764368
 30
0.0
  0
LINE
  5
2955
330
2
100
AcDbEntity
  8
0
100
AcDbLine
 10
805.2776990744597
 20
247.6803181390593
 30
0.0
 11
805.1797629355716
 21
248.7997333288776
 31
0.0
  0
LINE
  5
2956
330
2
100
AcDbEntity
  8
0
100
AcDbLine
 10
804.7226764640797
 20
249.6803181390593
 30
0.0
 11
805.7776990744596
 21
249.6803181390592
 31
0.0
  0
LINE
  5
2957
330
2
100
AcDbEntity
  8
0
100
AcDbLine
 10
804.7776990744596
 20
250.6803181390592
 30
0.0
 11
805.7776990744596
 21
249.6803181390592
 31
0.0
  0
LINE
  5
2958
330
2
100
AcDbEntity
  8
CENTER
100
AcDbLine
 10
774.7776990744596
 20
421.4073662276408
 30
0.0
 11
774.7776990744596
 21
348.0417932536987
 31
0.0
  0
LINE
  5
295A
330
2
100
AcDbEntity
  8
0
100
AcDbLine
 10
751.7777070744596
 20
413.7245797406698
 30
0.0
 11
797.7776990744596
 21
413.7245797406698
 31
0.0
  0
LINE
  5
295B
330
2
100
AcDbEntity
  8
0
100
AcDbLine
 10
797.7776990744596
 20
355.7245797406697
 30
0.0
 11
751.7777070744596
 21
355.7245797406697
 31
0.0
  0
LINE
  5
295C
330
2
100
AcDbEntity
  8
0
100
AcDbLine
 10
744.7777241077929
 20
353.7245797406697
 30
0.0
 11
804.7776990744596
 21
353.7245797406699
 31
0.0
  0
LINE
  5
295D
330
2
100
AcDbEntity
  8
0
100
AcDbLine
 10
804.7776990744596
 20
415.7245797406696
 30
0.0
 11
744.7775980411263
 21
415.7245797406698
 31
0.0
  0
LINE
  5
295E
330
2
100
AcDbEntity
  8
0
100
AcDbLine
 10
745.7776610744596
 20
361.7245797406698
 30
0.0
 11
745.7776610744597
 21
407.7245797406698
 31
0.0
  0
LINE
  5
295F
330
2
100
AcDbEntity
  8
0
100
AcDbLine
 10
743.7776000744596
 20
414.7245797406718
 30
0.0
 11
743.7777220744595
 21
354.7245797406676
 31
0.0
  0
LINE
  5
2960
330
2
100
AcDbEntity
  8
0
100
AcDbLine
 10
748.7776760744595
 20
361.7245797406698
 30
0.0
 11
743.7777220744595
 21
361.7245797406698
 31
0.0
  0
CIRCLE
  5
2961
330
2
100
AcDbEntity
  8
0
100
AcDbCircle
 10
747.7776760744596
 20
357.7245797406698
 30
0.0
 40
3.500000000000028
  0
ARC
  5
2962
330
2
100
AcDbEntity
  8
0
100
AcDbCircle
 10
745.7479760744595
 20
359.7542797406698
 30
0.0
 40
1.742199999999999
100
AcDbArc
 50
269.9986903345035
 51
0.0013096654997424
  0
ARC
  5
2963
330
2
100
AcDbEntity
  8
0
100
AcDbCircle
 10
745.7479760744595
 20
355.6948797406698
 30
0.0
 40
1.742199999999999
100
AcDbArc
 50
359.9986903345002
 51
90.00130966549649
  0
LINE
  5
2964
330
2
100
AcDbEntity
  8
0
100
AcDbLine
 10
744.7777241077929
 20
353.7245797406697
 30
0.0
 11
743.7777220744595
 21
354.7245797406676
 31
0.0
  0
ARC
  5
2965
330
2
100
AcDbEntity
  8
0
100
AcDbCircle
 10
747.7776760744596
 20
357.7245797406698
 30
0.0
 40
2.049999999999998
100
AcDbArc
 50
180.0
 51
188.0619600839821
  0
ARC
  5
2966
330
2
100
AcDbEntity
  8
0
100
AcDbCircle
 10
747.7776760744596
 20
357.7245797406698
 30
0.0
 40
2.049999999999998
100
AcDbArc
 50
171.9380399160178
 51
180.0
  0
LINE
  5
2967
330
2
100
AcDbEntity
  8
0
100
AcDbLine
 10
751.7777070744596
 20
358.7245797406698
 30
0.0
 11
751.7777070744596
 21
353.7245797406697
 31
0.0
  0
ARC
  5
2968
330
2
100
AcDbEntity
  8
0
100
AcDbCircle
 10
749.8073760744595
 20
355.6948797406698
 30
0.0
 40
1.742199999999999
100
AcDbArc
 50
89.99869033450025
 51
180.0013096654997
  0
ARC
  5
2969
330
2
100
AcDbEntity
  8
0
100
AcDbCircle
 10
747.7776760744596
 20
357.7245797406698
 30
0.0
 40
2.049999999999998
100
AcDbArc
 50
270.0
 51
278.061960083982
  0
ARC
  5
296A
330
2
100
AcDbEntity
  8
0
100
AcDbCircle
 10
747.7776760744596
 20
357.7245797406698
 30
0.0
 40
2.049999999999998
100
AcDbArc
 50
261.9380399160178
 51
270.0
  0
ARC
  5
296B
330
2
100
AcDbEntity
  8
0
100
AcDbCircle
 10
748.7777220744596
 20
358.7245797406698
 30
0.0
 40
3.0
100
AcDbArc
 50
0.0
 51
90.0
  0
ARC
  5
296C
330
2
100
AcDbEntity
  8
0
100
AcDbCircle
 10
747.7776760744596
 20
357.7245797406698
 30
0.0
 40
2.049999999999998
100
AcDbArc
 50
81.93803991601789
 51
90.0
  0
ARC
  5
296D
330
2
100
AcDbEntity
  8
0
100
AcDbCircle
 10
747.7776760744596
 20
357.7245797406698
 30
0.0
 40
2.049999999999998
100
AcDbArc
 50
90.0
 51
98.06196008398211
  0
ARC
  5
296E
330
2
100
AcDbEntity
  8
0
100
AcDbCircle
 10
747.7776760744596
 20
357.7245797406698
 30
0.0
 40
2.049999999999998
100
AcDbArc
 50
351.9380399160179
 51
0.0
  0
ARC
  5
296F
330
2
100
AcDbEntity
  8
0
100
AcDbCircle
 10
747.7776760744596
 20
357.7245797406698
 30
0.0
 40
2.049999999999998
100
AcDbArc
 50
0.0
 51
8.061960083982105
  0
ARC
  5
2970
330
2
100
AcDbEntity
  8
0
100
AcDbCircle
 10
749.8073760744595
 20
359.7542797406698
 30
0.0
 40
1.742199999999999
100
AcDbArc
 50
179.9986903345002
 51
270.0013096654964
  0
LINE
  5
2971
330
2
100
AcDbEntity
  8
0
100
AcDbLine
 10
748.7776760744595
 20
407.7245797406698
 30
0.0
 11
743.7777220744595
 21
407.7245797406698
 31
0.0
  0
CIRCLE
  5
2972
330
2
100
AcDbEntity
  8
0
100
AcDbCircle
 10
747.7776760744596
 20
411.7245797406698
 30
0.0
 40
3.500000000000028
  0
ARC
  5
2973
330
2
100
AcDbEntity
  8
0
100
AcDbCircle
 10
745.7479760744595
 20
413.7542797406698
 30
0.0
 40
1.742199999999999
100
AcDbArc
 50
269.9986903345035
 51
0.0013096654997424
  0
ARC
  5
2974
330
2
100
AcDbEntity
  8
0
100
AcDbCircle
 10
745.7479760744595
 20
409.6948797406699
 30
0.0
 40
1.742199999999999
100
AcDbArc
 50
359.9986903345002
 51
90.00130966549649
  0
ARC
  5
2975
330
2
100
AcDbEntity
  8
0
100
AcDbCircle
 10
747.7776760744596
 20
411.7245797406698
 30
0.0
 40
2.049999999999998
100
AcDbArc
 50
180.0
 51
188.0619600839821
  0
ARC
  5
2976
330
2
100
AcDbEntity
  8
0
100
AcDbCircle
 10
747.7776760744596
 20
411.7245797406698
 30
0.0
 40
2.049999999999998
100
AcDbArc
 50
171.9380399160178
 51
180.0
  0
LINE
  5
2977
330
2
100
AcDbEntity
  8
0
100
AcDbLine
 10
743.7776000744596
 20
414.7245797406718
 30
0.0
 11
744.7775980411263
 21
415.7245797406698
 31
0.0
  0
ARC
  5
2978
330
2
100
AcDbEntity
  8
0
100
AcDbCircle
 10
748.7777220744596
 20
410.7245797406697
 30
0.0
 40
3.0
100
AcDbArc
 50
270.0
 51
0.0
  0
ARC
  5
2979
330
2
100
AcDbEntity
  8
0
100
AcDbCircle
 10
747.7776760744596
 20
411.7245797406698
 30
0.0
 40
2.049999999999998
100
AcDbArc
 50
81.93803991601789
 51
90.0
  0
ARC
  5
297A
330
2
100
AcDbEntity
  8
0
100
AcDbCircle
 10
747.7776760744596
 20
411.7245797406698
 30
0.0
 40
2.049999999999998
100
AcDbArc
 50
90.0
 51
98.06196008398211
  0
ARC
  5
297B
330
2
100
AcDbEntity
  8
0
100
AcDbCircle
 10
747.7776760744596
 20
411.7245797406698
 30
0.0
 40
2.049999999999998
100
AcDbArc
 50
351.9380399160179
 51
0.0
  0
ARC
  5
297C
330
2
100
AcDbEntity
  8
0
100
AcDbCircle
 10
747.7776760744596
 20
411.7245797406698
 30
0.0
 40
2.049999999999998
100
AcDbArc
 50
270.0
 51
278.061960083982
  0
ARC
  5
297D
330
2
100
AcDbEntity
  8
0
100
AcDbCircle
 10
747.7776760744596
 20
411.7245797406698
 30
0.0
 40
2.049999999999998
100
AcDbArc
 50
261.9380399160178
 51
270.0
  0
ARC
  5
297E
330
2
100
AcDbEntity
  8
0
100
AcDbCircle
 10
747.7776760744596
 20
411.7245797406698
 30
0.0
 40
2.049999999999998
100
AcDbArc
 50
0.0
 51
8.061960083982105
  0
ARC
  5
297F
330
2
100
AcDbEntity
  8
0
100
AcDbCircle
 10
749.8073760744595
 20
413.7542797406698
 30
0.0
 40
1.742199999999999
100
AcDbArc
 50
179.9986903345002
 51
270.0013096654964
  0
ARC
  5
2980
330
2
100
AcDbEntity
  8
0
100
AcDbCircle
 10
749.8073760744595
 20
409.6948797406699
 30
0.0
 40
1.742199999999999
100
AcDbArc
 50
89.99869033450025
 51
180.0013096654997
  0
LINE
  5
2981
330
2
100
AcDbEntity
  8
0
100
AcDbLine
 10
751.7777070744596
 20
410.7245797406697
 30
0.0
 11
751.7777070744596
 21
415.7245797406698
 31
0.0
  0
LINE
  5
2982
330
2
100
AcDbEntity
  8
0
100
AcDbLine
 10
803.7776990744596
 20
407.7245797406698
 30
0.0
 11
803.7776990744596
 21
361.7245797406698
 31
0.0
  0
LINE
  5
2983
330
2
100
AcDbEntity
  8
0
100
AcDbLine
 10
805.7776990744596
 20
354.7245797406699
 30
0.0
 11
805.7776990744596
 21
414.7245797406696
 31
0.0
  0
LINE
  5
2984
330
2
100
AcDbEntity
  8
0
100
AcDbLine
 10
800.7776990744597
 20
361.7245797406698
 30
0.0
 11
805.7776990744596
 21
361.7245797406698
 31
0.0
  0
CIRCLE
  5
2985
330
2
100
AcDbEntity
  8
0
100
AcDbCircle
 10
801.7777220744596
 20
357.7245797406698
 30
0.0
 40
3.500000000000028
  0
ARC
  5
2986
330
2
100
AcDbEntity
  8
0
100
AcDbCircle
 10
799.7480220744595
 20
355.6948797406698
 30
0.0
 40
1.742199999999999
100
AcDbArc
 50
359.9986903345002
 51
90.00130966549649
  0
ARC
  5
2987
330
2
100
AcDbEntity
  8
0
100
AcDbCircle
 10
803.8074220744595
 20
355.6948797406698
 30
0.0
 40
1.742199999999999
100
AcDbArc
 50
89.99869033450025
 51
180.0013096654997
  0
LINE
  5
2988
330
2
100
AcDbEntity
  8
0
100
AcDbLine
 10
797.7776990744596
 20
358.7245797406698
 30
0.0
 11
797.7776990744596
 21
353.7245797406697
 31
0.0
  0
ARC
  5
2989
330
2
100
AcDbEntity
  8
0
100
AcDbCircle
 10
801.7777220744596
 20
357.7245797406698
 30
0.0
 40
2.049999999999998
100
AcDbArc
 50
270.0
 51
278.061960083982
  0
ARC
  5
298A
330
2
100
AcDbEntity
  8
0
100
AcDbCircle
 10
801.7777220744596
 20
357.7245797406698
 30
0.0
 40
2.049999999999998
100
AcDbArc
 50
261.9380399160178
 51
270.0
  0
ARC
  5
298B
330
2
100
AcDbEntity
  8
0
100
AcDbCircle
 10
800.7776990744597
 20
358.7245797406698
 30
0.0
 40
3.0
100
AcDbArc
 50
90.0
 51
180.0
  0
ARC
  5
298C
330
2
100
AcDbEntity
  8
0
100
AcDbCircle
 10
801.7777220744596
 20
357.7245797406698
 30
0.0
 40
2.049999999999998
100
AcDbArc
 50
81.93803991601789
 51
90.0
  0
ARC
  5
298D
330
2
100
AcDbEntity
  8
0
100
AcDbCircle
 10
801.7777220744596
 20
357.7245797406698
 30
0.0
 40
2.049999999999998
100
AcDbArc
 50
90.0
 51
98.06196008398211
  0
ARC
  5
298E
330
2
100
AcDbEntity
  8
0
100
AcDbCircle
 10
801.7777220744596
 20
357.7245797406698
 30
0.0
 40
2.049999999999998
100
AcDbArc
 50
351.9380399160179
 51
0.0
  0
ARC
  5
298F
330
2
100
AcDbEntity
  8
0
100
AcDbCircle
 10
801.7777220744596
 20
357.7245797406698
 30
0.0
 40
2.049999999999998
100
AcDbArc
 50
180.0
 51
188.0619600839821
  0
ARC
  5
2990
330
2
100
AcDbEntity
  8
0
100
AcDbCircle
 10
801.7777220744596
 20
357.7245797406698
 30
0.0
 40
2.049999999999998
100
AcDbArc
 50
0.0
 51
8.061960083982105
  0
ARC
  5
2991
330
2
100
AcDbEntity
  8
0
100
AcDbCircle
 10
799.7480220744595
 20
359.7542797406698
 30
0.0
 40
1.742199999999999
100
AcDbArc
 50
269.9986903345035
 51
0.0013096654997424
  0
ARC
  5
2992
330
2
100
AcDbEntity
  8
0
100
AcDbCircle
 10
801.7777220744596
 20
357.7245797406698
 30
0.0
 40
2.049999999999998
100
AcDbArc
 50
171.9380399160178
 51
180.0
  0
ARC
  5
2993
330
2
100
AcDbEntity
  8
0
100
AcDbCircle
 10
803.8074220744595
 20
359.7542797406698
 30
0.0
 40
1.742199999999999
100
AcDbArc
 50
179.9986903345002
 51
270.0013096654964
  0
LINE
  5
2994
330
2
100
AcDbEntity
  8
0
100
AcDbLine
 10
805.7776990744596
 20
354.7245797406699
 30
0.0
 11
804.7776990744596
 21
353.7245797406699
 31
0.0
  0
LINE
  5
2995
330
2
100
AcDbEntity
  8
0
100
AcDbLine
 10
800.7776990744597
 20
407.7245797406698
 30
0.0
 11
805.7776990744596
 21
407.7245797406698
 31
0.0
  0
CIRCLE
  5
2996
330
2
100
AcDbEntity
  8
0
100
AcDbCircle
 10
801.7777220744596
 20
411.7245797406698
 30
0.0
 40
3.500000000000028
  0
ARC
  5
2997
330
2
100
AcDbEntity
  8
0
100
AcDbCircle
 10
800.7776990744597
 20
410.7245797406697
 30
0.0
 40
3.0
100
AcDbArc
 50
180.0
 51
270.0
  0
LINE
  5
2998
330
2
100
AcDbEntity
  8
0
100
AcDbLine
 10
797.7776990744596
 20
410.7245797406697
 30
0.0
 11
797.7776990744596
 21
415.7245797406698
 31
0.0
  0
ARC
  5
2999
330
2
100
AcDbEntity
  8
0
100
AcDbCircle
 10
801.7777220744596
 20
411.7245797406698
 30
0.0
 40
2.049999999999998
100
AcDbArc
 50
81.93803991601789
 51
90.0
  0
ARC
  5
299A
330
2
100
AcDbEntity
  8
0
100
AcDbCircle
 10
801.7777220744596
 20
411.7245797406698
 30
0.0
 40
2.049999999999998
100
AcDbArc
 50
90.0
 51
98.06196008398211
  0
ARC
  5
299B
330
2
100
AcDbEntity
  8
0
100
AcDbCircle
 10
801.7777220744596
 20
411.7245797406698
 30
0.0
 40
2.049999999999998
100
AcDbArc
 50
351.9380399160179
 51
0.0
  0
ARC
  5
299C
330
2
100
AcDbEntity
  8
0
100
AcDbCircle
 10
801.7777220744596
 20
411.7245797406698
 30
0.0
 40
2.049999999999998
100
AcDbArc
 50
270.0
 51
278.061960083982
  0
ARC
  5
299D
330
2
100
AcDbEntity
  8
0
100
AcDbCircle
 10
801.7777220744596
 20
411.7245797406698
 30
0.0
 40
2.049999999999998
100
AcDbArc
 50
180.0
 51
188.0619600839821
  0
ARC
  5
299E
330
2
100
AcDbEntity
  8
0
100
AcDbCircle
 10
801.7777220744596
 20
411.7245797406698
 30
0.0
 40
2.049999999999998
100
AcDbArc
 50
261.9380399160178
 51
270.0
  0
ARC
  5
299F
330
2
100
AcDbEntity
  8
0
100
AcDbCircle
 10
801.7777220744596
 20
411.7245797406698
 30
0.0
 40
2.049999999999998
100
AcDbArc
 50
0.0
 51
8.061960083982105
  0
ARC
  5
29A0
330
2
100
AcDbEntity
  8
0
100
AcDbCircle
 10
799.7480220744595
 20
413.7542797406698
 30
0.0
 40
1.742199999999999
100
AcDbArc
 50
269.9986903345035
 51
0.0013096654997424
  0
ARC
  5
29A1
330
2
100
AcDbEntity
  8
0
100
AcDbCircle
 10
801.7777220744596
 20
411.7245797406698
 30
0.0
 40
2.049999999999998
100
AcDbArc
 50
171.9380399160178
 51
180.0
  0
ARC
  5
29A2
330
2
100
AcDbEntity
  8
0
100
AcDbCircle
 10
799.7480220744595
 20
409.6948797406699
 30
0.0
 40
1.742199999999999
100
AcDbArc
 50
359.9986903345002
 51
90.00130966549649
  0
ARC
  5
29A3
330
2
100
AcDbEntity
  8
0
100
AcDbCircle
 10
803.8074220744595
 20
413.7542797406698
 30
0.0
 40
1.742199999999999
100
AcDbArc
 50
179.9986903345002
 51
270.0013096654964
  0
ARC
  5
29A4
330
2
100
AcDbEntity
  8
0
100
AcDbCircle
 10
803.8074220744595
 20
409.6948797406699
 30
0.0
 40
1.742199999999999
100
AcDbArc
 50
89.99869033450025
 51
180.0013096654997
  0
LINE
  5
29A5
330
2
100
AcDbEntity
  8
0
100
AcDbLine
 10
804.7776990744596
 20
415.7245797406696
 30
0.0
 11
805.7776990744596
 21
414.7245797406696
 31
0.0
  0
LINE
  5
2AB5
330
2
100
AcDbEntity
  8
0
100
AcDbLine
 10
743.777614307793
 20
407.7245797406698
 30
0.0
 11
720.7191130744596
 21
407.7245797406698
 31
0.0
  0
LINE
  5
2AB6
330
2
100
AcDbEntity
  8
0
100
AcDbLine
 10
743.7777078411262
 20
361.7245797406698
 30
0.0
 11
720.7191130744596
 21
361.7245797406698
 31
0.0
  0
VIEWPORT
  5
22C1
330
22C0
100
AcDbEntity
 67
     1
  8
0
100
AcDbViewport
 10
149.5101827339697
 20
98.77275856520029
 30
0.0
 40
341.2425907493672
 41
217.7722425612144
 68
     1
 69
     1
1001
ACAD
1000
MVIEW
1002
{
1070
    16
1010
0.0
1020
0.0
1030
0.0
1010
0.0
1020
0.0
1030
1.0
1040
0.0
1040
217.7722425612144
1040
149.5101827339697
1040
98.77275856520029
1040
50.0
1040
0.0
1040
0.0
1070
     0
1070
   100
1070
     1
1070
     1
1070
     0
1070
     0
1070
     0
1070
     0
1040
0.0
1040
0.0
1040
0.0
1040
10.0
1040
10.0
1040
10.0
1040
10.0
1070
     0
1002
{
1002
}
1002
}
  0
TEXT
  5
22C2
330
22C0
100
AcDbEntity
 67
     1
  8
TEXT
100
AcDbText
 10
266.4665517915716
 20
9.492177985111482
 30
0.0
 40
2.0
  1
2005.07.13
 41
0.7
100
AcDbText
  0
TEXT
  5
22C3
330
22C0
100
AcDbEntity
 67
     1
  8
TEXT
100
AcDbText
 10
221.2876186247744
 20
25.81289445791026
 30
0.0
 40
2.0
  1
F2SB12-S15WC
100
AcDbText
  0
INSERT
  5
22C4
330
22C0
100
AcDbEntity
 67
     1
  8
0
100
AcDbBlockReference
 66
     1
  2
外寸枠A4テンプレート
 10
0.0
 20
0.0
 30
0.0
  0
ATTRIB
  5
22C5
330
22C4
100
AcDbEntity
 67
     1
  8
TEXT
100
AcDbText
 10
217.459457142857
 20
34.33735183158626
 30
0.0
 40
2.500000000000001
  1
F2SB-12-10～240-S15WC
 72
     4
 11
241.8165999999999
 21
35.58735183158626
 31
0.0
100
AcDbAttribute
  2
T　I　T　L　E
 70
     0
  0
ATTRIB
  5
22C6
330
22C4
100
AcDbEntity
 67
     1
  8
TEXT
100
AcDbText
 10
231.4275923057046
 20
7.13444951887557
 30
0.0
 40
2.0
  1
1：3
 72
     4
 11
234.056163734276
 21
8.13444951887557
 31
0.0
100
AcDbAttribute
  2
FREE
 70
     0
  0
ATTRIB
  5
22C7
330
22C4
100
AcDbEntity
 67
     1
  8
TEXT
100
AcDbText
 10
205.1985180173093
 20
6.884449518875568
 30
0.0
 40
2.500000000000004
  1
海野
 72
     4
 11
207.865184683976
 21
8.13444951887557
 31
0.0
100
AcDbAttribute
  2
海野
 70
     0
  0
ATTRIB
  5
22C8
330
22C4
100
AcDbEntity
 67
     1
  8
TEXT
100
AcDbText
 10
222.6686227589094
 20
6.884449518875568
 30
0.0
 40
2.500000000000004
  1
川上
 72
     4
 11
225.3352894255761
 21
8.13444951887557
 31
0.0
100
AcDbAttribute
  2
鳥居
 70
     0
  0
ATTRIB
  5
22C9
330
22C4
100
AcDbEntity
 67
     1
  8
TEXT
100
AcDbText
 10
213.9476826899094
 20
6.884449518875567
 30
0.0
 40
2.500000000000004
  1
永坂
 72
     4
 11
216.6143493565761
 21
8.13444951887557
 31
0.0
100
AcDbAttribute
  2
永坂
 70
     0
  0
SEQEND
  5
22CA
330
22C4
100
AcDbEntity
 67
     1
  8
0
  0
VIEWPORT
  5
22CB
330
22C0
100
AcDbEntity
 67
     1
  8
DEFPOINTS
100
AcDbViewport
 10
178.9823661524164
 20
119.8342555819647
 30
0.0
 40
202.035267695167
 41
101.6905599413481
 68
    -1
 69
     2
1001
ACAD
1000
MVIEW
1002
{
1070
    16
1010
0.0
1020
0.0
1030
0.0
1010
0.0
1020
0.0
1030
1.0
1040
0.0
1040
305.0716797479075
1040
639.3401195082893
1040
163.7687312678355
1040
50.0
1040
0.0
1040
0.0
1070
     0
1070
   100
1070
     1
1070
     3
1070
     0
1070
     0
1070
     0
1070
     0
1040
0.0
1040
0.0
1040
0.0
1040
10.0
1040
10.0
1040
10.0
1040
10.0
1070
     0
1002
{
1003
TITLE
1002
}
1002
}
  0
VIEWPORT
  5
22CC
330
22C0
100
AcDbEntity
 67
     1
  8
DEFPOINTS
100
AcDbViewport
 10
44.24078471851243
 20
128.2513251330299
 30
0.0
 40
82.48156943702486
 41
84.85642083921785
 68
    -1
 69
     3
1001
ACAD
1000
MVIEW
1002
{
1070
    16
1010
0.0
1020
0.0
1030
0.0
1010
0.0
1020
0.0
1030
1.0
1040
0.0
1040
254.5692631144034
1040
192.1518110349835
1040
390.5047656213394
1040
50.0
1040
0.0
1040
0.0
1070
     0
1070
   100
1070
     1
1070
     3
1070
     0
1070
     0
1070
     0
1070
     0
1040
0.0
1040
0.0
1040
0.0
1040
10.0
1040
10.0
1040
10.0
1040
10.0
1070
     0
1002
{
1003
TITLE
1002
}
1002
}
  0
INSERT
  5
22CD
330
22C0
100
AcDbEntity
 67
     1
  8
TEXT
100
AcDbBlockReference
  2
1
 10
202.0
 20
40.0
 30
0.0
  0
INSERT
  5
23E8
330
22C0
100
AcDbEntity
 67
     1
  8
TEXT
100
AcDbBlockReference
  2
BSPEC_90-90-0038
 10
3.0
 20
4.0
 30
0.0
  0
INSERT
  5
2435
330
22C0
100
AcDbEntity
 67
     1
  8
TEXT
100
AcDbBlockReference
  2
GSPEC_F2S-12-10-240
 10
3.0
 20
4.0
 30
0.0
  0
INSERT
  5
25E3
330
22C0
100
AcDbEntity
 67
     1
  8
TEXT
100
AcDbBlockReference
  2
MSPEC_S15WF-75
 10
3.0
 20
4.0
 30
0.0
  0
INSERT
  5
26F3
330
22C0
100
AcDbEntity
 67
     1
  8
TEXT
100
AcDbBlockReference
  2
19
 10
202.0
 20
50.5
 30
0.0
  0
INSERT
  5
26F4
330
22C0
100
AcDbEntity
 67
     1
  8
TEXT
100
AcDbBlockReference
  2
18
 10
202.0
 20
43.5
 30
0.0
  0
ENDSEC
  0
SECTION
  2
OBJECTS
  0
DICTIONARY
  5
7
330
0
100
AcDbDictionary
  3
ACAD_GROUP
350
75
  3
ACAD_LAYOUT
350
61
  3
ACAD_MLINESTYLE
350
76
  3
ACAD_PLOTSETTINGS
350
77
  3
ACAD_PLOTSTYLENAME
350
6
  3
ACADDIM
350
480
  3
ACDBHEADERROUNDTRIPXREC
350
2B61
  3
ACDBVARIABLEDICTIONARY
350
102
  3
DWGPROPS
350
3D2
  0
DICTIONARY
  5
2B82
330
2
100
AcDbDictionary
280
     1
  3
ACAD_LAYOUTSELFREF
360
2B83
  0
DICTIONARY
  5
2B95
330
22C0
100
AcDbDictionary
280
     1
  3
ACAD_LAYOUTSELFREF
360
2B96
  0
DICTIONARY
  5
75
102
{ACAD_REACTORS
330
7
102
}
330
7
100
AcDbDictionary
  0
DICTIONARY
  5
61
102
{ACAD_REACTORS
330
7
102
}
330
7
100
AcDbDictionary
  0
DICTIONARY
  5
76
102
{ACAD_REACTORS
330
7
102
}
330
7
100
AcDbDictionary
  3
STANDARD
350
78
  0
DICTIONARY
  5
77
102
{ACAD_REACTORS
330
7
102
}
330
7
100
AcDbDictionary
  0
ACDBDICTIONARYWDFLT
  5
6
102
{ACAD_REACTORS
330
7
102
}
330
7
100
AcDbDictionary
281
     1
  3
Normal
350
5
100
AcDbDictionaryWithDefault
340
5
  0
XRECORD
  5
480
102
{ACAD_REACTORS
330
7
102
}
330
7
100
AcDbXrecord
 90
   990106
  3

 60
     0
 61
     0
 62
     1
 63
     3
 64
     1
 65
     0
 66
     0
 67
     3
 68
     1
 69
     0
 70
     0
 71
     0
 72
     0
 40
0.0
170
     2
340
0
  0
DICTIONARY
  5
2B61
102
{ACAD_REACTORS
330
7
102
}
330
7
100
AcDbDictionary
  3
CEPSNTYPE
350
2B6B
  3
DIMSTYLEDATA
350
2B6F
  3
FINGERPRINTGUID
350
2B6C
  3
HYPERLINKBASE
350
2B64
  3
INSUNITS
350
2B6A
  3
LAYOUTDICT
350
2B66
  3
LWETCUNION
350
2B69
  3
PLOTSETDICT
350
2B67
  3
PLOTSTYLNAMDICT
350
2B68
  3
PSVPSCALE
350
2B6E
  3
PUCSBASE
350
2B72
  3
PUCSORGBACK
350
2B78
  3
PUCSORGBOTTOM
350
2B74
  3
PUCSORGFRONT
350
2B77
  3
PUCSORGLEFT
350
2B75
  3
PUCSORGRIGHT
350
2B76
  3
PUCSORGTOP
350
2B73
  3
PUCSORTHOREF
350
2B70
  3
PUCSORTHOVIEW
350
2B71
  3
STYLESHEET
350
2B65
  3
TSTACKALIGN
350
2B62
  3
TSTACKSIZE
350
2B63
  3
UCSBASE
350
2B7B
  3
UCSORGBACK
350
2B81
  3
UCSORGBOTTOM
350
2B7D
  3
UCSORGFRONT
350
2B80
  3
UCSORGLEFT
350
2B7E
  3
UCSORGRIGHT
350
2B7F
  3
UCSORGTOP
350
2B7C
  3
UCSORTHOREF
350
2B79
  3
UCSORTHOVIEW
350
2B7A
  3
VERSIONGUID
350
2B6D
  0
DICTIONARY
  5
102
102
{ACAD_REACTORS
330
7
102
}
330
7
100
AcDbDictionary
  3
DIMASSOC
350
103
  0
XRECORD
  5
3D2
102
{ACAD_REACTORS
330
7
102
}
330
7
100
AcDbXrecord
  1
DWGPROPS COOKIE
  2

  3

  4

  6

  7

  8

  9

300
=
301
=
302
=
303
=
304
=
305
=
306
=
307
=
308
=
309
=
 40
0.5353330671296296
 41
2452052.431989363
 42
2453406.550756377
  1

 90
        0
  0
XRECORD
  5
2B83
102
{ACAD_REACTORS
330
2B82
102
}
330
2B82
100
AcDbXrecord
340
2
  0
XRECORD
  5
2B96
102
{ACAD_REACTORS
330
2B95
102
}
330
2B95
100
AcDbXrecord
340
22C0
  0
MLINESTYLE
  5
78
102
{ACAD_REACTORS
330
76
102
}
330
76
100
AcDbMlineStyle
  2
STANDARD
 70
     0
  3

 62
     0
 51
90.0
 52
90.0
 71
     2
 49
0.5
 62
   256
  6
BYLAYER
 49
-0.5
 62
   256
  6
BYLAYER
  0
ACDBPLACEHOLDER
  5
5
102
{ACAD_REACTORS
330
6
102
}
330
6
100
AcDbPlaceHolder
280
     0
  0
XRECORD
  5
2B6B
102
{ACAD_REACTORS
330
2B61
102
}
330
2B61
100
AcDbXrecord
 90
        0
  0
XRECORD
  5
2B6F
102
{ACAD_REACTORS
330
2B61
102
}
330
2B61
100
AcDbXrecord
1000
DSTYLE
1002
{
1070
   179
 70
     2
1070
   277
 70
     6
1002
}
  0
XRECORD
  5
2B6C
102
{ACAD_REACTORS
330
2B61
102
}
330
2B61
100
AcDbXrecord
  1
{6385560B-F4B1-4644-A7C2-A3E32AC3D232}
  0
XRECORD
  5
2B64
102
{ACAD_REACTORS
330
2B61
102
}
330
2B61
100
AcDbXrecord
  1

  0
XRECORD
  5
2B6A
102
{ACAD_REACTORS
330
2B61
102
}
330
2B61
100
AcDbXrecord
 90
        0
  0
XRECORD
  5
2B66
102
{ACAD_REACTORS
330
2B61
102
}
330
2B61
100
AcDbXrecord
340
61
  0
XRECORD
  5
2B69
102
{ACAD_REACTORS
330
2B61
102
}
330
2B61
100
AcDbXrecord
 90
    10781
  0
XRECORD
  5
2B67
102
{ACAD_REACTORS
330
2B61
102
}
330
2B61
100
AcDbXrecord
340
77
  0
XRECORD
  5
2B68
102
{ACAD_REACTORS
330
2B61
102
}
330
2B61
100
AcDbXrecord
340
6
  0
XRECORD
  5
2B6E
102
{ACAD_REACTORS
330
2B61
102
}
330
2B61
100
AcDbXrecord
 40
0.0
  0
XRECORD
  5
2B72
102
{ACAD_REACTORS
330
2B61
102
}
330
2B61
100
AcDbXrecord
340
0
  0
XRECORD
  5
2B78
102
{ACAD_REACTORS
330
2B61
102
}
330
2B61
100
AcDbXrecord
 10
0.0
 20
0.0
 30
0.0
  0
XRECORD
  5
2B74
102
{ACAD_REACTORS
330
2B61
102
}
330
2B61
100
AcDbXrecord
 10
0.0
 20
0.0
 30
0.0
  0
XRECORD
  5
2B77
102
{ACAD_REACTORS
330
2B61
102
}
330
2B61
100
AcDbXrecord
 10
0.0
 20
0.0
 30
0.0
  0
XRECORD
  5
2B75
102
{ACAD_REACTORS
330
2B61
102
}
330
2B61
100
AcDbXrecord
 10
0.0
 20
0.0
 30
0.0
  0
XRECORD
  5
2B76
102
{ACAD_REACTORS
330
2B61
102
}
330
2B61
100
AcDbXrecord
 10
0.0
 20
0.0
 30
0.0
  0
XRECORD
  5
2B73
102
{ACAD_REACTORS
330
2B61
102
}
330
2B61
100
AcDbXrecord
 10
0.0
 20
0.0
 30
0.0
  0
XRECORD
  5
2B70
102
{ACAD_REACTORS
330
2B61
102
}
330
2B61
100
AcDbXrecord
340
0
  0
XRECORD
  5
2B71
102
{ACAD_REACTORS
330
2B61
102
}
330
2B61
100
AcDbXrecord
 70
     0
  0
XRECORD
  5
2B65
102
{ACAD_REACTORS
330
2B61
102
}
330
2B61
100
AcDbXrecord
  1
Sekkei.ctb
  0
XRECORD
  5
2B62
102
{ACAD_REACTORS
330
2B61
102
}
330
2B61
100
AcDbXrecord
 90
        1
  0
XRECORD
  5
2B63
102
{ACAD_REACTORS
330
2B61
102
}
330
2B61
100
AcDbXrecord
 90
       70
  0
XRECORD
  5
2B7B
102
{ACAD_REACTORS
330
2B61
102
}
330
2B61
100
AcDbXrecord
340
0
  0
XRECORD
  5
2B81
102
{ACAD_REACTORS
330
2B61
102
}
330
2B61
100
AcDbXrecord
 10
0.0
 20
0.0
 30
0.0
  0
XRECORD
  5
2B7D
102
{ACAD_REACTORS
330
2B61
102
}
330
2B61
100
AcDbXrecord
 10
0.0
 20
0.0
 30
0.0
  0
XRECORD
  5
2B80
102
{ACAD_REACTORS
330
2B61
102
}
330
2B61
100
AcDbXrecord
 10
0.0
 20
0.0
 30
0.0
  0
XRECORD
  5
2B7E
102
{ACAD_REACTORS
330
2B61
102
}
330
2B61
100
AcDbXrecord
 10
0.0
 20
0.0
 30
0.0
  0
XRECORD
  5
2B7F
102
{ACAD_REACTORS
330
2B61
102
}
330
2B61
100
AcDbXrecord
 10
0.0
 20
0.0
 30
0.0
  0
XRECORD
  5
2B7C
102
{ACAD_REACTORS
330
2B61
102
}
330
2B61
100
AcDbXrecord
 10
0.0
 20
0.0
 30
0.0
  0
XRECORD
  5
2B79
102
{ACAD_REACTORS
330
2B61
102
}
330
2B61
100
AcDbXrecord
340
0
  0
XRECORD
  5
2B7A
102
{ACAD_REACTORS
330
2B61
102
}
330
2B61
100
AcDbXrecord
 70
     0
  0
XRECORD
  5
2B6D
102
{ACAD_REACTORS
330
2B61
102
}
330
2B61
100
AcDbXrecord
  1
{CA56EA48-BE35-450A-8CCE-01BD504C22E5}
  0
DICTIONARYVAR
  5
103
102
{ACAD_REACTORS
330
102
102
}
330
102
100
DictionaryVariables
280
     0
  1
1
  0
ENDSEC
  0
EOF
