  0
SECTION
  2
HEADER
  9
$ACADVER
  1
AC1014
  9
$ACADMAINTVER
 70
     9
  9
$DWGCODEPAGE
  3
ANSI_932
  9
$INSBASE
 10
0.0
 20
0.0
 30
0.0
  9
$EXTMIN
 10
82.49734126498795
 20
15.34275674052428
 30
0.0
  9
$EXTMAX
 10
863.7982370426938
 20
434.2197267406698
 30
0.0
  9
$LIMMIN
 10
0.0
 20
0.0
  9
$LIMMAX
 10
297.0
 20
210.0
  9
$ORTHOMODE
 70
     1
  9
$REGENMODE
 70
     1
  9
$FILLMODE
 70
     1
  9
$QTEXTMODE
 70
     0
  9
$MIRRTEXT
 70
     0
  9
$DRAGMODE
 70
     2
  9
$LTSCALE
 40
3.0
  9
$OSMODE
 70
    37
  9
$ATTMODE
 70
     1
  9
$TEXTSIZE
 40
2.0
  9
$TRACEWID
 40
1.0
  9
$TEXTSTYLE
  7
STANDARD
  9
$CLAYER
  8
0
  9
$CELTYPE
  6
BYLAYER
  9
$CECOLOR
 62
   256
  9
$CELTSCALE
 40
1.0
  9
$DELOBJ
 70
     1
  9
$DISPSILH
 70
     0
  9
$DIMSCALE
 40
3.0
  9
$DIMASZ
 40
1.8
  9
$DIMEXO
 40
0.625
  9
$DIMDLI
 40
3.75
  9
$DIMRND
 40
0.0
  9
$DIMDLE
 40
0.0
  9
$DIMEXE
 40
0.8
  9
$DIMTP
 40
0.0
  9
$DIMTM
 40
0.0
  9
$DIMTXT
 40
1.8
  9
$DIMCEN
 40
2.5
  9
$DIMTSZ
 40
0.0
  9
$DIMTOL
 70
     0
  9
$DIMLIM
 70
     0
  9
$DIMTIH
 70
     0
  9
$DIMTOH
 70
     0
  9
$DIMSE1
 70
     0
  9
$DIMSE2
 70
     0
  9
$DIMTAD
 70
     1
  9
$DIMZIN
 70
     8
  9
$DIMBLK
  1

  9
$DIMASO
 70
     1
  9
$DIMSHO
 70
     1
  9
$DIMPOST
  1

  9
$DIMAPOST
  1

  9
$DIMALT
 70
     0
  9
$DIMALTD
 70
     4
  9
$DIMALTF
 40
0.0394
  9
$DIMLFAC
 40
1.0
  9
$DIMTOFL
 70
     1
  9
$DIMTVP
 40
0.0
  9
$DIMTIX
 70
     0
  9
$DIMSOXD
 70
     0
  9
$DIMSAH
 70
     0
  9
$DIMBLK1
  1

  9
$DIMBLK2
  1

  9
$DIMSTYLE
  2
STANDARD
  9
$DIMCLRD
 70
     0
  9
$DIMCLRE
 70
     0
  9
$DIMCLRT
 70
     0
  9
$DIMTFAC
 40
1.0
  9
$DIMGAP
 40
0.75
  9
$DIMJUST
 70
     0
  9
$DIMSD1
 70
     0
  9
$DIMSD2
 70
     0
  9
$DIMTOLJ
 70
     1
  9
$DIMTZIN
 70
     0
  9
$DIMALTZ
 70
     0
  9
$DIMALTTZ
 70
     0
  9
$DIMFIT
 70
     3
  9
$DIMUPT
 70
     0
  9
$DIMUNIT
 70
     2
  9
$DIMDEC
 70
     2
  9
$DIMTDEC
 70
     2
  9
$DIMALTU
 70
     8
  9
$DIMALTTD
 70
     4
  9
$DIMTXSTY
  7
STANDARD
  9
$DIMAUNIT
 70
     0
  9
$LUNITS
 70
     2
  9
$LUPREC
 70
     3
  9
$SKETCHINC
 40
1.0
  9
$FILLETRAD
 40
10.0
  9
$AUNITS
 70
     0
  9
$AUPREC
 70
     2
  9
$MENU
  1
.
  9
$ELEVATION
 40
0.0
  9
$PELEVATION
 40
0.0
  9
$THICKNESS
 40
0.0
  9
$LIMCHECK
 70
     0
  9
$BLIPMODE
 70
     0
  9
$CHAMFERA
 40
0.0
  9
$CHAMFERB
 40
0.0
  9
$CHAMFERC
 40
20.0
  9
$CHAMFERD
 40
0.0
  9
$SKPOLY
 70
     0
  9
$TDCREATE
 40
2453557.746080729
  9
$TDUPDATE
 40
2453664.557478657
  9
$TDINDWG
 40
0.2456005556
  9
$TDUSRTIMER
 40
0.2456005556
  9
$USRTIMER
 70
     1
  9
$ANGBASE
 50
0.0
  9
$ANGDIR
 70
     0
  9
$PDMODE
 70
     0
  9
$PDSIZE
 40
-10.0
  9
$PLINEWID
 40
0.0
  9
$COORDS
 70
     2
  9
$SPLFRAME
 70
     0
  9
$SPLINETYPE
 70
     6
  9
$SPLINESEGS
 70
     8
  9
$ATTDIA
 70
     0
  9
$ATTREQ
 70
     1
  9
$HANDLING
 70
-16383
  9
$HANDSEED
  5
2B7C
  9
$SURFTAB1
 70
     6
  9
$SURFTAB2
 70
     6
  9
$SURFTYPE
 70
     6
  9
$SURFU
 70
     6
  9
$SURFV
 70
     6
  9
$UCSNAME
  2

  9
$UCSORG
 10
0.0
 20
0.0
 30
0.0
  9
$UCSXDIR
 10
1.0
 20
0.0
 30
0.0
  9
$UCSYDIR
 10
0.0
 20
1.0
 30
0.0
  9
$PUCSNAME
  2

  9
$PUCSORG
 10
0.0
 20
0.0
 30
0.0
  9
$PUCSXDIR
 10
1.0
 20
0.0
 30
0.0
  9
$PUCSYDIR
 10
0.0
 20
1.0
 30
0.0
  9
$USERI1
 70
     0
  9
$USERI2
 70
     0
  9
$USERI3
 70
     0
  9
$USERI4
 70
     0
  9
$USERI5
 70
     0
  9
$USERR1
 40
0.0
  9
$USERR2
 40
0.0
  9
$USERR3
 40
0.0
  9
$USERR4
 40
0.0
  9
$USERR5
 40
0.0
  9
$WORLDVIEW
 70
     1
  9
$SHADEDGE
 70
     3
  9
$SHADEDIF
 70
    70
  9
$TILEMODE
 70
     1
  9
$MAXACTVP
 70
    48
  9
$PINSBASE
 10
0.0
 20
0.0
 30
0.0
  9
$PLIMCHECK
 70
     0
  9
$PEXTMIN
 10
0.0
 20
0.0
 30
0.0
  9
$PEXTMAX
 10
0.0
 20
0.0
 30
0.0
  9
$PLIMMIN
 10
0.0
 20
0.0
  9
$PLIMMAX
 10
12.0
 20
9.0
  9
$UNITMODE
 70
     0
  9
$VISRETAIN
 70
     1
  9
$PLINEGEN
 70
     0
  9
$PSLTSCALE
 70
     1
  9
$TREEDEPTH
 70
  3020
  9
$PICKSTYLE
 70
     1
  9
$CMLSTYLE
  2
STANDARD
  9
$CMLJUST
 70
     0
  9
$CMLSCALE
 40
1.0
  9
$PROXYGRAPHICS
 70
     1
  9
$MEASUREMENT
 70
     0
  0
ENDSEC
  0
SECTION
  2
CLASSES
  0
CLASS
  1
DICTIONARYVAR
  2
AcDbDictionaryVar
  3
AutoCAD 2000
 90
        0
280
     0
281
     0
  0
CLASS
  1
ACDBDICTIONARYWDFLT
  2
AcDbDictionaryWithDefault
  3
AutoCAD 2000
 90
        0
280
     0
281
     0
  0
CLASS
  1
ACDBPLACEHOLDER
  2
AcDbPlaceHolder
  3
AutoCAD 2000
 90
        0
280
     0
281
     0
  0
CLASS
  1
LAYOUT
  2
AcDbLayout
  3
AutoCAD 2000
 90
        0
280
     0
281
     0
  0
CLASS
  1
LONG_TRANSACTION
  2
AcDbLongTransaction
  3
AutoCAD 2000
 90
        0
280
     0
281
     0
  0
CLASS
  1
LWPOLYLINE
  2
AcDbPolyline
  3
AutoCAD 2000
 90
        0
280
     0
281
     1
  0
CLASS
  1
HATCH
  2
AcDbHatch
  3
AutoCAD 2000
 90
        0
280
     0
281
     1
  0
CLASS
  1
XRECORD
  2
AcDbXrecord
  3
AutoCAD 2000
 90
        0
280
     0
281
     0
  0
CLASS
  1
LONG_TRANSACTION
  2
AcDbLongTransaction
  3
AutoCAD 2000
 90
        0
280
     0
281
     0
  0
CLASS
  1
LWPOLYLINE
  2
AcDbPolyline
  3
AutoCAD 2000
 90
        0
280
     0
281
     1
  0
CLASS
  1
HATCH
  2
AcDbHatch
  3
AutoCAD 2000
 90
        0
280
     0
281
     1
  0
CLASS
  1
XRECORD
  2
AcDbXrecord
  3
AutoCAD 2000
 90
        0
280
     0
281
     0
  0
ENDSEC
  0
SECTION
  2
TABLES
  0
TABLE
  2
VPORT
  5
6E
330
0
100
AcDbSymbolTable
 70
     2
  0
VPORT
  5
2B57
330
6E
100
AcDbSymbolTableRecord
100
AcDbViewportTableRecord
  2
*ACTIVE
 70
     0
 10
0.0
 20
0.0
 11
1.0
 21
1.0
 12
481.5346354264585
 22
248.6518194210753
 13
0.0
 23
0.0
 14
10.0
 24
10.0
 15
10.0
 25
10.0
 16
0.0
 26
0.0
 36
1.0
 17
0.0
 27
0.0
 37
0.0
 40
511.9597380710168
 41
1.566970091027308
 42
50.0
 43
0.0
 44
0.0
 50
0.0
 51
0.0
 71
     0
 72
   100
 73
     1
 74
     3
 75
     0
 76
     0
 77
     0
 78
     0
  0
ENDTAB
  0
TABLE
  2
LTYPE
  5
69
330
0
100
AcDbSymbolTable
 70
     6
  0
LTYPE
  5
6A
330
69
100
AcDbSymbolTableRecord
100
AcDbLinetypeTableRecord
  2
BYBLOCK
 70
     0
  3

 72
    65
 73
     0
 40
0.0
  0
LTYPE
  5
6B
330
69
100
AcDbSymbolTableRecord
100
AcDbLinetypeTableRecord
  2
BYLAYER
 70
     0
  3

 72
    65
 73
     0
 40
0.0
  0
LTYPE
  5
8
330
69
100
AcDbSymbolTableRecord
100
AcDbLinetypeTableRecord
  2
CONTINUOUS
 70
     0
  3
Solid line
 72
    65
 73
     0
 40
0.0
  0
LTYPE
  5
27C
330
69
100
AcDbSymbolTableRecord
100
AcDbLinetypeTableRecord
  2
SEKKEI_A2_
 70
     0
  3
center(A2)  ____ _ ____ _ ____ _ ____ _ ____ _ 
 72
    65
 73
     4
 40
14.28749999999999
 49
9.525
 74
     0
 49
-1.587499999999999
 74
     0
 49
1.587499999999999
 74
     0
 49
-1.587499999999999
 74
     0
  0
LTYPE
  5
2B4
330
69
100
AcDbSymbolTableRecord
100
AcDbLinetypeTableRecord
  2
HIDDEN2
 70
     0
  3
Hidden (.5x) _ _ _ _ _ _ _ _ _ _ _ _ _ _ _ _ _
 72
    65
 73
     2
 40
4.762499999999998
 49
3.174999999999998
 74
     0
 49
-1.587499999999999
 74
     0
  0
LTYPE
  5
477
330
69
100
AcDbSymbolTableRecord
100
AcDbLinetypeTableRecord
  2
SEKKEI-P_A4_
 70
     0
  3
Phantom(A4)  ____ _ _ ____ _ _ ____ _ _ _____
 72
    65
 73
     6
 40
15.0
 49
7.5
 74
     0
 49
-1.5
 74
     0
 49
1.5
 74
     0
 49
-1.5
 74
     0
 49
1.5
 74
     0
 49
-1.5
 74
     0
  0
LTYPE
  5
48F
330
69
100
AcDbSymbolTableRecord
100
AcDbLinetypeTableRecord
  2
SEKKEI_H
 70
     0
  3
Hidden-S _ _ _ _ _ _ _ _ _ _ _ _ _ _ _ _ _
 72
    65
 73
     2
 40
2.381249999999999
 49
1.587499999999999
 74
     0
 49
-0.79375
 74
     0
  0
LTYPE
  5
494
330
69
100
AcDbSymbolTableRecord
100
AcDbLinetypeTableRecord
  2
SEKKEI_P_S
 70
     0
  3
Phantom_S   __ _ _ __ _ _ __ _ _ ___
 72
    65
 73
     6
 40
7.5
 49
3.75
 74
     0
 49
-0.75
 74
     0
 49
0.75
 74
     0
 49
-0.75
 74
     0
 49
0.75
 74
     0
 49
-0.75
 74
     0
  0
ENDTAB
  0
TABLE
  2
LAYER
  5
66
330
0
100
AcDbSymbolTable
 70
     9
  0
LAYER
  5
5E
330
66
100
AcDbSymbolTableRecord
100
AcDbLayerTableRecord
  2
0
 70
     0
 62
     7
  6
CONTINUOUS
  0
LAYER
  5
3E
330
66
100
AcDbSymbolTableRecord
100
AcDbLayerTableRecord
  2
CENTER
 70
     0
 62
     3
  6
SEKKEI_A2_
  0
LAYER
  5
135
330
66
100
AcDbSymbolTableRecord
100
AcDbLayerTableRecord
  2
DEFPOINTS
 70
     0
 62
     7
  6
CONTINUOUS
  0
LAYER
  5
2B5
330
66
100
AcDbSymbolTableRecord
100
AcDbLayerTableRecord
  2
HIDS
 70
     0
 62
     1
  6
HIDDEN2
  0
LAYER
  5
2BA
330
66
100
AcDbSymbolTableRecord
100
AcDbLayerTableRecord
  2
HOJO
 70
     0
 62
     4
  6
CONTINUOUS
  0
LAYER
  5
3FA
330
66
100
AcDbSymbolTableRecord
100
AcDbLayerTableRecord
  2
TITLE
 70
     0
 62
     4
  6
CONTINUOUS
  0
LAYER
  5
478
330
66
100
AcDbSymbolTableRecord
100
AcDbLayerTableRecord
  2
PHAS
 70
     0
 62
     2
  6
SEKKEI-P_A4_
  0
ENDTAB
  0
TABLE
  2
STYLE
  5
67
330
0
100
AcDbSymbolTable
 70
     1
  0
STYLE
  5
16
330
67
100
AcDbSymbolTableRecord
100
AcDbTextStyleTableRecord
  2
STANDARD
 70
     0
 40
0.0
 41
1.0
 50
0.0
 71
     0
 42
2.0
  3
simplex.shx
  4
extfont.shx
  0
ENDTAB
  0
TABLE
  2
VIEW
  5
6C
330
0
100
AcDbSymbolTable
 70
     0
  0
ENDTAB
  0
TABLE
  2
UCS
  5
6D
330
0
100
AcDbSymbolTable
 70
     0
  0
ENDTAB
  0
TABLE
  2
APPID
  5
70
330
0
100
AcDbSymbolTable
 70
     2
  0
APPID
  5
71
330
70
100
AcDbSymbolTableRecord
100
AcDbRegAppTableRecord
  2
ACAD
 70
     0
  0
APPID
  5
2B37
330
70
100
AcDbSymbolTableRecord
100
AcDbRegAppTableRecord
  2
CONTENTBLOCKICON
 70
     0
  0
ENDTAB
  0
TABLE
  2
DIMSTYLE
  5
72
330
0
100
AcDbSymbolTable
 70
     1
  0
DIMSTYLE
105
73
330
72
100
AcDbSymbolTableRecord
100
AcDbDimStyleTableRecord
  2
STANDARD
 70
     0
  3

  4

  5

  6

  7

 40
3.0
 41
1.8
 42
0.625
 43
3.75
 44
0.8
 45
0.0
 46
0.0
 47
0.0
 48
0.0
140
1.8
141
2.5
142
0.0
143
0.0394
144
1.0
145
0.0
146
1.0
147
0.75
 71
     0
 72
     0
 73
     0
 74
     0
 75
     0
 76
     0
 77
     1
 78
     8
170
     0
171
     4
172
     1
173
     0
174
     0
175
     0
176
     0
177
     0
178
     0
270
     2
271
     2
272
     2
273
     8
274
     4
340
16
275
     0
280
     0
281
     0
282
     0
283
     1
284
     0
285
     0
286
     0
287
     3
288
     0
  0
ENDTAB
  0
TABLE
  2
BLOCK_RECORD
  5
1
330
0
100
AcDbSymbolTable
 70
    19
  0
BLOCK_RECORD
  5
2
102
{ACAD_XDICTIONARY
360
2B33
102
}
330
1
100
AcDbSymbolTableRecord
100
AcDbBlockTableRecord
  2
*MODEL_SPACE
  0
BLOCK_RECORD
  5
2B52
102
{ACAD_XDICTIONARY
360
2B7A
102
}
330
1
100
AcDbSymbolTableRecord
100
AcDbBlockTableRecord
  2
*PAPER_SPACE
  0
ENDTAB
  0
ENDSEC
  0
SECTION
  2
BLOCKS
  0
BLOCK
  5
5D
330
2
100
AcDbEntity
  8
0
100
AcDbBlockBegin
  2
*MODEL_SPACE
 70
     0
 10
0.0
 20
0.0
 30
0.0
  3
*MODEL_SPACE
  1

  0
ENDBLK
  5
5F
330
2
100
AcDbEntity
  8
0
100
AcDbBlockEnd
  0
BLOCK
  5
2B54
330
2B52
100
AcDbEntity
 67
     1
  8
0
100
AcDbBlockBegin
  2
*PAPER_SPACE
 70
     0
 10
0.0
 20
0.0
 30
0.0
  3
*PAPER_SPACE
  1

  0
ENDBLK
  5
2B55
330
2B52
100
AcDbEntity
 67
     1
  8
0
100
AcDbBlockEnd
  0
ENDSEC
  0
SECTION
  2
ENTITIES
  0
LINE
  5
814
330
2
100
AcDbEntity
  8
HIDS
100
AcDbLine
 10
428.0201439161595
 20
121.1803181390592
 30
0.0
 11
472.5886859161595
 21
121.1803181390592
 31
0.0
  0
LINE
  5
815
330
2
100
AcDbEntity
  8
HIDS
100
AcDbLine
 10
474.0201439161594
 20
201.1803181390591
 30
0.0
 11
429.4516019161595
 21
201.1803181390591
 31
0.0
  0
LINE
  5
823
330
2
100
AcDbEntity
  8
HIDS
100
AcDbLine
 10
429.9852319161595
 20
123.5474831390591
 30
0.0
 11
451.0201439161595
 21
123.1803181390592
 31
0.0
  0
LINE
  5
824
330
2
100
AcDbEntity
  8
HIDS
100
AcDbLine
 10
429.9852319161595
 20
198.8131461390591
 30
0.0
 11
451.0201439161595
 21
199.1803181390591
 31
0.0
  0
CIRCLE
  5
828
330
2
100
AcDbEntity
  8
HOJO
100
AcDbCircle
 10
315.573363233222
 20
194.6803181390592
 30
0.0
 40
4.0
  0
CIRCLE
  5
829
330
2
100
AcDbEntity
  8
0
100
AcDbCircle
 10
315.573363233222
 20
194.6803181390592
 30
0.0
 40
4.25
  0
CIRCLE
  5
82A
330
2
100
AcDbEntity
  8
HOJO
100
AcDbCircle
 10
229.573363233222
 20
194.6803181390592
 30
0.0
 40
4.0
  0
CIRCLE
  5
82B
330
2
100
AcDbEntity
  8
0
100
AcDbCircle
 10
229.573363233222
 20
194.6803181390592
 30
0.0
 40
4.25
  0
LINE
  5
82C
330
2
100
AcDbEntity
  8
HIDS
100
AcDbLine
 10
425.9160789161596
 20
199.7158561390591
 30
0.0
 11
412.4846219161595
 21
186.2843981390591
 31
0.0
  0
ARC
  5
82D
330
2
100
AcDbEntity
  8
0
100
AcDbCircle
 10
224.573363233222
 20
191.1803181390591
 30
0.0
 40
2.0
100
AcDbArc
 50
180.0
 51
270.0
  0
ARC
  5
82E
330
2
100
AcDbEntity
  8
0
100
AcDbCircle
 10
320.5733632332219
 20
191.1803181390591
 30
0.0
 40
2.0
100
AcDbArc
 50
270.0
 51
0.0
  0
LINE
  5
82F
330
2
100
AcDbEntity
  8
0
100
AcDbLine
 10
91.01787123322205
 20
196.1803181390591
 30
0.0
 11
91.01787123322205
 21
126.1803181390591
 31
0.0
  0
LINE
  5
830
330
2
100
AcDbEntity
  8
0
100
AcDbLine
 10
140.017859233222
 20
121.1803181390592
 30
0.0
 11
140.017859233222
 21
201.1803181390591
 31
0.0
  0
ARC
  5
831
330
2
100
AcDbEntity
  8
0
100
AcDbCircle
 10
244.573363233222
 20
192.1803181390591
 30
0.0
 40
2.0
100
AcDbArc
 50
319.3987049999997
 51
0.0
  0
LINE
  5
832
330
2
100
AcDbEntity
  8
0
100
AcDbLine
 10
236.172011233222
 20
182.3787281390591
 30
0.0
 11
244.091872233222
 21
191.6185811390591
 31
0.0
  0
ARC
  5
833
330
2
100
AcDbEntity
  8
0
100
AcDbCircle
 10
300.5733632332219
 20
192.1803181390591
 30
0.0
 40
2.0
100
AcDbArc
 50
180.0
 51
220.6012879999999
  0
LINE
  5
834
330
2
100
AcDbEntity
  8
0
100
AcDbLine
 10
308.974730233222
 20
182.3787281390591
 30
0.0
 11
301.054839233222
 21
191.6185811390591
 31
0.0
  0
LINE
  5
836
330
2
100
AcDbEntity
  8
0
100
AcDbLine
 10
322.5733632332219
 20
127.6803181390592
 30
0.0
 11
322.5733632332219
 21
194.6803181390592
 31
0.0
  0
LINE
  5
838
330
2
100
AcDbEntity
  8
0
100
AcDbLine
 10
222.573363233222
 20
194.6803181390592
 30
0.0
 11
222.573363233222
 21
177.5087481390591
 31
0.0
  0
LINE
  5
839
330
2
100
AcDbEntity
  8
0
100
AcDbLine
 10
149.517859233222
 20
199.1803181390591
 30
0.0
 11
149.517859233222
 21
123.1803181390592
 31
0.0
  0
ARC
  5
83D
330
2
100
AcDbEntity
  8
HIDS
100
AcDbCircle
 10
425.0201439161594
 20
192.8820541390591
 30
0.0
 40
3.0
100
AcDbArc
 50
309.3567009999997
 51
0.0
  0
LINE
  5
83F
330
2
100
AcDbEntity
  8
0
100
AcDbLine
 10
149.517859233222
 20
130.9313561390591
 30
0.0
 11
222.573363233222
 21
130.9313561390591
 31
0.0
  0
LINE
  5
840
330
2
100
AcDbEntity
  8
0
100
AcDbLine
 10
149.517859233222
 20
123.1803181390592
 30
0.0
 11
221.2146142332219
 21
123.1803181390592
 31
0.0
  0
LINE
  5
841
330
2
100
AcDbEntity
  8
CENTER
100
AcDbLine
 10
330.1141342332219
 20
161.1803181390591
 30
0.0
 11
82.49734126498795
 21
161.1803181390591
 31
0.0
  0
LINE
  5
843
330
2
100
AcDbEntity
  8
0
100
AcDbLine
 10
96.01787123322205
 20
121.1803181390592
 30
0.0
 11
140.017859233222
 21
121.1803181390592
 31
0.0
  0
ARC
  5
844
330
2
100
AcDbEntity
  8
0
100
AcDbCircle
 10
96.01787823322204
 20
126.1803181390591
 30
0.0
 40
5.0
100
AcDbArc
 50
180.0
 51
270.0
  0
LINE
  5
845
330
2
100
AcDbEntity
  8
0
100
AcDbLine
 10
140.017859233222
 20
130.9313171390591
 30
0.0
 11
149.517859233222
 21
130.9313171390591
 31
0.0
  0
LINE
  5
846
330
2
100
AcDbEntity
  8
0
100
AcDbLine
 10
140.017859233222
 20
123.1803181390592
 30
0.0
 11
149.517859233222
 21
123.1803181390592
 31
0.0
  0
LINE
  5
847
330
2
100
AcDbEntity
  8
0
100
AcDbLine
 10
93.76787123322205
 20
185.1803181390591
 30
0.0
 11
140.017859233222
 21
185.1803181390591
 31
0.0
  0
LINE
  5
848
330
2
100
AcDbEntity
  8
0
100
AcDbLine
 10
93.76787123322205
 20
135.1803181390592
 30
0.0
 11
140.017859233222
 21
135.1803181390592
 31
0.0
  0
LINE
  5
849
330
2
100
AcDbEntity
  8
0
100
AcDbLine
 10
144.517859233222
 20
184.7097221390591
 30
0.0
 11
144.517859233222
 21
180.2097221390591
 31
0.0
  0
LINE
  5
84A
330
2
100
AcDbEntity
  8
0
100
AcDbLine
 10
143.017859233222
 20
184.7097221390591
 30
0.0
 11
143.017859233222
 21
180.2097221390591
 31
0.0
  0
LINE
  5
84B
330
2
100
AcDbEntity
  8
0
100
AcDbLine
 10
141.5178592332219
 20
184.7097221390591
 30
0.0
 11
141.5178592332219
 21
179.6941121390591
 31
0.0
  0
LINE
  5
84C
330
2
100
AcDbEntity
  8
HOJO
100
AcDbLine
 10
143.017859233222
 20
180.7097221390591
 30
0.0
 11
144.517859233222
 21
180.2097221390591
 31
0.0
  0
LINE
  5
84D
330
2
100
AcDbEntity
  8
HOJO
100
AcDbLine
 10
141.5178592332219
 20
179.7097221390591
 30
0.0
 11
143.017859233222
 21
180.2097221390591
 31
0.0
  0
ARC
  5
84E
330
2
100
AcDbEntity
  8
0
100
AcDbCircle
 10
140.017859233222
 20
184.7097221390591
 30
0.0
 40
1.5
100
AcDbArc
 50
0.0
 51
90.0
  0
ARC
  5
84F
330
2
100
AcDbEntity
  8
0
100
AcDbCircle
 10
140.017859233222
 20
184.7097221390591
 30
0.0
 40
3.0
100
AcDbArc
 50
0.0
 51
90.0
  0
ARC
  5
850
330
2
100
AcDbEntity
  8
0
100
AcDbCircle
 10
140.017859233222
 20
184.7097221390591
 30
0.0
 40
4.5
100
AcDbArc
 50
0.0
 51
90.0
  0
CIRCLE
  5
851
330
2
100
AcDbEntity
  8
HOJO
100
AcDbCircle
 10
315.573363233222
 20
127.6803181390592
 30
0.0
 40
4.0
  0
CIRCLE
  5
852
330
2
100
AcDbEntity
  8
0
100
AcDbCircle
 10
315.573363233222
 20
127.6803181390592
 30
0.0
 40
4.25
  0
CIRCLE
  5
853
330
2
100
AcDbEntity
  8
0
100
AcDbCircle
 10
315.573363233222
 20
127.6803181390592
 30
0.0
 40
3.399999999999999
  0
LINE
  5
855
330
2
100
AcDbEntity
  8
0
100
AcDbLine
 10
320.5733632332219
 20
180.1803181390591
 30
0.0
 11
318.0733632332219
 21
180.1803181390591
 31
0.0
  0
LINE
  5
856
330
2
100
AcDbEntity
  8
0
100
AcDbLine
 10
320.5733632332219
 20
189.1803181390591
 30
0.0
 11
318.0733632332219
 21
189.1803181390591
 31
0.0
  0
LINE
  5
857
330
2
100
AcDbEntity
  8
0
100
AcDbLine
 10
318.0733632332219
 20
182.8803001390591
 30
0.0
 11
319.573363233222
 21
183.7463281390592
 31
0.0
  0
LINE
  5
858
330
2
100
AcDbEntity
  8
0
100
AcDbLine
 10
318.0733632332219
 20
186.4803061390592
 30
0.0
 11
319.573363233222
 21
185.6142781390591
 31
0.0
  0
CIRCLE
  5
859
330
2
100
AcDbEntity
  8
0
100
AcDbCircle
 10
318.0733632332219
 20
184.6803181390591
 30
0.0
 40
3.5
  0
CIRCLE
  5
85A
330
2
100
AcDbEntity
  8
0
100
AcDbCircle
 10
318.0733632332219
 20
184.6803181390591
 30
0.0
 40
3.799999999999998
  0
LINE
  5
85B
330
2
100
AcDbEntity
  8
0
100
AcDbLine
 10
320.5733632332219
 20
142.1803181390591
 30
0.0
 11
318.0733632332219
 21
142.1803181390591
 31
0.0
  0
LINE
  5
85C
330
2
100
AcDbEntity
  8
0
100
AcDbLine
 10
320.5733632332219
 20
133.1803181390592
 30
0.0
 11
318.0733632332219
 21
133.1803181390592
 31
0.0
  0
LINE
  5
85E
330
2
100
AcDbEntity
  8
0
100
AcDbLine
 10
318.0733632332219
 20
139.4803361390592
 30
0.0
 11
319.573363233222
 21
138.6143081390592
 31
0.0
  0
LINE
  5
85F
330
2
100
AcDbEntity
  8
0
100
AcDbLine
 10
318.0733632332219
 20
135.8803301390592
 30
0.0
 11
319.573363233222
 21
136.7463581390591
 31
0.0
  0
CIRCLE
  5
860
330
2
100
AcDbEntity
  8
0
100
AcDbCircle
 10
318.0733632332219
 20
137.6803181390592
 30
0.0
 40
3.5
  0
CIRCLE
  5
861
330
2
100
AcDbEntity
  8
0
100
AcDbCircle
 10
318.0733632332219
 20
137.6803181390592
 30
0.0
 40
3.799999999999998
  0
ARC
  5
862
330
2
100
AcDbEntity
  8
0
100
AcDbCircle
 10
315.573363233222
 20
127.6803181390592
 30
0.0
 40
7.0
100
AcDbArc
 50
227.3640749999997
 51
0.0
  0
CIRCLE
  5
865
330
2
100
AcDbEntity
  8
0
100
AcDbCircle
 10
227.073363233222
 20
137.6803181390592
 30
0.0
 40
3.5
  0
CIRCLE
  5
866
330
2
100
AcDbEntity
  8
0
100
AcDbCircle
 10
227.073363233222
 20
137.6803181390592
 30
0.0
 40
3.799999999999998
  0
ARC
  5
867
330
2
100
AcDbEntity
  8
0
100
AcDbCircle
 10
227.073363233222
 20
137.6803181390592
 30
0.0
 40
4.5
100
AcDbArc
 50
270.0
 51
90.0
  0
ARC
  5
868
330
2
100
AcDbEntity
  8
0
100
AcDbCircle
 10
318.0733632332219
 20
137.6803181390592
 30
0.0
 40
4.5
100
AcDbArc
 50
90.0
 51
270.0
  0
LINE
  5
86A
330
2
100
AcDbEntity
  8
0
100
AcDbLine
 10
237.0918722332219
 20
141.9819081390591
 30
0.0
 11
246.091872233222
 21
131.4819001390592
 31
0.0
  0
LINE
  5
86B
330
2
100
AcDbEntity
  8
0
100
AcDbLine
 10
236.172011233222
 20
139.9819081390591
 30
0.0
 11
244.091872233222
 21
130.7420551390592
 31
0.0
  0
LINE
  5
86C
330
2
100
AcDbEntity
  8
0
100
AcDbLine
 10
308.054839233222
 20
141.9819081390591
 30
0.0
 11
299.054854233222
 21
131.4819001390592
 31
0.0
  0
LINE
  5
86D
330
2
100
AcDbEntity
  8
0
100
AcDbLine
 10
308.974730233222
 20
139.9819081390591
 30
0.0
 11
301.054839233222
 21
130.7420551390592
 31
0.0
  0
LINE
  5
86E
330
2
100
AcDbEntity
  8
0
100
AcDbLine
 10
222.573363233222
 20
144.8518881390591
 30
0.0
 11
222.573363233222
 21
127.6803181390592
 31
0.0
  0
LINE
  5
86F
330
2
100
AcDbEntity
  8
0
100
AcDbLine
 10
291.5733632332219
 20
125.6803181390591
 30
0.0
 11
253.573363233222
 21
125.6803181390591
 31
0.0
  0
LINE
  5
870
330
2
100
AcDbEntity
  8
0
100
AcDbLine
 10
229.573363233222
 20
120.6803181390591
 30
0.0
 11
315.573363233222
 21
120.6803181390591
 31
0.0
  0
ARC
  5
871
330
2
100
AcDbEntity
  8
0
100
AcDbCircle
 10
224.573363233222
 20
131.1803181390592
 30
0.0
 40
2.0
100
AcDbArc
 50
90.0
 51
180.0
  0
LINE
  5
872
330
2
100
AcDbEntity
  8
0
100
AcDbLine
 10
221.9097432332219
 20
123.0556231390592
 30
0.0
 11
227.140380233222
 21
121.1167351390592
 31
0.0
  0
ARC
  5
873
330
2
100
AcDbEntity
  8
0
100
AcDbCircle
 10
229.573363233222
 20
127.6803181390592
 30
0.0
 40
7.0
100
AcDbArc
 50
180.0
 51
312.6359250000002
  0
ARC
  5
875
330
2
100
AcDbEntity
  8
0
100
AcDbCircle
 10
221.2146142332219
 20
121.1803181390592
 30
0.0
 40
2.0
100
AcDbArc
 50
69.66126999999999
 51
90.0
  0
ARC
  5
876
330
2
100
AcDbEntity
  8
0
100
AcDbCircle
 10
248.974028233222
 20
130.6803181390592
 30
0.0
 40
10.0
100
AcDbArc
 50
247.6683580000006
 51
270.0
  0
ARC
  5
878
330
2
100
AcDbEntity
  8
0
100
AcDbCircle
 10
238.378752233222
 20
118.1165741390592
 30
0.0
 40
6.0
100
AcDbArc
 50
59.64169700000056
 51
132.6359250000002
  0
CIRCLE
  5
879
330
2
100
AcDbEntity
  8
HOJO
100
AcDbCircle
 10
229.573363233222
 20
127.6803181390592
 30
0.0
 40
4.0
  0
CIRCLE
  5
87A
330
2
100
AcDbEntity
  8
0
100
AcDbCircle
 10
229.573363233222
 20
127.6803181390592
 30
0.0
 40
4.25
  0
CIRCLE
  5
87B
330
2
100
AcDbEntity
  8
0
100
AcDbCircle
 10
229.573363233222
 20
127.6803181390592
 30
0.0
 40
3.399999999999999
  0
LINE
  5
87C
330
2
100
AcDbEntity
  8
0
100
AcDbLine
 10
224.573363233222
 20
133.1803181390592
 30
0.0
 11
227.073363233222
 21
133.1803181390592
 31
0.0
  0
ARC
  5
87D
330
2
100
AcDbEntity
  8
0
100
AcDbCircle
 10
246.573363233222
 20
128.9453251390592
 30
0.0
 40
2.0
100
AcDbArc
 50
180.0
 51
249.5126799999996
  0
ARC
  5
87E
330
2
100
AcDbEntity
  8
0
100
AcDbCircle
 10
248.573363233222
 20
128.3154041390592
 30
0.0
 40
2.0
100
AcDbArc
 50
180.0
 51
255.5224910000005
  0
ARC
  5
87F
330
2
100
AcDbEntity
  8
0
100
AcDbCircle
 10
253.573363233222
 20
147.6803181390591
 30
0.0
 40
22.0
100
AcDbArc
 50
249.5126879999995
 51
270.0
  0
ARC
  5
880
330
2
100
AcDbEntity
  8
0
100
AcDbCircle
 10
256.5733632332219
 20
149.1803181390591
 30
0.0
 40
30.0
100
AcDbArc
 50
239.6417009999999
 51
247.6683580000006
  0
LINE
  5
881
330
2
100
AcDbEntity
  8
0
100
AcDbLine
 10
246.449126233222
 20
130.8742111390592
 30
0.0
 11
244.449126233222
 21
130.1343591390591
 31
0.0
  0
ARC
  5
882
330
2
100
AcDbEntity
  8
0
100
AcDbCircle
 10
242.573363233222
 20
129.4404731390592
 30
0.0
 40
2.0
100
AcDbArc
 50
0.0
 51
40.60129500000027
  0
ARC
  5
883
330
2
100
AcDbEntity
  8
0
100
AcDbCircle
 10
244.573363233222
 20
130.1803181390592
 30
0.0
 40
2.0
100
AcDbArc
 50
0.0
 51
40.60129500000027
  0
LINE
  5
884
330
2
100
AcDbEntity
  8
0
100
AcDbLine
 10
246.573363233222
 20
130.1803181390592
 30
0.0
 11
246.573363233222
 21
128.3154041390592
 31
0.0
  0
LINE
  5
885
330
2
100
AcDbEntity
  8
0
100
AcDbLine
 10
244.573363233222
 20
129.4404731390592
 30
0.0
 11
244.573363233222
 21
128.9453251390592
 31
0.0
  0
ARC
  5
886
330
2
100
AcDbEntity
  8
0
100
AcDbCircle
 10
296.172698233222
 20
130.6803181390592
 30
0.0
 40
10.0
100
AcDbArc
 50
270.0
 51
292.3316419999995
  0
ARC
  5
888
330
2
100
AcDbEntity
  8
0
100
AcDbCircle
 10
288.573363233222
 20
149.1803181390591
 30
0.0
 40
30.0
100
AcDbArc
 50
292.3316419999995
 51
300.3583029999994
  0
ARC
  5
889
330
2
100
AcDbEntity
  8
0
100
AcDbCircle
 10
298.5733632332219
 20
128.9453251390592
 30
0.0
 40
2.0
100
AcDbArc
 50
290.4873119999995
 51
0.0
  0
ARC
  5
88A
330
2
100
AcDbEntity
  8
0
100
AcDbCircle
 10
296.573363233222
 20
128.3154041390592
 30
0.0
 40
2.0
100
AcDbArc
 50
284.4775089999994
 51
0.0
  0
ARC
  5
88B
330
2
100
AcDbEntity
  8
0
100
AcDbCircle
 10
291.5733632332219
 20
147.6803181390591
 30
0.0
 40
22.0
100
AcDbArc
 50
270.0
 51
290.4873049999995
  0
LINE
  5
88C
330
2
100
AcDbEntity
  8
0
100
AcDbLine
 10
298.697600233222
 20
130.8742111390592
 30
0.0
 11
300.697600233222
 21
130.1343591390591
 31
0.0
  0
ARC
  5
88D
330
2
100
AcDbEntity
  8
0
100
AcDbCircle
 10
302.5733632332219
 20
129.4404731390592
 30
0.0
 40
2.0
100
AcDbArc
 50
139.398712
 51
180.0
  0
ARC
  5
88E
330
2
100
AcDbEntity
  8
0
100
AcDbCircle
 10
300.5733632332219
 20
130.1803181390592
 30
0.0
 40
2.0
100
AcDbArc
 50
139.398712
 51
180.0
  0
LINE
  5
88F
330
2
100
AcDbEntity
  8
0
100
AcDbLine
 10
298.5733632332219
 20
130.1803181390592
 30
0.0
 11
298.5733632332219
 21
128.3154041390592
 31
0.0
  0
LINE
  5
890
330
2
100
AcDbEntity
  8
0
100
AcDbLine
 10
300.5733632332219
 20
129.4404731390592
 30
0.0
 11
300.5733632332219
 21
128.9453251390592
 31
0.0
  0
ARC
  5
891
330
2
100
AcDbEntity
  8
0
100
AcDbCircle
 10
306.767974233222
 20
118.1165741390592
 30
0.0
 40
6.0
100
AcDbArc
 50
47.3640670000003
 51
120.358299
  0
LINE
  5
892
330
2
100
AcDbEntity
  8
0
100
AcDbLine
 10
231.573363233222
 20
174.6803181390591
 30
0.0
 11
231.573363233222
 21
147.6803181390591
 31
0.0
  0
LINE
  5
893
330
2
100
AcDbEntity
  8
0
100
AcDbLine
 10
226.573363233222
 20
150.5087481390591
 30
0.0
 11
226.573363233222
 21
171.8518881390591
 31
0.0
  0
LINE
  5
894
330
2
100
AcDbEntity
  8
0
100
AcDbLine
 10
222.0733632332219
 20
186.8707781390591
 30
0.0
 11
222.0733632332219
 21
135.4898501390592
 31
0.0
  0
ARC
  5
895
330
2
100
AcDbEntity
  8
0
100
AcDbCircle
 10
224.573363233222
 20
144.1803181390591
 30
0.0
 40
2.0
100
AcDbArc
 50
180.0
 51
270.0
  0
LINE
  5
897
330
2
100
AcDbEntity
  8
0
100
AcDbLine
 10
225.9875782332219
 20
149.0945331390592
 30
0.0
 11
223.1591482332219
 21
146.2661031390591
 31
0.0
  0
LINE
  5
898
330
2
100
AcDbEntity
  8
0
100
AcDbLine
 10
222.0733632332219
 20
135.4898501390592
 30
0.0
 11
222.573363233222
 21
135.4898501390592
 31
0.0
  0
ARC
  5
899
330
2
100
AcDbEntity
  8
0
100
AcDbCircle
 10
224.573363233222
 20
144.8518881390591
 30
0.0
 40
2.0
100
AcDbArc
 50
134.9999999999994
 51
180.0
  0
ARC
  5
89A
330
2
100
AcDbEntity
  8
0
100
AcDbCircle
 10
234.208449233222
 20
142.6803181390591
 30
0.0
 40
2.0
100
AcDbArc
 50
194.4775090000004
 51
270.0
  0
LINE
  5
89B
330
2
100
AcDbEntity
  8
0
100
AcDbLine
 10
236.409072233222
 20
142.4973501390591
 30
0.0
 11
235.4892112332219
 21
140.4973501390592
 31
0.0
  0
LINE
  5
89C
330
2
100
AcDbEntity
  8
0
100
AcDbLine
 10
227.073363233222
 20
135.8803301390592
 30
0.0
 11
228.573363233222
 21
136.7463581390591
 31
0.0
  0
LINE
  5
89D
330
2
100
AcDbEntity
  8
0
100
AcDbLine
 10
228.573363233222
 20
138.6143081390592
 30
0.0
 11
228.573363233222
 21
136.7463581390591
 31
0.0
  0
LINE
  5
89E
330
2
100
AcDbEntity
  8
0
100
AcDbLine
 10
227.073363233222
 20
139.4803361390592
 30
0.0
 11
228.573363233222
 21
138.6143081390592
 31
0.0
  0
LINE
  5
89F
330
2
100
AcDbEntity
  8
0
100
AcDbLine
 10
227.073363233222
 20
139.4803361390592
 30
0.0
 11
225.573363233222
 21
138.6143081390592
 31
0.0
  0
LINE
  5
8A0
330
2
100
AcDbEntity
  8
0
100
AcDbLine
 10
225.573363233222
 20
138.6143081390592
 30
0.0
 11
225.573363233222
 21
136.7463581390591
 31
0.0
  0
LINE
  5
8A1
330
2
100
AcDbEntity
  8
0
100
AcDbLine
 10
227.073363233222
 20
135.8803301390592
 30
0.0
 11
225.573363233222
 21
136.7463581390591
 31
0.0
  0
LINE
  5
8A2
330
2
100
AcDbEntity
  8
0
100
AcDbLine
 10
234.6534872332219
 20
140.6803181390592
 30
0.0
 11
234.208449233222
 21
140.6803181390592
 31
0.0
  0
ARC
  5
8A3
330
2
100
AcDbEntity
  8
0
100
AcDbCircle
 10
234.6534872332219
 20
138.6803181390592
 30
0.0
 40
2.0
100
AcDbArc
 50
40.60129500000027
 51
90.0
  0
ARC
  5
8A4
330
2
100
AcDbEntity
  8
0
100
AcDbCircle
 10
233.799636233222
 20
144.6803181390591
 30
0.0
 40
2.0
100
AcDbArc
 50
188.626923
 51
270.0
  0
LINE
  5
8A5
330
2
100
AcDbEntity
  8
0
100
AcDbLine
 10
224.573363233222
 20
142.1803181390591
 30
0.0
 11
227.073363233222
 21
142.1803181390591
 31
0.0
  0
ARC
  5
8A6
330
2
100
AcDbEntity
  8
0
100
AcDbCircle
 10
253.573363233222
 20
147.6803181390591
 30
0.0
 40
22.0
100
AcDbArc
 50
180.0
 51
194.4775090000004
  0
LINE
  5
8A7
330
2
100
AcDbEntity
  8
0
100
AcDbLine
 10
235.573363233222
 20
142.6803181390591
 30
0.0
 11
233.799636233222
 21
142.6803181390591
 31
0.0
  0
ARC
  5
8A8
330
2
100
AcDbEntity
  8
0
100
AcDbCircle
 10
235.573363233222
 20
140.6803181390592
 30
0.0
 40
2.0
100
AcDbArc
 50
40.60129500000027
 51
90.0
  0
ARC
  5
8A9
330
2
100
AcDbEntity
  8
0
100
AcDbCircle
 10
224.573363233222
 20
150.5087481390591
 30
0.0
 40
2.0
100
AcDbArc
 50
314.9999999999993
 51
0.0
  0
ARC
  5
8AB
330
2
100
AcDbEntity
  8
0
100
AcDbCircle
 10
224.573363233222
 20
178.1803181390591
 30
0.0
 40
2.0
100
AcDbArc
 50
90.0
 51
180.0
  0
CIRCLE
  5
8AC
330
2
100
AcDbEntity
  8
0
100
AcDbCircle
 10
227.073363233222
 20
184.6803181390591
 30
0.0
 40
3.5
  0
CIRCLE
  5
8AD
330
2
100
AcDbEntity
  8
0
100
AcDbCircle
 10
227.073363233222
 20
184.6803181390591
 30
0.0
 40
3.799999999999998
  0
LINE
  5
8AE
330
2
100
AcDbEntity
  8
0
100
AcDbLine
 10
225.9875782332219
 20
173.2661031390591
 30
0.0
 11
223.1591482332219
 21
176.0945331390592
 31
0.0
  0
ARC
  5
8AF
330
2
100
AcDbEntity
  8
0
100
AcDbCircle
 10
224.573363233222
 20
177.5087481390591
 30
0.0
 40
2.0
100
AcDbArc
 50
180.0
 51
225.0000000000006
  0
LINE
  5
8B0
330
2
100
AcDbEntity
  8
0
100
AcDbLine
 10
222.0733632332219
 20
186.8707781390591
 30
0.0
 11
222.573363233222
 21
186.8707781390591
 31
0.0
  0
ARC
  5
8B1
330
2
100
AcDbEntity
  8
0
100
AcDbCircle
 10
253.573363233222
 20
174.6803181390591
 30
0.0
 40
22.0
100
AcDbArc
 50
165.5224909999994
 51
180.0
  0
ARC
  5
8B2
330
2
100
AcDbEntity
  8
0
100
AcDbCircle
 10
224.573363233222
 20
171.8518881390591
 30
0.0
 40
2.0
100
AcDbArc
 50
0.0
 51
45.00000000000057
  0
LINE
  5
8B3
330
2
100
AcDbEntity
  8
0
100
AcDbLine
 10
237.0918722332219
 20
180.3787281390591
 30
0.0
 11
246.091872233222
 21
190.8787281390591
 31
0.0
  0
ARC
  5
8B5
330
2
100
AcDbEntity
  8
0
100
AcDbCircle
 10
227.073363233222
 20
184.6803181390591
 30
0.0
 40
4.5
100
AcDbArc
 50
270.0
 51
90.0
  0
LINE
  5
8B6
330
2
100
AcDbEntity
  8
0
100
AcDbLine
 10
225.573363233222
 20
183.7463281390592
 30
0.0
 11
225.573363233222
 21
185.6142781390591
 31
0.0
  0
LINE
  5
8B7
330
2
100
AcDbEntity
  8
0
100
AcDbLine
 10
228.573363233222
 20
183.7463281390592
 30
0.0
 11
228.573363233222
 21
185.6142781390591
 31
0.0
  0
ARC
  5
8B8
330
2
100
AcDbEntity
  8
0
100
AcDbCircle
 10
234.208449233222
 20
179.6803181390591
 30
0.0
 40
2.0
100
AcDbArc
 50
90.0
 51
165.5224909999994
  0
ARC
  5
8B9
330
2
100
AcDbEntity
  8
0
100
AcDbCircle
 10
233.799636233222
 20
177.6803181390591
 30
0.0
 40
2.0
100
AcDbArc
 50
90.0
 51
171.3730769999999
  0
LINE
  5
8BA
330
2
100
AcDbEntity
  8
0
100
AcDbLine
 10
224.573363233222
 20
180.1803181390591
 30
0.0
 11
227.073363233222
 21
180.1803181390591
 31
0.0
  0
LINE
  5
8BB
330
2
100
AcDbEntity
  8
0
100
AcDbLine
 10
227.073363233222
 20
182.8803001390591
 30
0.0
 11
228.573363233222
 21
183.7463281390592
 31
0.0
  0
LINE
  5
8BC
330
2
100
AcDbEntity
  8
0
100
AcDbLine
 10
227.073363233222
 20
182.8803001390591
 30
0.0
 11
225.573363233222
 21
183.7463281390592
 31
0.0
  0
LINE
  5
8BD
330
2
100
AcDbEntity
  8
0
100
AcDbLine
 10
234.6534872332219
 20
181.6803181390591
 30
0.0
 11
234.208449233222
 21
181.6803181390591
 31
0.0
  0
LINE
  5
8BE
330
2
100
AcDbEntity
  8
0
100
AcDbLine
 10
235.573363233222
 20
179.6803181390591
 30
0.0
 11
233.799636233222
 21
179.6803181390591
 31
0.0
  0
LINE
  5
8BF
330
2
100
AcDbEntity
  8
0
100
AcDbLine
 10
236.409072233222
 20
179.8632861390591
 30
0.0
 11
235.4892112332219
 21
181.8632861390591
 31
0.0
  0
ARC
  5
8C0
330
2
100
AcDbEntity
  8
0
100
AcDbCircle
 10
235.573363233222
 20
181.6803181390591
 30
0.0
 40
2.0
100
AcDbArc
 50
270.0
 51
319.3987049999997
  0
ARC
  5
8C1
330
2
100
AcDbEntity
  8
0
100
AcDbCircle
 10
234.6534872332219
 20
183.6803181390591
 30
0.0
 40
2.0
100
AcDbArc
 50
270.0
 51
319.3987049999997
  0
LINE
  5
8C2
330
2
100
AcDbEntity
  8
0
100
AcDbLine
 10
224.573363233222
 20
189.1803181390591
 30
0.0
 11
227.073363233222
 21
189.1803181390591
 31
0.0
  0
LINE
  5
8C3
330
2
100
AcDbEntity
  8
0
100
AcDbLine
 10
227.073363233222
 20
186.4803061390592
 30
0.0
 11
225.573363233222
 21
185.6142781390591
 31
0.0
  0
LINE
  5
8C4
330
2
100
AcDbEntity
  8
0
100
AcDbLine
 10
227.073363233222
 20
186.4803061390592
 30
0.0
 11
228.573363233222
 21
185.6142781390591
 31
0.0
  0
ARC
  5
8C5
330
2
100
AcDbEntity
  8
0
100
AcDbCircle
 10
283.5733632332219
 20
161.1803181390591
 30
0.0
 40
6.0
100
AcDbArc
 50
109.4712219999995
 51
70.52877800000044
  0
CIRCLE
  5
8C6
330
2
100
AcDbEntity
  8
0
100
AcDbCircle
 10
283.5733632332219
 20
161.1803181390591
 30
0.0
 40
10.0
  0
CIRCLE
  5
8C7
330
2
100
AcDbEntity
  8
0
100
AcDbCircle
 10
283.5733632332219
 20
161.1803181390591
 30
0.0
 40
25.002001
  0
CIRCLE
  5
8C8
330
2
100
AcDbEntity
  8
0
100
AcDbCircle
 10
283.5733632332219
 20
161.1803181390591
 30
0.0
 40
23.0
  0
CIRCLE
  5
8C9
330
2
100
AcDbEntity
  8
0
100
AcDbCircle
 10
283.5733632332219
 20
161.1803181390591
 30
0.0
 40
16.0
  0
CIRCLE
  5
8CA
330
2
100
AcDbEntity
  8
0
100
AcDbCircle
 10
283.5733632332219
 20
161.1803181390591
 30
0.0
 40
19.5
  0
LINE
  5
8CB
330
2
100
AcDbEntity
  8
0
100
AcDbLine
 10
313.573363233222
 20
174.6803181390591
 30
0.0
 11
313.573363233222
 21
147.6803181390591
 31
0.0
  0
ARC
  5
8CC
330
2
100
AcDbEntity
  8
0
100
AcDbCircle
 10
310.938292233222
 20
142.6803181390591
 30
0.0
 40
2.0
100
AcDbArc
 50
270.0
 51
345.5224909999996
  0
LINE
  5
8CD
330
2
100
AcDbEntity
  8
0
100
AcDbLine
 10
308.737639233222
 20
142.4973501390591
 30
0.0
 11
309.657530233222
 21
140.4973501390592
 31
0.0
  0
ARC
  5
8CE
330
2
100
AcDbEntity
  8
0
100
AcDbCircle
 10
310.493224233222
 20
138.6803181390592
 30
0.0
 40
2.0
100
AcDbArc
 50
90.0
 51
139.398712
  0
LINE
  5
8CF
330
2
100
AcDbEntity
  8
0
100
AcDbLine
 10
318.0733632332219
 20
139.4803361390592
 30
0.0
 11
316.5733632332219
 21
138.6143081390592
 31
0.0
  0
LINE
  5
8D0
330
2
100
AcDbEntity
  8
0
100
AcDbLine
 10
318.0733632332219
 20
135.8803301390592
 30
0.0
 11
316.5733632332219
 21
136.7463581390591
 31
0.0
  0
LINE
  5
8D1
330
2
100
AcDbEntity
  8
0
100
AcDbLine
 10
316.5733632332219
 20
138.6143081390592
 30
0.0
 11
316.5733632332219
 21
136.7463581390591
 31
0.0
  0
LINE
  5
8D2
330
2
100
AcDbEntity
  8
0
100
AcDbLine
 10
310.493224233222
 20
140.6803181390592
 30
0.0
 11
310.938292233222
 21
140.6803181390592
 31
0.0
  0
LINE
  5
8D3
330
2
100
AcDbEntity
  8
0
100
AcDbLine
 10
309.5733632332219
 20
142.6803181390591
 30
0.0
 11
311.347075233222
 21
142.6803181390591
 31
0.0
  0
ARC
  5
8D4
330
2
100
AcDbEntity
  8
0
100
AcDbCircle
 10
309.5733632332219
 20
140.6803181390592
 30
0.0
 40
2.0
100
AcDbArc
 50
90.0
 51
139.398712
  0
ARC
  5
8D5
330
2
100
AcDbEntity
  8
0
100
AcDbCircle
 10
291.5733632332219
 20
147.6803181390591
 30
0.0
 40
22.0
100
AcDbArc
 50
345.5224880000002
 51
0.0
  0
ARC
  5
8D6
330
2
100
AcDbEntity
  8
0
100
AcDbCircle
 10
311.347075233222
 20
144.6803181390591
 30
0.0
 40
2.0
100
AcDbArc
 50
270.0
 51
351.373077
  0
LINE
  5
8D7
330
2
100
AcDbEntity
  8
0
100
AcDbLine
 10
285.5733632332219
 20
168.9803211390591
 30
0.0
 11
285.5733632332219
 21
166.8371781390591
 31
0.0
  0
LINE
  5
8D8
330
2
100
AcDbEntity
  8
0
100
AcDbLine
 10
281.5733632332219
 20
168.9803211390591
 30
0.0
 11
281.5733632332219
 21
166.8371781390591
 31
0.0
  0
LINE
  5
8D9
330
2
100
AcDbEntity
  8
0
100
AcDbLine
 10
281.5733632332219
 20
168.9803211390591
 30
0.0
 11
285.5733632332219
 21
168.9803211390591
 31
0.0
  0
ARC
  5
8DA
330
2
100
AcDbEntity
  8
0
100
AcDbCircle
 10
291.5733632332219
 20
174.6803181390591
 30
0.0
 40
22.0
100
AcDbArc
 50
0.0
 51
14.47751199999975
  0
LINE
  5
8DB
330
2
100
AcDbEntity
  8
0
100
AcDbLine
 10
308.054839233222
 20
180.3787281390591
 30
0.0
 11
299.054854233222
 21
190.8787281390591
 31
0.0
  0
ARC
  5
8DC
330
2
100
AcDbEntity
  8
0
100
AcDbCircle
 10
318.0733632332219
 20
184.6803181390591
 30
0.0
 40
4.5
100
AcDbArc
 50
90.0
 51
270.0
  0
LINE
  5
8DE
330
2
100
AcDbEntity
  8
0
100
AcDbLine
 10
316.5733632332219
 20
183.7463281390592
 30
0.0
 11
316.5733632332219
 21
185.6142781390591
 31
0.0
  0
LINE
  5
8DF
330
2
100
AcDbEntity
  8
0
100
AcDbLine
 10
309.5733632332219
 20
179.6803181390591
 30
0.0
 11
311.347075233222
 21
179.6803181390591
 31
0.0
  0
ARC
  5
8E0
330
2
100
AcDbEntity
  8
0
100
AcDbCircle
 10
310.493224233222
 20
183.6803181390591
 30
0.0
 40
2.0
100
AcDbArc
 50
220.6012879999999
 51
270.0
  0
LINE
  5
8E1
330
2
100
AcDbEntity
  8
0
100
AcDbLine
 10
308.737639233222
 20
179.8632861390591
 30
0.0
 11
309.657530233222
 21
181.8632861390591
 31
0.0
  0
ARC
  5
8E2
330
2
100
AcDbEntity
  8
0
100
AcDbCircle
 10
309.5733632332219
 20
181.6803181390591
 30
0.0
 40
2.0
100
AcDbArc
 50
220.6012879999999
 51
270.0
  0
LINE
  5
8E3
330
2
100
AcDbEntity
  8
0
100
AcDbLine
 10
318.0733632332219
 20
182.8803001390591
 30
0.0
 11
316.5733632332219
 21
183.7463281390592
 31
0.0
  0
ARC
  5
8E4
330
2
100
AcDbEntity
  8
0
100
AcDbCircle
 10
310.938292233222
 20
179.6803181390591
 30
0.0
 40
2.0
100
AcDbArc
 50
14.47751199999975
 51
90.0
  0
ARC
  5
8E5
330
2
100
AcDbEntity
  8
0
100
AcDbCircle
 10
311.347075233222
 20
177.6803181390591
 30
0.0
 40
2.0
100
AcDbArc
 50
8.626926999999758
 51
90.0
  0
LINE
  5
8E6
330
2
100
AcDbEntity
  8
0
100
AcDbLine
 10
310.493224233222
 20
181.6803181390591
 30
0.0
 11
310.938292233222
 21
181.6803181390591
 31
0.0
  0
LINE
  5
8E7
330
2
100
AcDbEntity
  8
0
100
AcDbLine
 10
318.0733632332219
 20
186.4803061390592
 30
0.0
 11
316.5733632332219
 21
185.6142781390591
 31
0.0
  0
LINE
  5
8E8
330
2
100
AcDbEntity
  8
HIDS
100
AcDbLine
 10
417.6231709161594
 20
135.1803181390592
 30
0.0
 11
425.0201439161594
 21
127.7833451390592
 31
0.0
  0
ARC
  5
8E9
330
2
100
AcDbEntity
  8
HIDS
100
AcDbCircle
 10
414.0201439161595
 20
138.1803181390592
 30
0.0
 40
3.0
100
AcDbArc
 50
180.0
 51
270.0
  0
ARC
  5
8EF
330
2
100
AcDbEntity
  8
HIDS
100
AcDbCircle
 10
451.0201439161595
 20
161.1803181390591
 30
0.0
 40
38.0
100
AcDbArc
 50
129.3567049999994
 51
230.6432950000004
  0
ARC
  5
8F0
330
2
100
AcDbEntity
  8
0
100
AcDbCircle
 10
320.5733632332219
 20
131.1803181390592
 30
0.0
 40
2.0
100
AcDbArc
 50
0.0
 51
90.0
  0
ARC
  5
8FC
330
2
100
AcDbEntity
  8
HIDS
100
AcDbCircle
 10
428.0201439161595
 20
124.1803181390592
 30
0.0
 40
3.0
100
AcDbArc
 50
180.0
 51
270.0
  0
LINE
  5
900
330
2
100
AcDbEntity
  8
HIDS
100
AcDbLine
 10
428.0201439161595
 20
125.5471771390592
 30
0.0
 11
428.0201439161595
 21
129.4785821390592
 31
0.0
  0
LINE
  5
901
330
2
100
AcDbEntity
  8
HIDS
100
AcDbLine
 10
425.0201439161594
 20
124.1803181390592
 30
0.0
 11
425.0201439161594
 21
127.7833451390592
 31
0.0
  0
ARC
  5
902
330
2
100
AcDbEntity
  8
HIDS
100
AcDbCircle
 10
430.0201439161595
 20
125.5471771390592
 30
0.0
 40
2.0
100
AcDbArc
 50
180.0
 51
268.9999999999998
  0
ARC
  5
904
330
2
100
AcDbEntity
  8
HIDS
100
AcDbCircle
 10
425.0201439161594
 20
129.4785821390592
 30
0.0
 40
3.0
100
AcDbArc
 50
0.0
 51
50.64329900000029
  0
LINE
  5
90B
330
2
100
AcDbEntity
  8
0
100
AcDbLine
 10
318.5733632332219
 20
150.5087481390591
 30
0.0
 11
318.5733632332219
 21
171.8518881390591
 31
0.0
  0
LINE
  5
90C
330
2
100
AcDbEntity
  8
0
100
AcDbLine
 10
319.159148233222
 20
149.0945331390592
 30
0.0
 11
321.9875782332219
 21
146.2661031390591
 31
0.0
  0
ARC
  5
90D
330
2
100
AcDbEntity
  8
0
100
AcDbCircle
 10
320.5733632332219
 20
144.1803181390591
 30
0.0
 40
2.0
100
AcDbArc
 50
270.0
 51
0.0
  0
LINE
  5
90E
330
2
100
AcDbEntity
  8
0
100
AcDbLine
 10
319.573363233222
 20
138.6143081390592
 30
0.0
 11
319.573363233222
 21
136.7463581390591
 31
0.0
  0
ARC
  5
90F
330
2
100
AcDbEntity
  8
0
100
AcDbCircle
 10
320.5733632332219
 20
144.8518881390591
 30
0.0
 40
2.0
100
AcDbArc
 50
0.0
 51
45.00000000000057
  0
ARC
  5
910
330
2
100
AcDbEntity
  8
0
100
AcDbCircle
 10
320.5733632332219
 20
150.5087481390591
 30
0.0
 40
2.0
100
AcDbArc
 50
180.0
 51
225.0000000000006
  0
ARC
  5
911
330
2
100
AcDbEntity
  8
0
100
AcDbCircle
 10
320.5733632332219
 20
177.5087481390591
 30
0.0
 40
2.0
100
AcDbArc
 50
314.9999999999993
 51
0.0
  0
ARC
  5
912
330
2
100
AcDbEntity
  8
0
100
AcDbCircle
 10
320.5733632332219
 20
171.8518881390591
 30
0.0
 40
2.0
100
AcDbArc
 50
134.9999999999994
 51
180.0
  0
LINE
  5
913
330
2
100
AcDbEntity
  8
0
100
AcDbLine
 10
319.159148233222
 20
173.2661031390591
 30
0.0
 11
321.9875782332219
 21
176.0945331390592
 31
0.0
  0
LINE
  5
914
330
2
100
AcDbEntity
  8
0
100
AcDbLine
 10
319.573363233222
 20
183.7463281390592
 30
0.0
 11
319.573363233222
 21
185.6142781390591
 31
0.0
  0
ARC
  5
915
330
2
100
AcDbEntity
  8
0
100
AcDbCircle
 10
320.5733632332219
 20
178.1803181390591
 30
0.0
 40
2.0
100
AcDbArc
 50
0.0
 51
90.0
  0
LINE
  5
916
330
2
100
AcDbEntity
  8
HIDS
100
AcDbLine
 10
411.0201439161595
 20
138.1803181390592
 30
0.0
 11
411.0201439161595
 21
182.7488601390592
 31
0.0
  0
LINE
  5
929
330
2
100
AcDbEntity
  8
HIDS
100
AcDbLine
 10
414.0201439161595
 20
135.1803181390592
 30
0.0
 11
417.6231709161594
 21
135.1803181390592
 31
0.0
  0
ARC
  5
952
330
2
100
AcDbEntity
  8
HIDS
100
AcDbCircle
 10
416.0201439161594
 20
182.7488601390592
 30
0.0
 40
5.0
100
AcDbArc
 50
134.9999999999994
 51
180.0
  0
LINE
  5
981
330
2
100
AcDbEntity
  8
0
100
AcDbLine
 10
149.517859233222
 20
191.4292801390591
 30
0.0
 11
222.573363233222
 21
191.4292801390591
 31
0.0
  0
LINE
  5
982
330
2
100
AcDbEntity
  8
0
100
AcDbLine
 10
149.517859233222
 20
199.1803181390591
 30
0.0
 11
221.2146142332219
 21
199.1803181390591
 31
0.0
  0
LINE
  5
983
330
2
100
AcDbEntity
  8
0
100
AcDbLine
 10
96.01787123322205
 20
201.1803181390591
 30
0.0
 11
140.017859233222
 21
201.1803181390591
 31
0.0
  0
ARC
  5
984
330
2
100
AcDbEntity
  8
0
100
AcDbCircle
 10
96.01787123322205
 20
196.1803181390591
 30
0.0
 40
5.0
100
AcDbArc
 50
90.0
 51
180.0
  0
LINE
  5
989
330
2
100
AcDbEntity
  8
0
100
AcDbLine
 10
140.017859233222
 20
191.4293111390591
 30
0.0
 11
149.517859233222
 21
191.4293111390591
 31
0.0
  0
LINE
  5
98A
330
2
100
AcDbEntity
  8
0
100
AcDbLine
 10
140.017859233222
 20
199.1803181390591
 30
0.0
 11
149.517859233222
 21
199.1803181390591
 31
0.0
  0
CIRCLE
  5
991
330
2
100
AcDbEntity
  8
0
100
AcDbCircle
 10
315.573363233222
 20
194.6803181390592
 30
0.0
 40
3.399999999999999
  0
ARC
  5
992
330
2
100
AcDbEntity
  8
0
100
AcDbCircle
 10
315.573363233222
 20
194.6803181390592
 30
0.0
 40
7.0
100
AcDbArc
 50
0.0
 51
132.6359250000002
  0
LINE
  5
994
330
2
100
AcDbEntity
  8
0
100
AcDbLine
 10
291.5733632332219
 20
196.6803181390591
 30
0.0
 11
253.573363233222
 21
196.6803181390591
 31
0.0
  0
LINE
  5
995
330
2
100
AcDbEntity
  8
0
100
AcDbLine
 10
229.573363233222
 20
201.6803181390591
 30
0.0
 11
315.573363233222
 21
201.6803181390591
 31
0.0
  0
LINE
  5
996
330
2
100
AcDbEntity
  8
0
100
AcDbLine
 10
221.9097432332219
 20
199.3050131390591
 30
0.0
 11
227.140380233222
 21
201.2439011390591
 31
0.0
  0
ARC
  5
997
330
2
100
AcDbEntity
  8
0
100
AcDbCircle
 10
229.573363233222
 20
194.6803181390592
 30
0.0
 40
7.0
100
AcDbArc
 50
47.3640670000003
 51
180.0
  0
ARC
  5
999
330
2
100
AcDbEntity
  8
0
100
AcDbCircle
 10
221.2146142332219
 20
201.1803181390591
 30
0.0
 40
2.0
100
AcDbArc
 50
270.0
 51
290.3387299999998
  0
ARC
  5
99A
330
2
100
AcDbEntity
  8
0
100
AcDbCircle
 10
238.378752233222
 20
204.2440541390591
 30
0.0
 40
6.0
100
AcDbArc
 50
227.3640749999997
 51
300.3583029999994
  0
CIRCLE
  5
99B
330
2
100
AcDbEntity
  8
0
100
AcDbCircle
 10
229.573363233222
 20
194.6803181390592
 30
0.0
 40
3.399999999999999
  0
ARC
  5
99C
330
2
100
AcDbEntity
  8
0
100
AcDbCircle
 10
248.573363233222
 20
194.0452321390591
 30
0.0
 40
2.0
100
AcDbArc
 50
104.4775089999994
 51
180.0
  0
ARC
  5
99D
330
2
100
AcDbEntity
  8
0
100
AcDbCircle
 10
253.573363233222
 20
174.6803181390591
 30
0.0
 40
22.0
100
AcDbArc
 50
90.0
 51
110.4873119999995
  0
ARC
  5
99E
330
2
100
AcDbEntity
  8
0
100
AcDbCircle
 10
246.573363233222
 20
193.4153191390592
 30
0.0
 40
2.0
100
AcDbArc
 50
110.4873119999995
 51
180.0
  0
LINE
  5
99F
330
2
100
AcDbEntity
  8
0
100
AcDbLine
 10
246.449126233222
 20
191.4864251390591
 30
0.0
 11
244.449126233222
 21
192.2262771390592
 31
0.0
  0
ARC
  5
9A0
330
2
100
AcDbEntity
  8
0
100
AcDbCircle
 10
242.573363233222
 20
192.9201711390591
 30
0.0
 40
2.0
100
AcDbArc
 50
319.3987049999997
 51
0.0
  0
LINE
  5
9A1
330
2
100
AcDbEntity
  8
0
100
AcDbLine
 10
246.573363233222
 20
192.1803181390591
 30
0.0
 11
246.573363233222
 21
194.0452321390591
 31
0.0
  0
LINE
  5
9A2
330
2
100
AcDbEntity
  8
0
100
AcDbLine
 10
244.573363233222
 20
192.9201711390591
 30
0.0
 11
244.573363233222
 21
193.4153191390592
 31
0.0
  0
ARC
  5
9A3
330
2
100
AcDbEntity
  8
0
100
AcDbCircle
 10
248.974028233222
 20
191.6803181390591
 30
0.0
 40
10.0
100
AcDbArc
 50
90.0
 51
112.3316419999994
  0
ARC
  5
9A4
330
2
100
AcDbEntity
  8
0
100
AcDbCircle
 10
256.5733632332219
 20
173.1803181390591
 30
0.0
 40
30.0
100
AcDbArc
 50
112.3316419999994
 51
120.358299
  0
ARC
  5
9A5
330
2
100
AcDbEntity
  8
0
100
AcDbCircle
 10
288.573363233222
 20
173.1803181390591
 30
0.0
 40
30.0
100
AcDbArc
 50
59.64169700000056
 51
67.66835800000054
  0
ARC
  5
9A6
330
2
100
AcDbEntity
  8
0
100
AcDbCircle
 10
291.5733632332219
 20
174.6803181390591
 30
0.0
 40
22.0
100
AcDbArc
 50
69.51268799999964
 51
90.0
  0
ARC
  5
9A7
330
2
100
AcDbEntity
  8
0
100
AcDbCircle
 10
298.5733632332219
 20
193.4153191390592
 30
0.0
 40
2.0
100
AcDbArc
 50
0.0
 51
69.51268799999964
  0
ARC
  5
9A8
330
2
100
AcDbEntity
  8
0
100
AcDbCircle
 10
296.573363233222
 20
194.0452321390591
 30
0.0
 40
2.0
100
AcDbArc
 50
0.0
 51
75.52249100000058
  0
LINE
  5
9A9
330
2
100
AcDbEntity
  8
0
100
AcDbLine
 10
298.697600233222
 20
191.4864251390591
 30
0.0
 11
300.697600233222
 21
192.2262771390592
 31
0.0
  0
ARC
  5
9AA
330
2
100
AcDbEntity
  8
0
100
AcDbCircle
 10
302.5733632332219
 20
192.9201711390591
 30
0.0
 40
2.0
100
AcDbArc
 50
180.0
 51
220.6012879999999
  0
LINE
  5
9AB
330
2
100
AcDbEntity
  8
0
100
AcDbLine
 10
298.5733632332219
 20
192.1803181390591
 30
0.0
 11
298.5733632332219
 21
194.0452321390591
 31
0.0
  0
LINE
  5
9AC
330
2
100
AcDbEntity
  8
0
100
AcDbLine
 10
300.5733632332219
 20
192.9201711390591
 30
0.0
 11
300.5733632332219
 21
193.4153191390592
 31
0.0
  0
ARC
  5
9AD
330
2
100
AcDbEntity
  8
0
100
AcDbCircle
 10
296.172698233222
 20
191.6803181390591
 30
0.0
 40
10.0
100
AcDbArc
 50
67.66835800000054
 51
90.0
  0
ARC
  5
9AE
330
2
100
AcDbEntity
  8
0
100
AcDbCircle
 10
306.767974233222
 20
204.2440541390591
 30
0.0
 40
6.0
100
AcDbArc
 50
239.6417009999999
 51
312.6359329999996
  0
ARC
  5
9B1
330
2
100
AcDbEntity
  8
HIDS
100
AcDbCircle
 10
430.0201439161595
 20
196.8134511390591
 30
0.0
 40
2.0
100
AcDbArc
 50
91.00000000000013
 51
180.0
  0
LINE
  5
9B2
330
2
100
AcDbEntity
  8
HIDS
100
AcDbLine
 10
428.0201439161595
 20
196.8134511390591
 30
0.0
 11
428.0201439161595
 21
192.8820541390591
 31
0.0
  0
ARC
  5
9B3
330
2
100
AcDbEntity
  8
HIDS
100
AcDbCircle
 10
429.4516019161595
 20
196.1803181390591
 30
0.0
 40
5.0
100
AcDbArc
 50
90.0
 51
134.9999999999994
  0
CIRCLE
  5
9B4
330
2
100
AcDbEntity
  8
HOJO
100
AcDbCircle
 10
630.7222260744596
 20
194.6803181390592
 30
0.0
 40
4.0
  0
CIRCLE
  5
9B5
330
2
100
AcDbEntity
  8
HOJO
100
AcDbCircle
 10
716.7222260744597
 20
194.6803181390592
 30
0.0
 40
4.0
  0
LINE
  5
9B6
330
2
100
AcDbEntity
  8
HIDS
100
AcDbLine
 10
477.0201439161595
 20
194.5772911390591
 30
0.0
 11
484.4171169161596
 21
187.1803181390591
 31
0.0
  0
LINE
  5
9B7
330
2
100
AcDbEntity
  8
0
100
AcDbLine
 10
855.2777070744596
 20
196.1803181390591
 30
0.0
 11
855.2777070744596
 21
126.1803181390591
 31
0.0
  0
LINE
  5
9B8
330
2
100
AcDbEntity
  8
0
100
AcDbLine
 10
806.2777070744598
 20
121.1803181390592
 30
0.0
 11
806.2777070744598
 21
201.1803181390591
 31
0.0
  0
ARC
  5
9B9
330
2
100
AcDbEntity
  8
0
100
AcDbCircle
 10
701.7222260744595
 20
192.1803181390591
 30
0.0
 40
2.0
100
AcDbArc
 50
180.0
 51
220.6012879999999
  0
LINE
  5
9BA
330
2
100
AcDbEntity
  8
0
100
AcDbLine
 10
710.1235930744596
 20
182.3787281390591
 30
0.0
 11
702.2037320744597
 21
191.6185811390591
 31
0.0
  0
ARC
  5
9BB
330
2
100
AcDbEntity
  8
0
100
AcDbCircle
 10
645.7222260744596
 20
192.1803181390591
 30
0.0
 40
2.0
100
AcDbArc
 50
319.3987049999997
 51
0.0
  0
LINE
  5
9BC
330
2
100
AcDbEntity
  8
0
100
AcDbLine
 10
637.3208590744598
 20
182.3787281390591
 30
0.0
 11
645.2407200744596
 21
191.6185811390591
 31
0.0
  0
LINE
  5
9BE
330
2
100
AcDbEntity
  8
0
100
AcDbLine
 10
623.7222260744596
 20
127.6803181390592
 30
0.0
 11
623.7222260744596
 21
194.6803181390592
 31
0.0
  0
LINE
  5
9C0
330
2
100
AcDbEntity
  8
0
100
AcDbLine
 10
723.7222260744597
 20
194.6803181390592
 30
0.0
 11
723.7222260744597
 21
177.5087481390591
 31
0.0
  0
LINE
  5
9C1
330
2
100
AcDbEntity
  8
0
100
AcDbLine
 10
796.7777070744597
 20
199.1803181390591
 30
0.0
 11
796.7777070744597
 21
123.1803181390592
 31
0.0
  0
ARC
  5
9C4
330
2
100
AcDbEntity
  8
HIDS
100
AcDbCircle
 10
477.0201439161595
 20
192.8820541390591
 30
0.0
 40
3.0
100
AcDbArc
 50
180.0
 51
230.6432950000004
  0
ARC
  5
9C7
330
2
100
AcDbEntity
  8
0
100
AcDbCircle
 10
707.9168670744596
 20
118.1165741390592
 30
0.0
 40
6.0
100
AcDbArc
 50
47.3640670000003
 51
120.358299
  0
LINE
  5
9C8
330
2
100
AcDbEntity
  8
0
100
AcDbLine
 10
710.7222260744597
 20
142.6803181390591
 30
0.0
 11
712.4959690744597
 21
142.6803181390591
 31
0.0
  0
ARC
  5
9C9
330
2
100
AcDbEntity
  8
0
100
AcDbCircle
 10
711.6420870744597
 20
138.6803181390592
 30
0.0
 40
2.0
100
AcDbArc
 50
90.0
 51
139.398712
  0
LINE
  5
9CA
330
2
100
AcDbEntity
  8
0
100
AcDbLine
 10
710.7222260744597
 20
179.6803181390591
 30
0.0
 11
712.4959690744597
 21
179.6803181390591
 31
0.0
  0
ARC
  5
9CB
330
2
100
AcDbEntity
  8
0
100
AcDbCircle
 10
711.6420870744597
 20
183.6803181390591
 30
0.0
 40
2.0
100
AcDbArc
 50
220.6012879999999
 51
270.0
  0
LINE
  5
9CC
330
2
100
AcDbEntity
  8
0
100
AcDbLine
 10
716.7222260744597
 20
120.6803181390591
 30
0.0
 11
630.7222260744596
 21
120.6803181390591
 31
0.0
  0
LINE
  5
9CE
330
2
100
AcDbEntity
  8
CENTER
100
AcDbLine
 10
616.1814550744598
 20
161.1803181390591
 30
0.0
 11
863.7982370426938
 21
161.1803181390591
 31
0.0
  0
LINE
  5
9CF
330
2
100
AcDbEntity
  8
HIDS
100
AcDbLine
 10
489.5556659161595
 20
136.0762451390592
 30
0.0
 11
476.1242089161596
 21
122.6447801390591
 31
0.0
  0
ARC
  5
9D2
330
2
100
AcDbEntity
  8
HIDS
100
AcDbCircle
 10
451.0201439161595
 20
161.1803181390591
 30
0.0
 40
38.0
100
AcDbArc
 50
309.3567009999997
 51
50.64329900000029
  0
ARC
  5
9D7
330
2
100
AcDbEntity
  8
HIDS
100
AcDbCircle
 10
472.5886859161595
 20
126.1803181390591
 30
0.0
 40
5.0
100
AcDbArc
 50
270.0
 51
314.9999999999993
  0
LINE
  5
9D9
330
2
100
AcDbEntity
  8
HIDS
100
AcDbLine
 10
472.0550559161595
 20
123.5474831390591
 30
0.0
 11
451.0201439161595
 21
123.1803181390592
 31
0.0
  0
LINE
  5
9DD
330
2
100
AcDbEntity
  8
HIDS
100
AcDbLine
 10
474.0201439161594
 20
125.5471771390592
 30
0.0
 11
474.0201439161594
 21
129.4785821390592
 31
0.0
  0
ARC
  5
9DE
330
2
100
AcDbEntity
  8
HIDS
100
AcDbCircle
 10
472.0201439161595
 20
125.5471771390592
 30
0.0
 40
2.0
100
AcDbArc
 50
271.0
 51
0.0
  0
ARC
  5
9E2
330
2
100
AcDbEntity
  8
HIDS
100
AcDbCircle
 10
477.0201439161595
 20
129.4785821390592
 30
0.0
 40
3.0
100
AcDbArc
 50
129.3567049999994
 51
180.0
  0
LINE
  5
9E8
330
2
100
AcDbEntity
  8
HIDS
100
AcDbLine
 10
491.0201439161594
 20
184.1803181390591
 30
0.0
 11
491.0201439161594
 21
139.6117761390591
 31
0.0
  0
ARC
  5
A11
330
2
100
AcDbEntity
  8
HIDS
100
AcDbCircle
 10
486.0201439161595
 20
139.6117761390591
 30
0.0
 40
5.0
100
AcDbArc
 50
314.9999999999993
 51
0.0
  0
ARC
  5
A40
330
2
100
AcDbEntity
  8
HIDS
100
AcDbCircle
 10
488.0201439161594
 20
184.1803181390591
 30
0.0
 40
3.0
100
AcDbArc
 50
0.0
 51
90.0
  0
LINE
  5
A43
330
2
100
AcDbEntity
  8
HIDS
100
AcDbLine
 10
488.0201439161594
 20
187.1803181390591
 30
0.0
 11
484.4171169161596
 21
187.1803181390591
 31
0.0
  0
LINE
  5
A49
330
2
100
AcDbEntity
  8
0
100
AcDbLine
 10
709.2037320744594
 20
141.9819081390591
 30
0.0
 11
700.2037320744594
 21
131.4819001390592
 31
0.0
  0
LINE
  5
A4A
330
2
100
AcDbEntity
  8
0
100
AcDbLine
 10
710.1235930744596
 20
139.9819081390591
 30
0.0
 11
702.2037320744597
 21
130.7420551390592
 31
0.0
  0
LINE
  5
A4B
330
2
100
AcDbEntity
  8
0
100
AcDbLine
 10
638.2407200744596
 20
141.9819081390591
 30
0.0
 11
647.2407200744596
 21
131.4819001390592
 31
0.0
  0
LINE
  5
A4C
330
2
100
AcDbEntity
  8
0
100
AcDbLine
 10
637.3208590744598
 20
139.9819081390591
 30
0.0
 11
645.2407200744596
 21
130.7420551390592
 31
0.0
  0
ARC
  5
A4D
330
2
100
AcDbEntity
  8
0
100
AcDbCircle
 10
649.7222260744596
 20
128.3154041390592
 30
0.0
 40
2.0
100
AcDbArc
 50
180.0
 51
255.5224910000005
  0
ARC
  5
A4E
330
2
100
AcDbEntity
  8
0
100
AcDbCircle
 10
654.7222260744596
 20
147.6803181390591
 30
0.0
 40
22.0
100
AcDbArc
 50
249.5126879999995
 51
270.0
  0
ARC
  5
A4F
330
2
100
AcDbEntity
  8
0
100
AcDbCircle
 10
650.1228610744596
 20
130.6803181390592
 30
0.0
 40
10.0
100
AcDbArc
 50
247.6683499999999
 51
270.0
  0
ARC
  5
A50
330
2
100
AcDbEntity
  8
0
100
AcDbCircle
 10
630.7222260744596
 20
127.6803181390592
 30
0.0
 40
7.0
100
AcDbArc
 50
180.0
 51
312.6359250000002
  0
CIRCLE
  5
A52
330
2
100
AcDbEntity
  8
HOJO
100
AcDbCircle
 10
630.7222260744596
 20
127.6803181390592
 30
0.0
 40
4.0
  0
CIRCLE
  5
A53
330
2
100
AcDbEntity
  8
0
100
AcDbCircle
 10
630.7222260744596
 20
127.6803181390592
 30
0.0
 40
3.399999999999999
  0
ARC
  5
A55
330
2
100
AcDbEntity
  8
0
100
AcDbCircle
 10
647.7222260744596
 20
128.9453251390592
 30
0.0
 40
2.0
100
AcDbArc
 50
180.0
 51
249.5126799999996
  0
ARC
  5
A56
330
2
100
AcDbEntity
  8
0
100
AcDbCircle
 10
639.5275850744596
 20
118.1165741390592
 30
0.0
 40
6.0
100
AcDbArc
 50
59.64169700000056
 51
132.6359250000002
  0
ARC
  5
A57
330
2
100
AcDbEntity
  8
0
100
AcDbCircle
 10
657.7222260744596
 20
149.1803181390591
 30
0.0
 40
30.0
100
AcDbArc
 50
239.6416930000005
 51
247.6683499999999
  0
LINE
  5
A58
330
2
100
AcDbEntity
  8
0
100
AcDbLine
 10
647.5980190744595
 20
130.8742111390592
 30
0.0
 11
645.5980190744595
 21
130.1343591390591
 31
0.0
  0
ARC
  5
A59
330
2
100
AcDbEntity
  8
0
100
AcDbCircle
 10
643.7222260744596
 20
129.4404731390592
 30
0.0
 40
2.0
100
AcDbArc
 50
0.0
 51
40.60129500000027
  0
ARC
  5
A5A
330
2
100
AcDbEntity
  8
0
100
AcDbCircle
 10
645.7222260744596
 20
130.1803181390592
 30
0.0
 40
2.0
100
AcDbArc
 50
0.0
 51
40.60129500000027
  0
LINE
  5
A5B
330
2
100
AcDbEntity
  8
0
100
AcDbLine
 10
647.7222260744596
 20
130.1803181390592
 30
0.0
 11
647.7222260744596
 21
128.3154041390592
 31
0.0
  0
LINE
  5
A5C
330
2
100
AcDbEntity
  8
0
100
AcDbLine
 10
645.7222260744596
 20
129.4404731390592
 30
0.0
 11
645.7222260744596
 21
128.9453251390592
 31
0.0
  0
LINE
  5
A5D
330
2
100
AcDbEntity
  8
0
100
AcDbLine
 10
654.7222260744596
 20
125.6803181390591
 30
0.0
 11
692.7222260744597
 21
125.6803181390591
 31
0.0
  0
ARC
  5
A5E
330
2
100
AcDbEntity
  8
0
100
AcDbCircle
 10
697.3215910744596
 20
130.6803181390592
 30
0.0
 40
10.0
100
AcDbArc
 50
270.0
 51
292.3316350000003
  0
ARC
  5
A5F
330
2
100
AcDbEntity
  8
0
100
AcDbCircle
 10
692.7222260744597
 20
147.6803181390591
 30
0.0
 40
22.0
100
AcDbArc
 50
270.0
 51
290.4873049999995
  0
ARC
  5
A60
330
2
100
AcDbEntity
  8
0
100
AcDbCircle
 10
699.7222260744597
 20
128.9453251390592
 30
0.0
 40
2.0
100
AcDbArc
 50
290.4873119999995
 51
0.0
  0
ARC
  5
A61
330
2
100
AcDbEntity
  8
0
100
AcDbCircle
 10
697.7222260744597
 20
128.3154041390592
 30
0.0
 40
2.0
100
AcDbArc
 50
284.4775089999994
 51
0.0
  0
ARC
  5
A62
330
2
100
AcDbEntity
  8
0
100
AcDbCircle
 10
689.7222260744597
 20
149.1803181390591
 30
0.0
 40
30.0
100
AcDbArc
 50
292.3316350000003
 51
300.3583069999994
  0
LINE
  5
A63
330
2
100
AcDbEntity
  8
0
100
AcDbLine
 10
699.8464330744597
 20
130.8742111390592
 30
0.0
 11
701.8464330744596
 21
130.1343591390591
 31
0.0
  0
ARC
  5
A64
330
2
100
AcDbEntity
  8
0
100
AcDbCircle
 10
703.7222260744597
 20
129.4404731390592
 30
0.0
 40
2.0
100
AcDbArc
 50
139.398712
 51
180.0
  0
ARC
  5
A65
330
2
100
AcDbEntity
  8
0
100
AcDbCircle
 10
701.7222260744595
 20
130.1803181390592
 30
0.0
 40
2.0
100
AcDbArc
 50
139.398712
 51
180.0
  0
LINE
  5
A66
330
2
100
AcDbEntity
  8
0
100
AcDbLine
 10
699.7222260744597
 20
130.1803181390592
 30
0.0
 11
699.7222260744597
 21
128.3154041390592
 31
0.0
  0
LINE
  5
A67
330
2
100
AcDbEntity
  8
0
100
AcDbLine
 10
701.7222260744595
 20
129.4404731390592
 30
0.0
 11
701.7222260744595
 21
128.9453251390592
 31
0.0
  0
CIRCLE
  5
A68
330
2
100
AcDbEntity
  8
0
100
AcDbCircle
 10
662.7222260744596
 20
161.1803181390591
 30
0.0
 40
25.002001
  0
CIRCLE
  5
A69
330
2
100
AcDbEntity
  8
0
100
AcDbCircle
 10
662.7222260744596
 20
161.1803181390591
 30
0.0
 40
23.0
  0
CIRCLE
  5
A6A
330
2
100
AcDbEntity
  8
0
100
AcDbCircle
 10
662.7222260744596
 20
161.1803181390591
 30
0.0
 40
16.0
  0
CIRCLE
  5
A6B
330
2
100
AcDbEntity
  8
0
100
AcDbCircle
 10
662.7222260744596
 20
161.1803181390591
 30
0.0
 40
19.5
  0
LINE
  5
A6C
330
2
100
AcDbEntity
  8
0
100
AcDbLine
 10
632.7222260744596
 20
174.6803181390591
 30
0.0
 11
632.7222260744596
 21
147.6803181390591
 31
0.0
  0
LINE
  5
A6D
330
2
100
AcDbEntity
  8
0
100
AcDbLine
 10
627.7222260744596
 20
150.5087481390591
 30
0.0
 11
627.7222260744596
 21
171.8518881390591
 31
0.0
  0
LINE
  5
A6E
330
2
100
AcDbEntity
  8
0
100
AcDbLine
 10
627.1364110744594
 20
149.0945331390592
 30
0.0
 11
624.3080410744596
 21
146.2661031390591
 31
0.0
  0
ARC
  5
A6F
330
2
100
AcDbEntity
  8
0
100
AcDbCircle
 10
635.3572970744596
 20
142.6803181390591
 30
0.0
 40
2.0
100
AcDbArc
 50
194.4775090000004
 51
270.0
  0
ARC
  5
A70
330
2
100
AcDbEntity
  8
0
100
AcDbCircle
 10
634.9484830744597
 20
144.6803181390591
 30
0.0
 40
2.0
100
AcDbArc
 50
188.626923
 51
270.0
  0
ARC
  5
A71
330
2
100
AcDbEntity
  8
0
100
AcDbCircle
 10
625.7222260744596
 20
144.8518881390591
 30
0.0
 40
2.0
100
AcDbArc
 50
134.9999999999994
 51
180.0
  0
ARC
  5
A72
330
2
100
AcDbEntity
  8
0
100
AcDbCircle
 10
654.7222260744596
 20
147.6803181390591
 30
0.0
 40
22.0
100
AcDbArc
 50
180.0
 51
194.4775090000004
  0
LINE
  5
A73
330
2
100
AcDbEntity
  8
0
100
AcDbLine
 10
637.5579190744596
 20
142.4973501390591
 30
0.0
 11
636.6380590744596
 21
140.4973501390592
 31
0.0
  0
LINE
  5
A74
330
2
100
AcDbEntity
  8
0
100
AcDbLine
 10
635.8023650744595
 20
140.6803181390592
 30
0.0
 11
635.3572970744596
 21
140.6803181390592
 31
0.0
  0
ARC
  5
A75
330
2
100
AcDbEntity
  8
0
100
AcDbCircle
 10
635.8023650744595
 20
138.6803181390592
 30
0.0
 40
2.0
100
AcDbArc
 50
40.60129500000027
 51
90.0
  0
LINE
  5
A76
330
2
100
AcDbEntity
  8
0
100
AcDbLine
 10
636.7222260744596
 20
142.6803181390591
 30
0.0
 11
634.9484830744597
 21
142.6803181390591
 31
0.0
  0
ARC
  5
A77
330
2
100
AcDbEntity
  8
0
100
AcDbCircle
 10
636.7222260744596
 20
140.6803181390592
 30
0.0
 40
2.0
100
AcDbArc
 50
40.60129500000027
 51
90.0
  0
ARC
  5
A78
330
2
100
AcDbEntity
  8
0
100
AcDbCircle
 10
625.7222260744596
 20
150.5087481390591
 30
0.0
 40
2.0
100
AcDbArc
 50
314.9999999999993
 51
0.0
  0
ARC
  5
A79
330
2
100
AcDbEntity
  8
0
100
AcDbCircle
 10
654.7222260744596
 20
174.6803181390591
 30
0.0
 40
22.0
100
AcDbArc
 50
165.5224909999994
 51
180.0
  0
ARC
  5
A7A
330
2
100
AcDbEntity
  8
0
100
AcDbCircle
 10
625.7222260744596
 20
177.5087481390591
 30
0.0
 40
2.0
100
AcDbArc
 50
180.0
 51
225.0000000000006
  0
LINE
  5
A7B
330
2
100
AcDbEntity
  8
0
100
AcDbLine
 10
627.1364110744594
 20
173.2661031390591
 30
0.0
 11
624.3080410744596
 21
176.0945331390592
 31
0.0
  0
ARC
  5
A7C
330
2
100
AcDbEntity
  8
0
100
AcDbCircle
 10
625.7222260744596
 20
171.8518881390591
 30
0.0
 40
2.0
100
AcDbArc
 50
0.0
 51
45.00000000000057
  0
ARC
  5
A7D
330
2
100
AcDbEntity
  8
0
100
AcDbCircle
 10
635.3572970744596
 20
179.6803181390591
 30
0.0
 40
2.0
100
AcDbArc
 50
90.0
 51
165.5224909999994
  0
ARC
  5
A7E
330
2
100
AcDbEntity
  8
0
100
AcDbCircle
 10
634.9484830744597
 20
177.6803181390591
 30
0.0
 40
2.0
100
AcDbArc
 50
90.0
 51
171.3730769999999
  0
LINE
  5
A7F
330
2
100
AcDbEntity
  8
0
100
AcDbLine
 10
638.2407200744596
 20
180.3787281390591
 30
0.0
 11
647.2407200744596
 21
190.8787281390591
 31
0.0
  0
LINE
  5
A80
330
2
100
AcDbEntity
  8
0
100
AcDbLine
 10
635.8023650744595
 20
181.6803181390591
 30
0.0
 11
635.3572970744596
 21
181.6803181390591
 31
0.0
  0
LINE
  5
A81
330
2
100
AcDbEntity
  8
0
100
AcDbLine
 10
636.7222260744596
 20
179.6803181390591
 30
0.0
 11
634.9484830744597
 21
179.6803181390591
 31
0.0
  0
LINE
  5
A82
330
2
100
AcDbEntity
  8
0
100
AcDbLine
 10
637.5579190744596
 20
179.8632861390591
 30
0.0
 11
636.6380590744596
 21
181.8632861390591
 31
0.0
  0
ARC
  5
A83
330
2
100
AcDbEntity
  8
0
100
AcDbCircle
 10
636.7222260744596
 20
181.6803181390591
 30
0.0
 40
2.0
100
AcDbArc
 50
270.0
 51
319.3987049999997
  0
ARC
  5
A84
330
2
100
AcDbEntity
  8
0
100
AcDbCircle
 10
635.8023650744595
 20
183.6803181390591
 30
0.0
 40
2.0
100
AcDbArc
 50
270.0
 51
319.3987049999997
  0
ARC
  5
A85
330
2
100
AcDbEntity
  8
0
100
AcDbCircle
 10
662.7222260744596
 20
161.1803181390591
 30
0.0
 40
6.0
100
AcDbArc
 50
109.4712219999995
 51
70.52877800000044
  0
CIRCLE
  5
A86
330
2
100
AcDbEntity
  8
0
100
AcDbCircle
 10
662.7222260744596
 20
161.1803181390591
 30
0.0
 40
10.0
  0
LINE
  5
A87
330
2
100
AcDbEntity
  8
0
100
AcDbLine
 10
709.8865330744596
 20
142.4973501390591
 30
0.0
 11
710.8063930744597
 21
140.4973501390592
 31
0.0
  0
ARC
  5
A88
330
2
100
AcDbEntity
  8
0
100
AcDbCircle
 10
710.7222260744597
 20
140.6803181390592
 30
0.0
 40
2.0
100
AcDbArc
 50
90.0
 51
139.398712
  0
LINE
  5
A89
330
2
100
AcDbEntity
  8
0
100
AcDbLine
 10
664.7222260744596
 20
168.9803211390591
 30
0.0
 11
664.7222260744596
 21
166.8371781390591
 31
0.0
  0
LINE
  5
A8A
330
2
100
AcDbEntity
  8
0
100
AcDbLine
 10
660.7222260744596
 20
168.9803211390591
 30
0.0
 11
660.7222260744596
 21
166.8371781390591
 31
0.0
  0
LINE
  5
A8B
330
2
100
AcDbEntity
  8
0
100
AcDbLine
 10
660.7222260744596
 20
168.9803211390591
 30
0.0
 11
664.7222260744596
 21
168.9803211390591
 31
0.0
  0
LINE
  5
A8C
330
2
100
AcDbEntity
  8
0
100
AcDbLine
 10
709.2037320744594
 20
180.3787281390591
 30
0.0
 11
700.2037320744594
 21
190.8787281390591
 31
0.0
  0
LINE
  5
A8D
330
2
100
AcDbEntity
  8
0
100
AcDbLine
 10
709.8865330744596
 20
179.8632861390591
 30
0.0
 11
710.8063930744597
 21
181.8632861390591
 31
0.0
  0
ARC
  5
A8E
330
2
100
AcDbEntity
  8
0
100
AcDbCircle
 10
710.7222260744597
 20
181.6803181390591
 30
0.0
 40
2.0
100
AcDbArc
 50
220.6012879999999
 51
270.0
  0
LINE
  5
A8F
330
2
100
AcDbEntity
  8
0
100
AcDbLine
 10
852.5277070744596
 20
185.1803181390591
 30
0.0
 11
806.2777070744598
 21
185.1803181390591
 31
0.0
  0
LINE
  5
A90
330
2
100
AcDbEntity
  8
0
100
AcDbLine
 10
852.5277070744596
 20
135.1803181390592
 30
0.0
 11
806.2777070744598
 21
135.1803181390592
 31
0.0
  0
LINE
  5
A91
330
2
100
AcDbEntity
  8
0
100
AcDbLine
 10
850.2777070744595
 20
121.1803181390592
 30
0.0
 11
806.2777070744598
 21
121.1803181390592
 31
0.0
  0
LINE
  5
A92
330
2
100
AcDbEntity
  8
0
100
AcDbLine
 10
723.7222260744597
 20
144.8518881390591
 30
0.0
 11
723.7222260744597
 21
127.6803181390592
 31
0.0
  0
LINE
  5
A93
330
2
100
AcDbEntity
  8
0
100
AcDbLine
 10
796.7777070744597
 20
130.9313561390591
 30
0.0
 11
723.7222260744597
 21
130.9313561390591
 31
0.0
  0
LINE
  5
A94
330
2
100
AcDbEntity
  8
0
100
AcDbLine
 10
796.7777070744597
 20
123.1803181390592
 30
0.0
 11
725.0809910744597
 21
123.1803181390592
 31
0.0
  0
ARC
  5
A95
330
2
100
AcDbEntity
  8
0
100
AcDbCircle
 10
716.7222260744597
 20
127.6803181390592
 30
0.0
 40
7.0
100
AcDbArc
 50
227.3640749999997
 51
0.0
  0
CIRCLE
  5
A97
330
2
100
AcDbEntity
  8
HOJO
100
AcDbCircle
 10
716.7222260744597
 20
127.6803181390592
 30
0.0
 40
4.0
  0
CIRCLE
  5
A98
330
2
100
AcDbEntity
  8
0
100
AcDbCircle
 10
716.7222260744597
 20
127.6803181390592
 30
0.0
 40
3.399999999999999
  0
LINE
  5
A99
330
2
100
AcDbEntity
  8
0
100
AcDbLine
 10
724.3858610744597
 20
123.0556231390592
 30
0.0
 11
719.1552090744596
 21
121.1167351390592
 31
0.0
  0
ARC
  5
A9A
330
2
100
AcDbEntity
  8
0
100
AcDbCircle
 10
725.0809910744597
 20
121.1803181390592
 30
0.0
 40
2.0
100
AcDbArc
 50
90.0
 51
110.33873
  0
LINE
  5
A9B
330
2
100
AcDbEntity
  8
0
100
AcDbLine
 10
806.2777070744598
 20
130.9313171390591
 30
0.0
 11
796.7777070744597
 21
130.9313171390591
 31
0.0
  0
LINE
  5
A9C
330
2
100
AcDbEntity
  8
0
100
AcDbLine
 10
806.2777070744598
 20
123.1803181390592
 30
0.0
 11
796.7777070744597
 21
123.1803181390592
 31
0.0
  0
LINE
  5
A9D
330
2
100
AcDbEntity
  8
0
100
AcDbLine
 10
714.7222260744597
 20
174.6803181390591
 30
0.0
 11
714.7222260744597
 21
147.6803181390591
 31
0.0
  0
LINE
  5
A9E
330
2
100
AcDbEntity
  8
0
100
AcDbLine
 10
719.7222260744597
 20
150.5087481390591
 30
0.0
 11
719.7222260744597
 21
171.8518881390591
 31
0.0
  0
LINE
  5
A9F
330
2
100
AcDbEntity
  8
0
100
AcDbLine
 10
720.3080410744596
 20
149.0945331390592
 30
0.0
 11
723.1364110744594
 21
146.2661031390591
 31
0.0
  0
ARC
  5
AA0
330
2
100
AcDbEntity
  8
0
100
AcDbCircle
 10
712.0871550744595
 20
142.6803181390591
 30
0.0
 40
2.0
100
AcDbArc
 50
270.0
 51
345.5224909999996
  0
LINE
  5
AA1
330
2
100
AcDbEntity
  8
0
100
AcDbLine
 10
711.6420870744597
 20
140.6803181390592
 30
0.0
 11
712.0871550744595
 21
140.6803181390592
 31
0.0
  0
ARC
  5
AA2
330
2
100
AcDbEntity
  8
0
100
AcDbCircle
 10
692.7222260744597
 20
147.6803181390591
 30
0.0
 40
22.0
100
AcDbArc
 50
345.5224880000002
 51
0.0
  0
ARC
  5
AA3
330
2
100
AcDbEntity
  8
0
100
AcDbCircle
 10
712.4959690744597
 20
144.6803181390591
 30
0.0
 40
2.0
100
AcDbArc
 50
270.0
 51
351.373077
  0
ARC
  5
AA4
330
2
100
AcDbEntity
  8
0
100
AcDbCircle
 10
721.7222260744597
 20
144.8518881390591
 30
0.0
 40
2.0
100
AcDbArc
 50
0.0
 51
45.00000000000057
  0
ARC
  5
AA5
330
2
100
AcDbEntity
  8
0
100
AcDbCircle
 10
721.7222260744597
 20
150.5087481390591
 30
0.0
 40
2.0
100
AcDbArc
 50
180.0
 51
225.0000000000006
  0
ARC
  5
AA6
330
2
100
AcDbEntity
  8
0
100
AcDbCircle
 10
692.7222260744597
 20
174.6803181390591
 30
0.0
 40
22.0
100
AcDbArc
 50
0.0
 51
14.47751199999975
  0
ARC
  5
AA7
330
2
100
AcDbEntity
  8
0
100
AcDbCircle
 10
721.7222260744597
 20
177.5087481390591
 30
0.0
 40
2.0
100
AcDbArc
 50
314.9999999999993
 51
0.0
  0
ARC
  5
AA8
330
2
100
AcDbEntity
  8
0
100
AcDbCircle
 10
721.7222260744597
 20
171.8518881390591
 30
0.0
 40
2.0
100
AcDbArc
 50
134.9999999999994
 51
180.0
  0
LINE
  5
AA9
330
2
100
AcDbEntity
  8
0
100
AcDbLine
 10
720.3080410744596
 20
173.2661031390591
 30
0.0
 11
723.1364110744594
 21
176.0945331390592
 31
0.0
  0
ARC
  5
AAA
330
2
100
AcDbEntity
  8
0
100
AcDbCircle
 10
712.0871550744595
 20
179.6803181390591
 30
0.0
 40
2.0
100
AcDbArc
 50
14.47751199999975
 51
90.0
  0
ARC
  5
AAB
330
2
100
AcDbEntity
  8
0
100
AcDbCircle
 10
712.4959690744597
 20
177.6803181390591
 30
0.0
 40
2.0
100
AcDbArc
 50
8.626926999999758
 51
90.0
  0
LINE
  5
AAC
330
2
100
AcDbEntity
  8
0
100
AcDbLine
 10
711.6420870744597
 20
181.6803181390591
 30
0.0
 11
712.0871550744595
 21
181.6803181390591
 31
0.0
  0
ARC
  5
AAD
330
2
100
AcDbEntity
  8
HIDS
  6
SEKKEI_H
 48
0.5
100
AcDbCircle
 10
806.2777070744598
 20
184.7097221390591
 30
0.0
 40
1.5
100
AcDbArc
 50
90.0
 51
180.0
  0
ARC
  5
AAE
330
2
100
AcDbEntity
  8
HIDS
  6
SEKKEI_H
 48
0.5
100
AcDbCircle
 10
806.2777070744598
 20
184.7097221390591
 30
0.0
 40
3.0
100
AcDbArc
 50
90.0
 51
180.0
  0
ARC
  5
AAF
330
2
100
AcDbEntity
  8
HIDS
  6
SEKKEI_H
 48
0.5
100
AcDbCircle
 10
806.2777070744598
 20
184.7097221390591
 30
0.0
 40
4.5
100
AcDbArc
 50
90.0
 51
180.0
  0
LINE
  5
AB0
330
2
100
AcDbEntity
  8
HIDS
  6
SEKKEI_H
 48
0.5
100
AcDbLine
 10
801.7777070744596
 20
184.7097221390591
 30
0.0
 11
801.7777070744596
 21
180.2097221390591
 31
0.0
  0
LINE
  5
AB1
330
2
100
AcDbEntity
  8
HIDS
  6
SEKKEI_H
 48
0.5
100
AcDbLine
 10
803.2777070744597
 20
184.7097221390591
 30
0.0
 11
803.2777070744597
 21
180.2097221390591
 31
0.0
  0
LINE
  5
AB2
330
2
100
AcDbEntity
  8
HIDS
  6
SEKKEI_H
 48
0.5
100
AcDbLine
 10
804.7777070744595
 20
184.7097221390591
 30
0.0
 11
804.7777070744595
 21
179.6941121390591
 31
0.0
  0
LINE
  5
AB3
330
2
100
AcDbEntity
  8
HIDS
  6
SEKKEI_H
 48
0.5
100
AcDbLine
 10
803.2777070744597
 20
180.7097221390591
 30
0.0
 11
801.7777070744596
 21
180.2097221390591
 31
0.0
  0
LINE
  5
AB4
330
2
100
AcDbEntity
  8
HIDS
  6
SEKKEI_H
 48
0.5
100
AcDbLine
 10
804.7777070744595
 20
179.7097221390591
 30
0.0
 11
803.2777070744597
 21
180.2097221390591
 31
0.0
  0
ARC
  5
AB5
330
2
100
AcDbEntity
  8
0
100
AcDbCircle
 10
850.2777070744595
 20
126.1803181390591
 30
0.0
 40
5.0
100
AcDbArc
 50
270.0
 51
0.0
  0
LINE
  5
AB6
330
2
100
AcDbEntity
  8
0
100
AcDbLine
 10
624.4291350744596
 20
425.2245797406698
 30
0.0
 11
723.0153170744596
 21
425.2245797406698
 31
0.0
  0
ARC
  5
AB7
330
2
100
AcDbEntity
  8
0
100
AcDbCircle
 10
707.9168670744596
 20
204.2440541390591
 30
0.0
 40
6.0
100
AcDbArc
 50
239.6416930000005
 51
312.6359250000002
  0
ARC
  5
AB8
330
2
100
AcDbEntity
  8
0
100
AcDbCircle
 10
708.0642060744597
 20
388.5205697406697
 30
0.0
 40
11.0
100
AcDbArc
 50
248.924667
 51
295.7177279999999
  0
LINE
  5
AB9
330
2
100
AcDbEntity
  8
0
100
AcDbLine
 10
699.0897190744597
 20
379.7245797406698
 30
0.0
 11
716.6349460744596
 21
379.7245797406698
 31
0.0
  0
ARC
  5
ABA
330
2
100
AcDbEntity
  8
0
100
AcDbCircle
 10
708.0642060744597
 20
380.9285897406697
 30
0.0
 40
11.0
100
AcDbArc
 50
64.28227199999999
 51
111.0753329999997
  0
LINE
  5
ABB
330
2
100
AcDbEntity
  8
0
100
AcDbLine
 10
699.0897190744597
 20
389.7245797406698
 30
0.0
 11
716.6349460744596
 21
389.7245797406698
 31
0.0
  0
LINE
  5
ABC
330
2
100
AcDbEntity
  8
0
100
AcDbLine
 10
724.7222260744597
 20
412.7245797406698
 30
0.0
 11
624.2109960744596
 21
412.7245797406698
 31
0.0
  0
LINE
  5
ABD
330
2
100
AcDbEntity
  8
0
100
AcDbLine
 10
723.0153170744596
 20
344.2245797406698
 30
0.0
 11
624.4291350744596
 21
344.2245797406698
 31
0.0
  0
LINE
  5
ABE
330
2
100
AcDbEntity
  8
CENTER
100
AcDbLine
 10
616.1814550744598
 20
384.7245797406698
 30
0.0
 11
863.7982370426938
 21
384.7245797406698
 31
0.0
  0
LINE
  5
ABF
330
2
100
AcDbEntity
  8
0
100
AcDbLine
 10
716.7222260744597
 20
201.6803181390591
 30
0.0
 11
630.7222260744596
 21
201.6803181390591
 31
0.0
  0
LINE
  5
AC1
330
2
100
AcDbEntity
  8
0
100
AcDbLine
 10
708.0642060744597
 20
377.5205697406697
 30
0.0
 11
708.0642060744597
 21
344.2245797406698
 31
0.0
  0
LINE
  5
AC2
330
2
100
AcDbEntity
  8
0
100
AcDbLine
 10
699.0897190744597
 20
379.7245797406698
 30
0.0
 11
699.0897190744597
 21
344.2245797406698
 31
0.0
  0
LINE
  5
AC3
330
2
100
AcDbEntity
  8
0
100
AcDbLine
 10
648.3547330744596
 20
379.7245797406698
 30
0.0
 11
648.3547330744596
 21
344.2245797406698
 31
0.0
  0
LINE
  5
AC4
330
2
100
AcDbEntity
  8
0
100
AcDbLine
 10
639.3802460744596
 20
377.5205697406697
 30
0.0
 11
639.3802460744596
 21
344.2245797406698
 31
0.0
  0
LINE
  5
AC5
330
2
100
AcDbEntity
  8
0
100
AcDbLine
 10
623.7222260744596
 20
384.7245797406698
 30
0.0
 11
624.4291350744596
 21
344.2245797406698
 31
0.0
  0
LINE
  5
AC6
330
2
100
AcDbEntity
  8
CENTER
100
AcDbLine
 10
630.7222260744596
 20
340.8656627406698
 30
0.0
 11
630.7222260744596
 21
428.5406807406697
 31
0.0
  0
LINE
  5
AC7
330
2
100
AcDbEntity
  8
CENTER
100
AcDbLine
 10
662.7222260744596
 20
434.2197267406698
 30
0.0
 11
662.7222260744596
 21
335.2294327406698
 31
0.0
  0
LINE
  5
AC8
330
2
100
AcDbEntity
  8
HIDS
100
AcDbLine
 10
634.7222260744596
 20
344.2245797406698
 30
0.0
 11
634.7222260744596
 21
376.7245797406697
 31
0.0
  0
LINE
  5
AC9
330
2
100
AcDbEntity
  8
HIDS
100
AcDbLine
 10
626.7222260744595
 20
344.2245797406698
 30
0.0
 11
626.7222260744595
 21
376.7245797406697
 31
0.0
  0
LINE
  5
ACA
330
2
100
AcDbEntity
  8
HIDS
100
AcDbLine
 10
634.1222500744597
 20
412.7245797406698
 30
0.0
 11
634.1222500744597
 21
344.2245797406698
 31
0.0
  0
LINE
  5
ACB
330
2
100
AcDbEntity
  8
HIDS
100
AcDbLine
 10
627.3222020744595
 20
412.7245797406698
 30
0.0
 11
627.3222020744595
 21
344.2245797406698
 31
0.0
  0
LINE
  5
ACE
330
2
100
AcDbEntity
  8
HIDS
100
AcDbLine
 10
472.0550559161595
 20
198.8131461390591
 30
0.0
 11
451.0201439161595
 21
199.1803181390591
 31
0.0
  0
ARC
  5
ACF
330
2
100
AcDbEntity
  8
HIDS
100
AcDbCircle
 10
474.0201439161594
 20
198.1803181390591
 30
0.0
 40
3.0
100
AcDbArc
 50
0.0
 51
90.0
  0
ARC
  5
AD0
330
2
100
AcDbEntity
  8
HIDS
100
AcDbCircle
 10
472.0201439161595
 20
196.8134511390591
 30
0.0
 40
2.0
100
AcDbArc
 50
0.0
 51
88.99999999999987
  0
LINE
  5
AD1
330
2
100
AcDbEntity
  8
HIDS
100
AcDbLine
 10
477.0201439161595
 20
198.1803181390591
 30
0.0
 11
477.0201439161595
 21
194.5772911390591
 31
0.0
  0
LINE
  5
AD2
330
2
100
AcDbEntity
  8
HIDS
100
AcDbLine
 10
474.0201439161594
 20
196.8134511390591
 30
0.0
 11
474.0201439161594
 21
192.8820541390591
 31
0.0
  0
ARC
  5
AD3
330
2
100
AcDbEntity
  8
0
100
AcDbCircle
 10
649.7222260744596
 20
194.0452321390591
 30
0.0
 40
2.0
100
AcDbArc
 50
104.4775089999994
 51
180.0
  0
ARC
  5
AD4
330
2
100
AcDbEntity
  8
0
100
AcDbCircle
 10
654.7222260744596
 20
174.6803181390591
 30
0.0
 40
22.0
100
AcDbArc
 50
90.0
 51
110.4873119999995
  0
ARC
  5
AD5
330
2
100
AcDbEntity
  8
0
100
AcDbCircle
 10
650.1228610744596
 20
191.6803181390591
 30
0.0
 40
10.0
100
AcDbArc
 50
90.0
 51
112.3316419999994
  0
CIRCLE
  5
AD6
330
2
100
AcDbEntity
  8
0
100
AcDbCircle
 10
630.7222260744596
 20
194.6803181390592
 30
0.0
 40
3.399999999999999
  0
ARC
  5
AD7
330
2
100
AcDbEntity
  8
0
100
AcDbCircle
 10
630.7222260744596
 20
194.6803181390592
 30
0.0
 40
7.0
100
AcDbArc
 50
47.3640670000003
 51
180.0
  0
ARC
  5
AD9
330
2
100
AcDbEntity
  8
0
100
AcDbCircle
 10
639.5275850744596
 20
204.2440541390591
 30
0.0
 40
6.0
100
AcDbArc
 50
227.3640749999997
 51
300.3583069999994
  0
ARC
  5
ADA
330
2
100
AcDbEntity
  8
0
100
AcDbCircle
 10
647.7222260744596
 20
193.4153191390592
 30
0.0
 40
2.0
100
AcDbArc
 50
110.4873119999995
 51
180.0
  0
LINE
  5
ADB
330
2
100
AcDbEntity
  8
0
100
AcDbLine
 10
647.5980190744595
 20
191.4864251390591
 30
0.0
 11
645.5980190744595
 21
192.2262771390592
 31
0.0
  0
ARC
  5
ADC
330
2
100
AcDbEntity
  8
0
100
AcDbCircle
 10
643.7222260744596
 20
192.9201711390591
 30
0.0
 40
2.0
100
AcDbArc
 50
319.3987049999997
 51
0.0
  0
LINE
  5
ADD
330
2
100
AcDbEntity
  8
0
100
AcDbLine
 10
647.7222260744596
 20
192.1803181390591
 30
0.0
 11
647.7222260744596
 21
194.0452321390591
 31
0.0
  0
LINE
  5
ADE
330
2
100
AcDbEntity
  8
0
100
AcDbLine
 10
645.7222260744596
 20
192.9201711390591
 30
0.0
 11
645.7222260744596
 21
193.4153191390592
 31
0.0
  0
ARC
  5
ADF
330
2
100
AcDbEntity
  8
0
100
AcDbCircle
 10
657.7222260744596
 20
173.1803181390591
 30
0.0
 40
30.0
100
AcDbArc
 50
112.3316419999994
 51
120.358299
  0
LINE
  5
AE0
330
2
100
AcDbEntity
  8
0
100
AcDbLine
 10
654.7222260744596
 20
196.6803181390591
 30
0.0
 11
692.7222260744597
 21
196.6803181390591
 31
0.0
  0
ARC
  5
AE1
330
2
100
AcDbEntity
  8
0
100
AcDbCircle
 10
692.7222260744597
 20
174.6803181390591
 30
0.0
 40
22.0
100
AcDbArc
 50
69.51268799999964
 51
90.0
  0
ARC
  5
AE2
330
2
100
AcDbEntity
  8
0
100
AcDbCircle
 10
699.7222260744597
 20
193.4153191390592
 30
0.0
 40
2.0
100
AcDbArc
 50
0.0
 51
69.51268799999964
  0
ARC
  5
AE3
330
2
100
AcDbEntity
  8
0
100
AcDbCircle
 10
697.7222260744597
 20
194.0452321390591
 30
0.0
 40
2.0
100
AcDbArc
 50
0.0
 51
75.52249100000058
  0
LINE
  5
AE4
330
2
100
AcDbEntity
  8
0
100
AcDbLine
 10
699.8464330744597
 20
191.4864251390591
 30
0.0
 11
701.8464330744596
 21
192.2262771390592
 31
0.0
  0
ARC
  5
AE5
330
2
100
AcDbEntity
  8
0
100
AcDbCircle
 10
703.7222260744597
 20
192.9201711390591
 30
0.0
 40
2.0
100
AcDbArc
 50
180.0
 51
220.6012879999999
  0
LINE
  5
AE6
330
2
100
AcDbEntity
  8
0
100
AcDbLine
 10
699.7222260744597
 20
192.1803181390591
 30
0.0
 11
699.7222260744597
 21
194.0452321390591
 31
0.0
  0
LINE
  5
AE7
330
2
100
AcDbEntity
  8
0
100
AcDbLine
 10
701.7222260744595
 20
192.9201711390591
 30
0.0
 11
701.7222260744595
 21
193.4153191390592
 31
0.0
  0
ARC
  5
AE8
330
2
100
AcDbEntity
  8
0
100
AcDbCircle
 10
689.7222260744597
 20
173.1803181390591
 30
0.0
 40
30.0
100
AcDbArc
 50
59.64169700000056
 51
67.66835800000054
  0
ARC
  5
AE9
330
2
100
AcDbEntity
  8
0
100
AcDbCircle
 10
697.3215910744596
 20
191.6803181390591
 30
0.0
 40
10.0
100
AcDbArc
 50
67.66835800000054
 51
90.0
  0
LINE
  5
AEA
330
2
100
AcDbEntity
  8
0
100
AcDbLine
 10
708.0642060744597
 20
425.2245797406698
 30
0.0
 11
708.0642060744597
 21
391.9285897406698
 31
0.0
  0
LINE
  5
AEB
330
2
100
AcDbEntity
  8
0
100
AcDbLine
 10
699.0897190744597
 20
425.2245797406698
 30
0.0
 11
699.0897190744597
 21
389.7245797406698
 31
0.0
  0
LINE
  5
AEC
330
2
100
AcDbEntity
  8
0
100
AcDbLine
 10
639.3802460744596
 20
425.2245797406698
 30
0.0
 11
639.3802460744596
 21
391.9285897406698
 31
0.0
  0
LINE
  5
AED
330
2
100
AcDbEntity
  8
0
100
AcDbLine
 10
648.3547330744596
 20
425.2245797406698
 30
0.0
 11
648.3547330744596
 21
389.7245797406698
 31
0.0
  0
LINE
  5
AEE
330
2
100
AcDbEntity
  8
0
100
AcDbLine
 10
623.7222260744596
 20
384.7245797406698
 30
0.0
 11
624.4291350744596
 21
425.2245797406698
 31
0.0
  0
LINE
  5
AEF
330
2
100
AcDbEntity
  8
HIDS
  6
SEKKEI_H
100
AcDbLine
 10
634.9722260744596
 20
412.7245797406698
 30
0.0
 11
634.9722260744596
 21
425.2245797406698
 31
0.0
  0
LINE
  5
AF0
330
2
100
AcDbEntity
  8
HIDS
  6
SEKKEI_H
100
AcDbLine
 10
626.4722260744596
 20
412.7245797406698
 30
0.0
 11
626.4722260744596
 21
425.2245797406698
 31
0.0
  0
ARC
  5
AF1
330
2
100
AcDbEntity
  8
0
100
AcDbCircle
 10
639.3802460744596
 20
388.5205697406697
 30
0.0
 40
11.0
100
AcDbArc
 50
244.282272
 51
291.0753169999998
  0
LINE
  5
AF2
330
2
100
AcDbEntity
  8
HIDS
100
AcDbLine
 10
626.7222260744595
 20
376.7245797406697
 30
0.0
 11
634.7222260744596
 21
376.7245797406697
 31
0.0
  0
ARC
  5
AF3
330
2
100
AcDbEntity
  8
0
100
AcDbCircle
 10
630.8095060744594
 20
373.2245797406698
 30
0.0
 40
6.5
100
AcDbArc
 50
64.28227199999999
 51
90.0
  0
LINE
  5
AF4
330
2
100
AcDbEntity
  8
0
100
AcDbLine
 10
648.3547330744596
 20
379.7245797406698
 30
0.0
 11
630.8095060744594
 21
379.7245797406698
 31
0.0
  0
ARC
  5
AF5
330
2
100
AcDbEntity
  8
0
100
AcDbCircle
 10
630.8095060744594
 20
396.2245797406698
 30
0.0
 40
6.5
100
AcDbArc
 50
270.0
 51
295.7177279999999
  0
LINE
  5
AF6
330
2
100
AcDbEntity
  8
0
100
AcDbLine
 10
648.3547330744596
 20
389.7245797406698
 30
0.0
 11
630.8095060744594
 21
389.7245797406698
 31
0.0
  0
LINE
  5
AF7
330
2
100
AcDbEntity
  8
0
100
AcDbLine
 10
634.6069310744596
 20
378.6101997406697
 30
0.0
 11
633.6301240744595
 21
379.0807197406698
 31
0.0
  0
ARC
  5
AF8
330
2
100
AcDbEntity
  8
0
100
AcDbCircle
 10
648.3547330744596
 20
373.2245797406698
 30
0.0
 40
6.5
100
AcDbArc
 50
90.0
 51
111.0753329999997
  0
LINE
  5
AF9
330
2
100
AcDbEntity
  8
0
100
AcDbLine
 10
646.0173310744596
 20
379.2897957406697
 30
0.0
 11
643.3358120744595
 21
378.2563797406698
 31
0.0
  0
ARC
  5
AFA
330
2
100
AcDbEntity
  8
0
100
AcDbCircle
 10
639.3802460744596
 20
380.9285897406697
 30
0.0
 40
11.0
100
AcDbArc
 50
68.92466700000015
 51
115.717728
  0
LINE
  5
AFB
330
2
100
AcDbEntity
  8
0
100
AcDbLine
 10
634.6069310744596
 20
390.8389597406698
 30
0.0
 11
633.6301240744595
 21
390.3684707406698
 31
0.0
  0
ARC
  5
AFC
330
2
100
AcDbEntity
  8
0
100
AcDbCircle
 10
648.3547330744596
 20
396.2245797406698
 30
0.0
 40
6.5
100
AcDbArc
 50
248.924667
 51
270.0
  0
LINE
  5
AFD
330
2
100
AcDbEntity
  8
0
100
AcDbLine
 10
646.0173310744596
 20
390.1593637406698
 30
0.0
 11
643.3358120744595
 21
391.1927807406697
 31
0.0
  0
LINE
  5
AFE
330
2
100
AcDbEntity
  8
HIDS
100
AcDbLine
 10
626.7222260744595
 20
412.7245797406698
 30
0.0
 11
626.7222260744595
 21
392.7245797406698
 31
0.0
  0
LINE
  5
AFF
330
2
100
AcDbEntity
  8
HIDS
100
AcDbLine
 10
634.7222260744596
 20
412.7245797406698
 30
0.0
 11
634.7222260744596
 21
392.7245797406698
 31
0.0
  0
LINE
  5
B00
330
2
100
AcDbEntity
  8
HIDS
100
AcDbLine
 10
626.7222260744595
 20
392.7245797406698
 30
0.0
 11
634.7222260744596
 21
392.7245797406698
 31
0.0
  0
LINE
  5
B01
330
2
100
AcDbEntity
  8
0
100
AcDbLine
 10
701.4270600744596
 20
379.2897957406697
 30
0.0
 11
704.1086400744595
 21
378.2563797406698
 31
0.0
  0
ARC
  5
B02
330
2
100
AcDbEntity
  8
0
100
AcDbCircle
 10
699.0897190744597
 20
373.2245797406698
 30
0.0
 40
6.5
100
AcDbArc
 50
68.92466700000015
 51
90.0
  0
LINE
  5
B03
330
2
100
AcDbEntity
  8
0
100
AcDbLine
 10
701.4270600744596
 20
390.1593637406698
 30
0.0
 11
704.1086400744595
 21
391.1927807406697
 31
0.0
  0
ARC
  5
B04
330
2
100
AcDbEntity
  8
0
100
AcDbCircle
 10
699.0897190744597
 20
396.2245797406698
 30
0.0
 40
6.5
100
AcDbArc
 50
270.0
 51
291.0753169999998
  0
LINE
  5
B05
330
2
100
AcDbEntity
  8
0
100
AcDbLine
 10
855.2777070744596
 20
419.7245797406698
 30
0.0
 11
855.2777070744596
 21
349.7245797406698
 31
0.0
  0
LINE
  5
B06
330
2
100
AcDbEntity
  8
0
100
AcDbLine
 10
806.2777070744598
 20
424.7245797406698
 30
0.0
 11
806.2777070744598
 21
344.7245797406698
 31
0.0
  0
LINE
  5
B07
330
2
100
AcDbEntity
  8
0
100
AcDbLine
 10
719.1552090744596
 20
384.7245797406698
 30
0.0
 11
718.7194180744596
 21
359.7594917406697
 31
0.0
  0
LINE
  5
B08
330
2
100
AcDbEntity
  8
0
100
AcDbLine
 10
724.7222260744597
 20
407.7245797406698
 30
0.0
 11
724.7222260744597
 21
361.7245797406698
 31
0.0
  0
LINE
  5
B09
330
2
100
AcDbEntity
  8
CENTER
100
AcDbLine
 10
716.7222260744597
 20
340.8656627406698
 30
0.0
 11
716.7222260744597
 21
428.5406807406697
 31
0.0
  0
LINE
  5
B0A
330
2
100
AcDbEntity
  8
0
100
AcDbLine
 10
796.7777070744597
 20
346.7245797406698
 30
0.0
 11
796.7777070744597
 21
359.7245797406698
 31
0.0
  0
LINE
  5
B0B
330
2
100
AcDbEntity
  8
HIDS
100
AcDbLine
 10
720.7222260744597
 20
344.2245797406698
 30
0.0
 11
720.7222260744597
 21
376.7245797406697
 31
0.0
  0
LINE
  5
B0C
330
2
100
AcDbEntity
  8
HIDS
100
AcDbLine
 10
712.7222260744597
 20
344.2245797406698
 30
0.0
 11
712.7222260744597
 21
376.7245797406697
 31
0.0
  0
LINE
  5
B0D
330
2
100
AcDbEntity
  8
HIDS
100
AcDbLine
 10
720.1222500744596
 20
412.7245797406698
 30
0.0
 11
720.1222500744596
 21
344.2245797406698
 31
0.0
  0
LINE
  5
B0E
330
2
100
AcDbEntity
  8
HIDS
100
AcDbLine
 10
713.3222020744597
 20
412.7245797406698
 30
0.0
 11
713.3222020744597
 21
344.2245797406698
 31
0.0
  0
LINE
  5
B0F
330
2
100
AcDbEntity
  8
0
100
AcDbLine
 10
853.0277070744595
 20
360.7245797406698
 30
0.0
 11
806.2777070744598
 21
360.7245797406698
 31
0.0
  0
LINE
  5
B10
330
2
100
AcDbEntity
  8
0
100
AcDbLine
 10
850.2777070744595
 20
344.7245797406698
 30
0.0
 11
806.2777070744598
 21
344.7245797406698
 31
0.0
  0
LINE
  5
B11
330
2
100
AcDbEntity
  8
0
100
AcDbLine
 10
850.2777070744595
 20
201.1803181390591
 30
0.0
 11
806.2777070744598
 21
201.1803181390591
 31
0.0
  0
LINE
  5
B12
330
2
100
AcDbEntity
  8
0
100
AcDbLine
 10
796.7777070744597
 20
191.4292801390591
 30
0.0
 11
723.7222260744597
 21
191.4292801390591
 31
0.0
  0
LINE
  5
B13
330
2
100
AcDbEntity
  8
0
100
AcDbLine
 10
796.7777070744597
 20
199.1803181390591
 30
0.0
 11
725.0809910744597
 21
199.1803181390591
 31
0.0
  0
ARC
  5
B14
330
2
100
AcDbEntity
  8
0
100
AcDbCircle
 10
716.7222260744597
 20
194.6803181390592
 30
0.0
 40
7.0
100
AcDbArc
 50
0.0
 51
132.6359250000002
  0
CIRCLE
  5
B15
330
2
100
AcDbEntity
  8
0
100
AcDbCircle
 10
716.7222260744597
 20
194.6803181390592
 30
0.0
 40
3.399999999999999
  0
LINE
  5
B16
330
2
100
AcDbEntity
  8
0
100
AcDbLine
 10
724.3858610744597
 20
199.3050131390591
 30
0.0
 11
719.1552090744596
 21
201.2439011390591
 31
0.0
  0
ARC
  5
B17
330
2
100
AcDbEntity
  8
0
100
AcDbCircle
 10
725.0809910744597
 20
201.1803181390591
 30
0.0
 40
2.0
100
AcDbArc
 50
249.6612699999999
 51
270.0
  0
LINE
  5
B18
330
2
100
AcDbEntity
  8
0
100
AcDbLine
 10
806.2777070744598
 20
191.4293111390591
 30
0.0
 11
796.7777070744597
 21
191.4293111390591
 31
0.0
  0
LINE
  5
B19
330
2
100
AcDbEntity
  8
0
100
AcDbLine
 10
806.2777070744598
 20
199.1803181390591
 30
0.0
 11
796.7777070744597
 21
199.1803181390591
 31
0.0
  0
LINE
  5
B24
330
2
100
AcDbEntity
  8
0
100
AcDbLine
 10
806.2777070744598
 20
361.7245797406698
 30
0.0
 11
805.7778070744596
 21
361.7245797406698
 31
0.0
  0
LINE
  5
B25
330
2
100
AcDbEntity
  8
0
100
AcDbLine
 10
725.0243500744597
 20
346.7245797406698
 30
0.0
 11
796.7777070744597
 21
346.7245797406698
 31
0.0
  0
LINE
  5
B26
330
2
100
AcDbEntity
  8
0
100
AcDbLine
 10
723.0153170744596
 20
344.2245797406698
 30
0.0
 11
723.3207370744596
 21
361.7245797406698
 31
0.0
  0
ARC
  5
B27
330
2
100
AcDbEntity
  8
0
100
AcDbCircle
 10
725.0243500744597
 20
344.7245797406698
 30
0.0
 40
2.0
100
AcDbArc
 50
90.0
 51
178.9999999999998
  0
ARC
  5
B28
330
2
100
AcDbEntity
  8
0
100
AcDbCircle
 10
720.7191130744596
 20
359.7245797406698
 30
0.0
 40
2.0
100
AcDbArc
 50
90.0
 51
178.9999999999998
  0
LINE
  5
B29
330
2
100
AcDbEntity
  8
0
100
AcDbLine
 10
806.2777070744598
 20
346.7245797406698
 30
0.0
 11
796.7777070744597
 21
346.7245797406698
 31
0.0
  0
ARC
  5
B2A
330
2
100
AcDbEntity
  8
0
100
AcDbCircle
 10
850.2777070744595
 20
196.1803181390591
 30
0.0
 40
5.0
100
AcDbArc
 50
0.0
 51
90.0
  0
ARC
  5
B2B
330
2
100
AcDbEntity
  8
0
100
AcDbCircle
 10
850.2777070744595
 20
349.7245797406698
 30
0.0
 40
5.0
100
AcDbArc
 50
270.0
 51
0.0
  0
LINE
  5
B2C
330
2
100
AcDbEntity
  8
0
100
AcDbLine
 10
853.0277070744595
 20
408.7245797406698
 30
0.0
 11
806.2777070744598
 21
408.7245797406698
 31
0.0
  0
LINE
  5
B2D
330
2
100
AcDbEntity
  8
0
100
AcDbLine
 10
850.2777070744595
 20
424.7245797406698
 30
0.0
 11
806.2777070744598
 21
424.7245797406698
 31
0.0
  0
LINE
  5
B2E
330
2
100
AcDbEntity
  8
0
100
AcDbLine
 10
801.7777070744596
 20
416.8677377406697
 30
0.0
 11
801.7777070744596
 21
421.3677377406697
 31
0.0
  0
LINE
  5
B2F
330
2
100
AcDbEntity
  8
0
100
AcDbLine
 10
803.2777070744597
 20
416.8677377406697
 30
0.0
 11
803.2777070744597
 21
421.3677377406697
 31
0.0
  0
LINE
  5
B30
330
2
100
AcDbEntity
  8
0
100
AcDbLine
 10
804.7777070744595
 20
416.8677377406697
 30
0.0
 11
804.7777070744595
 21
421.8833627406698
 31
0.0
  0
LINE
  5
B31
330
2
100
AcDbEntity
  8
0
100
AcDbLine
 10
796.7777070744597
 20
409.7245797406698
 30
0.0
 11
796.7777070744597
 21
422.7245797406697
 31
0.0
  0
LINE
  5
B32
330
2
100
AcDbEntity
  8
0
100
AcDbLine
 10
723.0153170744596
 20
425.2245797406698
 30
0.0
 11
723.3207370744596
 21
407.7245797406698
 31
0.0
  0
LINE
  5
B33
330
2
100
AcDbEntity
  8
0
100
AcDbLine
 10
724.7222260744597
 20
422.1038527406697
 30
0.0
 11
724.7222260744597
 21
412.7245797406698
 31
0.0
  0
LINE
  5
B34
330
2
100
AcDbEntity
  8
HIDS
  6
SEKKEI_H
100
AcDbLine
 10
720.9722260744597
 20
412.7245797406698
 30
0.0
 11
720.9722260744597
 21
425.2245797406698
 31
0.0
  0
LINE
  5
B35
330
2
100
AcDbEntity
  8
HIDS
  6
SEKKEI_H
100
AcDbLine
 10
712.4722260744597
 20
412.7245797406698
 30
0.0
 11
712.4722260744597
 21
425.2245797406698
 31
0.0
  0
LINE
  5
B36
330
2
100
AcDbEntity
  8
0
100
AcDbLine
 10
806.2777070744598
 20
407.7245797406698
 30
0.0
 11
805.7778070744596
 21
407.7245797406698
 31
0.0
  0
LINE
  5
B37
330
2
100
AcDbEntity
  8
0
100
AcDbLine
 10
719.1552090744596
 20
384.7245797406698
 30
0.0
 11
718.7194180744596
 21
409.6896677406697
 31
0.0
  0
LINE
  5
B38
330
2
100
AcDbEntity
  8
HIDS
100
AcDbLine
 10
712.7222260744597
 20
376.7245797406697
 30
0.0
 11
720.7222260744597
 21
376.7245797406697
 31
0.0
  0
LINE
  5
B39
330
2
100
AcDbEntity
  8
0
100
AcDbLine
 10
712.8375210744597
 20
378.6101997406697
 30
0.0
 11
713.8143280744595
 21
379.0807197406698
 31
0.0
  0
ARC
  5
B3A
330
2
100
AcDbEntity
  8
0
100
AcDbCircle
 10
716.6349460744596
 20
373.2245797406698
 30
0.0
 40
6.5
100
AcDbArc
 50
90.0
 51
115.717728
  0
LINE
  5
B3B
330
2
100
AcDbEntity
  8
0
100
AcDbLine
 10
712.8375210744597
 20
390.8389597406698
 30
0.0
 11
713.8143280744595
 21
390.3684707406698
 31
0.0
  0
ARC
  5
B3C
330
2
100
AcDbEntity
  8
0
100
AcDbCircle
 10
716.6349460744596
 20
396.2245797406698
 30
0.0
 40
6.5
100
AcDbArc
 50
244.282272
 51
270.0
  0
LINE
  5
B3D
330
2
100
AcDbEntity
  8
HIDS
100
AcDbLine
 10
712.7222260744597
 20
412.7245797406698
 30
0.0
 11
712.7222260744597
 21
392.7245797406698
 31
0.0
  0
LINE
  5
B3E
330
2
100
AcDbEntity
  8
HIDS
100
AcDbLine
 10
720.7222260744597
 20
412.7245797406698
 30
0.0
 11
720.7222260744597
 21
392.7245797406698
 31
0.0
  0
LINE
  5
B3F
330
2
100
AcDbEntity
  8
HIDS
100
AcDbLine
 10
712.7222260744597
 20
392.7245797406698
 30
0.0
 11
720.7222260744597
 21
392.7245797406698
 31
0.0
  0
ARC
  5
B40
330
2
100
AcDbEntity
  8
0
100
AcDbCircle
 10
720.7191130744596
 20
409.7245797406698
 30
0.0
 40
2.0
100
AcDbArc
 50
181.0
 51
270.0
  0
ARC
  5
B4D
330
2
100
AcDbEntity
  8
0
100
AcDbCircle
 10
806.2777070744598
 20
416.8677377406697
 30
0.0
 40
1.5
100
AcDbArc
 50
180.0
 51
270.0
  0
ARC
  5
B4E
330
2
100
AcDbEntity
  8
0
100
AcDbCircle
 10
806.2777070744598
 20
416.8677377406697
 30
0.0
 40
3.0
100
AcDbArc
 50
180.0
 51
270.0
  0
ARC
  5
B4F
330
2
100
AcDbEntity
  8
0
100
AcDbCircle
 10
806.2777070744598
 20
416.8677377406697
 30
0.0
 40
4.5
100
AcDbArc
 50
180.0
 51
270.0
  0
LINE
  5
B50
330
2
100
AcDbEntity
  8
0
100
AcDbLine
 10
726.1705290744596
 20
422.7245797406697
 30
0.0
 11
796.7777070744597
 21
422.7245797406697
 31
0.0
  0
ARC
  5
B51
330
2
100
AcDbEntity
  8
0
100
AcDbCircle
 10
726.1705290744596
 20
420.7245797406698
 30
0.0
 40
2.0
100
AcDbArc
 50
90.0
 51
136.3987579999996
  0
LINE
  5
B52
330
2
100
AcDbEntity
  8
0
100
AcDbLine
 10
806.2777070744598
 20
422.7245797406697
 30
0.0
 11
796.7777070744597
 21
422.7245797406697
 31
0.0
  0
LINE
  5
B53
330
2
100
AcDbEntity
  8
HOJO
100
AcDbLine
 10
803.2777070744597
 20
420.8677377406697
 30
0.0
 11
801.7777070744596
 21
421.3677377406697
 31
0.0
  0
LINE
  5
B54
330
2
100
AcDbEntity
  8
HOJO
100
AcDbLine
 10
804.7777070744595
 20
421.8677377406697
 30
0.0
 11
803.2777070744597
 21
421.3677377406697
 31
0.0
  0
ARC
  5
B55
330
2
100
AcDbEntity
  8
0
100
AcDbCircle
 10
850.2777070744595
 20
419.7246107406697
 30
0.0
 40
5.0
100
AcDbArc
 50
0.0
 51
90.0
  0
LINE
  5
1074
330
2
100
AcDbEntity
  8
HIDS
100
AcDbLine
 10
459.0201439161595
 20
198.6803181390591
 30
0.0
 11
459.0201439161595
 21
190.6803181390591
 31
0.0
  0
LINE
  5
1076
330
2
100
AcDbEntity
  8
HIDS
100
AcDbLine
 10
443.0201439161595
 20
198.6803181390591
 30
0.0
 11
443.0201439161595
 21
190.6803181390591
 31
0.0
  0
LINE
  5
1077
330
2
100
AcDbEntity
  8
0
100
AcDbLine
 10
410.5201439161595
 20
200.9733941390591
 30
0.0
 11
410.5201439161595
 21
121.3872501390591
 31
0.0
  0
LINE
  5
1078
330
2
100
AcDbEntity
  8
0
100
AcDbLine
 10
423.0201439161595
 20
121.1690571390592
 30
0.0
 11
423.0201439161595
 21
201.1915805588122
 31
0.0
  0
LINE
  5
1079
330
2
100
AcDbEntity
  8
0
100
AcDbLine
 10
491.5201439161594
 20
200.9733941390591
 30
0.0
 11
491.5201439161594
 21
121.3872501390591
 31
0.0
  0
LINE
  5
107A
330
2
100
AcDbEntity
  8
CENTER
100
AcDbLine
 10
451.0201439161595
 20
251.0678331390591
 30
0.0
 11
451.0201439161595
 21
113.6321921390591
 31
0.0
  0
TEXT
  5
108F
330
2
100
AcDbEntity
  8
TITLE
100
AcDbText
 10
213.7613313417571
 20
75.30799974698408
 30
0.0
 40
7.0
  1
F2SB-12-10～240-S15WK
 41
0.8
100
AcDbText
  0
TEXT
  5
1090
330
2
100
AcDbEntity
  8
TITLE
100
AcDbText
 10
213.7613313417571
 20
87.30799974698408
 30
0.0
 40
7.0
  1
F2SB-12-10～240-S15K
 41
0.8
100
AcDbText
  0
TEXT
  5
1091
330
2
100
AcDbEntity
  8
TITLE
100
AcDbText
 10
90.00260132853975
 20
15.34275674052429
 30
0.0
 40
7.0
  1
F2SB-12-10～60-T60K
 41
0.8
100
AcDbText
  0
TEXT
  5
1092
330
2
100
AcDbEntity
  8
TITLE
100
AcDbText
 10
90.00260132853975
 20
27.34275674052428
 30
0.0
 40
7.0
  1
F2SB-12-10～120-T40WK
 41
0.8
100
AcDbText
  0
TEXT
  5
1093
330
2
100
AcDbEntity
  8
TITLE
100
AcDbText
 10
90.00260132853975
 20
39.34275674052429
 30
0.0
 40
7.0
  1
F2SB-12-10～120-T40K
 41
0.8
100
AcDbText
  0
TEXT
  5
1094
330
2
100
AcDbEntity
  8
TITLE
100
AcDbText
 10
90.00260132853975
 20
51.34275674052429
 30
0.0
 40
7.0
  1
F2SB-12-10～240-T25WK
 41
0.8
100
AcDbText
  0
TEXT
  5
1095
330
2
100
AcDbEntity
  8
TITLE
100
AcDbText
 10
90.00260132853975
 20
63.34275674052429
 30
0.0
 40
7.0
  1
F2SB-12-10～240-T25K
 41
0.8
100
AcDbText
  0
TEXT
  5
1096
330
2
100
AcDbEntity
  8
TITLE
100
AcDbText
 10
90.00260132853975
 20
75.3427567405243
 30
0.0
 40
7.0
  1
F2SB-12-10～240-T15WK
 41
0.8
100
AcDbText
  0
TEXT
  5
10A1
330
2
100
AcDbEntity
  8
TITLE
100
AcDbText
 10
90.00260132853975
 20
87.3427567405243
 30
0.0
 40
7.0
  1
F2SB-12-10~240-T15K
 41
0.8
100
AcDbText
  0
ARC
  5
10E7
330
2
100
AcDbEntity
  8
PHAS
  6
SEKKEI_P_S
100
AcDbCircle
 10
403.0201439161595
 20
148.2042131390592
 30
0.0
 40
3.0
100
AcDbArc
 50
180.0
 51
254.9999999999988
  0
ARC
  5
10E8
330
2
100
AcDbEntity
  8
PHAS
  6
SEKKEI_P_S
100
AcDbCircle
 10
403.0201439161595
 20
174.1564231390591
 30
0.0
 40
3.0
100
AcDbArc
 50
105.0000000000011
 51
180.0
  0
LINE
  5
10EB
330
2
100
AcDbEntity
  8
CENTER
100
AcDbLine
 10
394.2815269161595
 20
161.1803181390591
 30
0.0
 11
507.7587609161595
 21
161.1803181390591
 31
0.0
  0
LINE
  5
1152
330
2
100
AcDbEntity
  8
PHAS
  6
SEKKEI_P_S
100
AcDbLine
 10
400.0201439161594
 20
174.1564231390591
 30
0.0
 11
400.0201439161594
 21
148.2672931390591
 31
0.0
  0
LINE
  5
1162
330
2
100
AcDbEntity
  8
HIDS
100
AcDbLine
 10
459.0201439161595
 20
190.6803181390591
 30
0.0
 11
491.5201439161594
 21
190.6803181390591
 31
0.0
  0
LINE
  5
1163
330
2
100
AcDbEntity
  8
0
100
AcDbLine
 10
457.9851399161595
 20
176.0949301390591
 30
0.0
 11
491.5201439161594
 21
176.6803181390591
 31
0.0
  0
LINE
  5
1164
330
2
100
AcDbEntity
  8
0
100
AcDbLine
 10
460.3181479161595
 20
172.1357321390591
 30
0.0
 11
491.5201439161594
 21
172.6803181390591
 31
0.0
  0
LINE
  5
1165
330
2
100
AcDbEntity
  8
HIDS
100
AcDbLine
 10
423.0201439161595
 20
191.2803241390592
 30
0.0
 11
491.5201439161594
 21
191.2803241390592
 31
0.0
  0
LINE
  5
1166
330
2
100
AcDbEntity
  8
0
100
AcDbLine
 10
423.0201439161595
 20
131.0803201390592
 30
0.0
 11
491.5201439161594
 21
131.0803201390592
 31
0.0
  0
LINE
  5
1167
330
2
100
AcDbEntity
  8
0
100
AcDbLine
 10
423.0201439161595
 20
124.2803161390591
 30
0.0
 11
491.5201439161594
 21
124.2803161390591
 31
0.0
  0
LINE
  5
1168
330
2
100
AcDbEntity
  8
CENTER
100
AcDbLine
 10
408.0151699161596
 20
127.6803181390592
 30
0.0
 11
495.0639059161595
 21
127.6803181390592
 31
0.0
  0
LINE
  5
1169
330
2
100
AcDbEntity
  8
HOJO
100
AcDbLine
 10
459.0201439161595
 20
123.6803181390591
 30
0.0
 11
491.5201439161594
 21
123.6803181390591
 31
0.0
  0
LINE
  5
116A
330
2
100
AcDbEntity
  8
HOJO
100
AcDbLine
 10
459.0201439161595
 20
131.6803181390592
 30
0.0
 11
491.5201439161594
 21
131.6803181390592
 31
0.0
  0
LINE
  5
116B
330
2
100
AcDbEntity
  8
0
100
AcDbLine
 10
451.0201439161595
 20
120.6803181390591
 30
0.0
 11
491.5201439161594
 21
121.3872501390591
 31
0.0
  0
LINE
  5
116C
330
2
100
AcDbEntity
  8
0
100
AcDbLine
 10
460.3181479161595
 20
150.2249041390592
 30
0.0
 11
491.5201439161594
 21
149.6803181390591
 31
0.0
  0
LINE
  5
116D
330
2
100
AcDbEntity
  8
0
100
AcDbLine
 10
457.9851399161595
 20
146.2657061390591
 30
0.0
 11
491.5201439161594
 21
145.6803181390591
 31
0.0
  0
LWPOLYLINE
  5
116E
330
2
100
AcDbEntity
  8
HOJO
100
AcDbPolyline
 90
       21
 70
     0
 43
0.0
 10
410.5201439161595
 20
135.7983309411062
 10
414.0513939161595
 20
135.5593779411063
 10
417.7701439161594
 20
136.0281279411063
 10
421.5513939161595
 20
135.6218779411063
 10
425.0513939161595
 20
136.1218779411063
 10
429.0826439161596
 20
135.5906279411063
 10
432.6138939161594
 20
136.1531279411063
 10
437.1451439161595
 20
135.6531279411063
 10
441.8326439161595
 20
136.2781279411062
 10
446.5201439161595
 20
135.6843779411063
 10
450.3326439161595
 20
136.3093779411063
 10
455.6451439161596
 20
135.8093779411063
 10
459.5513939161596
 20
136.4656279411063
 10
464.1763939161594
 20
135.6218779411063
 10
468.5826439161594
 20
136.4656279411063
 10
472.6451439161595
 20
135.5906279411063
 10
476.0201439161595
 20
136.4343779411063
 10
480.3013939161594
 20
135.6843779411063
 10
483.9263939161595
 20
136.4031279411063
 10
487.8013939161594
 20
135.6843779411063
 10
491.5201439161594
 20
136.2266979411062
  0
LINE
  5
1170
330
2
100
AcDbEntity
  8
0
100
AcDbLine
 10
458.7819539161595
 20
150.9871111390591
 30
0.0
 11
456.4489459161595
 21
147.0279131390592
 31
0.0
  0
LINE
  5
1171
330
2
100
AcDbEntity
  8
0
100
AcDbLine
 10
441.7221399161594
 20
150.006703139059
 30
0.0
 11
423.0201439161595
 21
149.6803181390591
 31
0.0
  0
LINE
  5
1172
330
2
100
AcDbEntity
  8
0
100
AcDbLine
 10
445.5913419161594
 20
146.809713139059
 30
0.0
 11
443.2583339161594
 21
150.7689111390591
 31
0.0
  0
ARC
  5
1173
330
2
100
AcDbEntity
  8
0
100
AcDbCircle
 10
441.6871359161595
 20
152.006520139059
 30
0.0
 40
2.0
100
AcDbArc
 50
271.0000000000017
 51
0.0
  0
LINE
  5
1175
330
2
100
AcDbEntity
  8
0
100
AcDbLine
 10
446.0201439161594
 20
148.047109139059
 30
0.0
 11
446.0201439161594
 21
174.3135271390589
 31
0.0
  0
LINE
  5
1176
330
2
100
AcDbEntity
  8
0
100
AcDbLine
 10
456.0201439161595
 20
174.0953271390591
 30
0.0
 11
456.0201439161595
 21
148.2653091390591
 31
0.0
  0
LINE
  5
1177
330
2
100
AcDbEntity
  8
0
100
AcDbLine
 10
444.0551479161595
 20
146.0475061390591
 30
0.0
 11
423.0201439161595
 21
145.6803181390591
 31
0.0
  0
LINE
  5
1179
330
2
100
AcDbEntity
  8
0
100
AcDbLine
 10
451.0201439161595
 20
120.6803181390591
 30
0.0
 11
410.5201439161595
 21
121.3872501390591
 31
0.0
  0
LINE
  5
117B
330
2
100
AcDbEntity
  8
HOJO
100
AcDbLine
 10
443.0201439161595
 20
131.6803181390592
 30
0.0
 11
443.0201439161595
 21
123.6803181390591
 31
0.0
  0
LINE
  5
117C
330
2
100
AcDbEntity
  8
HOJO
100
AcDbLine
 10
423.0201439161595
 20
123.6803181390591
 30
0.0
 11
443.0201439161595
 21
123.6803181390591
 31
0.0
  0
LINE
  5
117D
330
2
100
AcDbEntity
  8
0
100
AcDbLine
 10
410.5201439161595
 20
123.4303181390592
 30
0.0
 11
423.0201439161595
 21
123.4303181390592
 31
0.0
  0
LINE
  5
117F
330
2
100
AcDbEntity
  8
HOJO
100
AcDbLine
 10
423.0201439161595
 20
131.6803181390592
 30
0.0
 11
443.0201439161595
 21
131.6803181390592
 31
0.0
  0
LINE
  5
1180
330
2
100
AcDbEntity
  8
0
100
AcDbLine
 10
412.0201439161594
 20
135.6968287818142
 30
0.0
 11
412.0201439161594
 21
141.1803181390591
 31
0.0
  0
LINE
  5
1181
330
2
100
AcDbEntity
  8
0
100
AcDbLine
 10
417.0201439161594
 20
135.9335901259802
 30
0.0
 11
417.0201439161594
 21
142.1803181390591
 31
0.0
  0
LINE
  5
1182
330
2
100
AcDbEntity
  8
0
100
AcDbLine
 10
416.0201439161594
 20
135.807539705812
 30
0.0
 11
416.0201439161594
 21
141.4803061390592
 31
0.0
  0
LINE
  5
1183
330
2
100
AcDbEntity
  8
CENTER
100
AcDbLine
 10
410.0805379161593
 20
137.6803181390592
 30
0.0
 11
418.0651569161595
 21
137.6803181390592
 31
0.0
  0
LINE
  5
1184
330
2
100
AcDbEntity
  8
0
100
AcDbLine
 10
410.5201439161595
 20
131.9303181390592
 30
0.0
 11
423.0201439161595
 21
131.9303181390592
 31
0.0
  0
LINE
  5
1185
330
2
100
AcDbEntity
  8
0
100
AcDbLine
 10
423.0201439161595
 20
149.6803181390591
 30
0.0
 11
410.5201439161595
 21
149.6803181390591
 31
0.0
  0
LINE
  5
1186
330
2
100
AcDbEntity
  8
0
100
AcDbLine
 10
423.0201439161595
 20
145.6803181390591
 30
0.0
 11
410.5201439161595
 21
145.6803181390591
 31
0.0
  0
LINE
  5
1187
330
2
100
AcDbEntity
  8
0
100
AcDbLine
 10
410.5201439161595
 20
142.3505151390591
 30
0.0
 11
417.0201439161594
 21
142.1803181390591
 31
0.0
  0
LINE
  5
1188
330
2
100
AcDbEntity
  8
0
100
AcDbLine
 10
412.0201439161594
 20
141.1803181390591
 30
0.0
 11
416.0201439161594
 21
141.1803181390591
 31
0.0
  0
LINE
  5
1189
330
2
100
AcDbEntity
  8
PHAS
  6
SEKKEI_P_S
100
AcDbLine
 10
402.2436849161596
 20
145.3064321390591
 30
0.0
 11
410.5201439161595
 21
143.0887616303136
 31
0.0
  0
LINE
  5
118A
330
2
100
AcDbEntity
  8
0
100
AcDbLine
 10
416.0201439161594
 20
141.4803061390592
 30
0.0
 11
417.0201439161594
 21
141.4803061390592
 31
0.0
  0
LINE
  5
118C
330
2
100
AcDbEntity
  8
HOJO
100
AcDbLine
 10
459.0201439161595
 20
131.6803181390592
 30
0.0
 11
459.0201439161595
 21
123.6803181390591
 31
0.0
  0
ARC
  5
1190
330
2
100
AcDbEntity
  8
0
100
AcDbCircle
 10
444.0201439161596
 20
148.047109139059
 30
0.0
 40
2.0
100
AcDbArc
 50
271.0000000000017
 51
0.0
  0
ARC
  5
1191
330
2
100
AcDbEntity
  8
0
100
AcDbCircle
 10
458.0201439161594
 20
148.2653091390591
 30
0.0
 40
2.0
100
AcDbArc
 50
180.0
 51
268.9999999999981
  0
LINE
  5
1193
330
2
100
AcDbEntity
  8
0
100
AcDbLine
 10
444.0551479161595
 20
176.313130139059
 30
0.0
 11
423.0201439161595
 21
176.6803181390591
 31
0.0
  0
LINE
  5
1194
330
2
100
AcDbEntity
  8
0
100
AcDbLine
 10
443.2583339161594
 20
171.591725139059
 30
0.0
 11
445.5913419161594
 21
175.550923139059
 31
0.0
  0
ARC
  5
1195
330
2
100
AcDbEntity
  8
0
100
AcDbCircle
 10
441.6871359161595
 20
170.354116139059
 30
0.0
 40
2.0
100
AcDbArc
 50
0.0
 51
88.99999999999822
  0
LINE
  5
1196
330
2
100
AcDbEntity
  8
0
100
AcDbLine
 10
443.6871359161593
 20
170.354116139059
 30
0.0
 11
443.6871359161593
 21
152.006520139059
 31
0.0
  0
LINE
  5
1197
330
2
100
AcDbEntity
  8
HIDS
100
AcDbLine
 10
423.0201439161595
 20
190.6803181390591
 30
0.0
 11
443.0201439161595
 21
190.6803181390591
 31
0.0
  0
LINE
  5
1198
330
2
100
AcDbEntity
  8
0
100
AcDbLine
 10
441.7221399161594
 20
172.3539331390591
 30
0.0
 11
423.0201439161595
 21
172.6803181390591
 31
0.0
  0
LINE
  5
1199
330
2
100
AcDbEntity
  8
0
100
AcDbLine
 10
416.0201439161594
 20
188.4803061390591
 30
0.0
 11
416.0201439161594
 21
180.8803301390591
 31
0.0
  0
LINE
  5
119A
330
2
100
AcDbEntity
  8
0
100
AcDbLine
 10
417.0201439161594
 20
189.1803181390591
 30
0.0
 11
417.0201439161594
 21
180.1803181390591
 31
0.0
  0
LINE
  5
119B
330
2
100
AcDbEntity
  8
0
100
AcDbLine
 10
412.0201439161594
 20
188.1803181390591
 30
0.0
 11
412.0201439161594
 21
181.1803181390591
 31
0.0
  0
LINE
  5
119C
330
2
100
AcDbEntity
  8
0
100
AcDbLine
 10
412.0201439161594
 20
181.1803181390591
 30
0.0
 11
416.0201439161594
 21
181.1803181390591
 31
0.0
  0
LINE
  5
119D
330
2
100
AcDbEntity
  8
0
100
AcDbLine
 10
423.0201439161595
 20
176.6803181390591
 30
0.0
 11
410.5201439161595
 21
176.6803181390591
 31
0.0
  0
LINE
  5
119E
330
2
100
AcDbEntity
  8
0
100
AcDbLine
 10
423.0201439161595
 20
172.6803181390591
 30
0.0
 11
410.5201439161595
 21
172.6803181390591
 31
0.0
  0
LINE
  5
119F
330
2
100
AcDbEntity
  8
0
100
AcDbLine
 10
410.5201439161595
 20
180.0101211390589
 30
0.0
 11
417.0201439161594
 21
180.1803181390591
 31
0.0
  0
LINE
  5
11A0
330
2
100
AcDbEntity
  8
PHAS
  6
SEKKEI_P_S
100
AcDbLine
 10
402.2436849161596
 20
177.0542041390591
 30
0.0
 11
410.5201439161595
 21
179.2718746478048
 31
0.0
  0
LINE
  5
11A1
330
2
100
AcDbEntity
  8
HIDS
  6
SEKKEI_H
100
AcDbLine
 10
410.5201439161595
 20
190.4303181390591
 30
0.0
 11
423.0201439161595
 21
190.4303181390591
 31
0.0
  0
LINE
  5
11A2
330
2
100
AcDbEntity
  8
CENTER
100
AcDbLine
 10
410.0805379161593
 20
184.6803181390591
 30
0.0
 11
418.0651569161595
 21
184.6803181390591
 31
0.0
  0
LINE
  5
11A3
330
2
100
AcDbEntity
  8
0
100
AcDbLine
 10
410.5201439161595
 20
189.350515139059
 30
0.0
 11
417.0201439161594
 21
189.1803181390591
 31
0.0
  0
LINE
  5
11A4
330
2
100
AcDbEntity
  8
0
100
AcDbLine
 10
412.0201439161594
 20
188.1803181390591
 30
0.0
 11
416.0201439161594
 21
188.1803181390591
 31
0.0
  0
LINE
  5
11A5
330
2
100
AcDbEntity
  8
0
100
AcDbLine
 10
416.0201439161594
 20
188.4803061390591
 30
0.0
 11
417.0201439161594
 21
188.4803061390591
 31
0.0
  0
ARC
  5
11A7
330
2
100
AcDbEntity
  8
0
100
AcDbCircle
 10
460.3531519161596
 20
170.135915139059
 30
0.0
 40
2.0
100
AcDbArc
 50
91.00000000000177
 51
180.0
  0
LINE
  5
11A8
330
2
100
AcDbEntity
  8
0
100
AcDbLine
 10
458.7819539161595
 20
171.373525139059
 30
0.0
 11
456.4489459161595
 21
175.3327231390591
 31
0.0
  0
LINE
  5
11A9
330
2
100
AcDbEntity
  8
0
100
AcDbLine
 10
458.3531519161596
 20
170.135915139059
 30
0.0
 11
458.3531519161596
 21
152.224721139059
 31
0.0
  0
ARC
  5
11AA
330
2
100
AcDbEntity
  8
0
100
AcDbCircle
 10
460.3531519161596
 20
152.224721139059
 30
0.0
 40
2.0
100
AcDbArc
 50
180.0
 51
268.9999999999981
  0
ARC
  5
11AB
330
2
100
AcDbEntity
  8
0
100
AcDbCircle
 10
444.0201439161596
 20
174.3135271390589
 30
0.0
 40
2.0
100
AcDbArc
 50
0.0
 51
88.99999999999822
  0
ARC
  5
11AC
330
2
100
AcDbEntity
  8
0
100
AcDbCircle
 10
458.0201439161594
 20
174.0953271390591
 30
0.0
 40
2.0
100
AcDbArc
 50
91.00000000000177
 51
180.0
  0
LINE
  5
11AE
330
2
100
AcDbEntity
  8
PHAS
  6
SEKKEI_P_S
100
AcDbLine
 10
502.0201439161595
 20
174.1564231390591
 30
0.0
 11
502.0201439161595
 21
148.2672931390591
 31
0.0
  0
LINE
  5
11AF
330
2
100
AcDbEntity
  8
PHAS
  6
SEKKEI_P_S
100
AcDbLine
 10
499.7966029161593
 20
145.3064321390591
 30
0.0
 11
491.5201439161594
 21
143.0887616303136
 31
0.0
  0
ARC
  5
11B0
330
2
100
AcDbEntity
  8
PHAS
  6
SEKKEI_P_S
100
AcDbCircle
 10
499.0201439161594
 20
148.2042131390592
 30
0.0
 40
3.0
100
AcDbArc
 50
285.000000000001
 51
0.0
  0
LINE
  5
11B1
330
2
100
AcDbEntity
  8
PHAS
  6
SEKKEI_P_S
100
AcDbLine
 10
499.7966029161593
 20
177.0542041390591
 30
0.0
 11
491.5201439161594
 21
179.2718746478048
 31
0.0
  0
ARC
  5
11B2
330
2
100
AcDbEntity
  8
PHAS
  6
SEKKEI_P_S
100
AcDbCircle
 10
499.0201439161594
 20
174.1564231390591
 30
0.0
 40
3.0
100
AcDbArc
 50
0.0
 51
74.99999999999882
  0
LINE
  5
11B3
330
2
100
AcDbEntity
  8
0
100
AcDbLine
 10
196.4161472391728
 20
320.6070050857634
 30
0.0
 11
236.9161472391728
 21
321.3139370857634
 31
0.0
  0
LINE
  5
11B4
330
2
100
AcDbEntity
  8
0
100
AcDbLine
 10
196.4161472391728
 20
401.6070050857634
 30
0.0
 11
236.9161472391728
 21
400.9000810857634
 31
0.0
  0
LINE
  5
11B5
330
2
100
AcDbEntity
  8
CENTER
100
AcDbLine
 10
139.6775302391727
 20
361.1070050857634
 30
0.0
 11
253.1547642391728
 21
361.1070050857634
 31
0.0
  0
LINE
  5
11B6
330
2
100
AcDbEntity
  8
PHAS
  6
SEKKEI_P_S
100
AcDbLine
 10
245.1926062391726
 20
345.2331190857634
 30
0.0
 11
231.8161412391729
 21
341.6489060857634
 31
0.0
  0
LINE
  5
11B7
330
2
100
AcDbEntity
  8
PHAS
  6
SEKKEI_P_S
100
AcDbLine
 10
245.1926062391726
 20
376.9808910857634
 30
0.0
 11
231.8161412391729
 21
380.5651040857635
 31
0.0
  0
LWPOLYLINE
  5
11BD
330
2
100
AcDbEntity
  8
HOJO
100
AcDbPolyline
 90
       21
 70
     0
 43
0.0
 10
155.9161472391726
 20
387.1670480857634
 10
159.3902682391726
 20
387.0313370857634
 10
162.9840492391728
 20
387.9988960857634
 10
166.2899872391727
 20
386.6965590857634
 10
166.4495332391728
 20
382.8678080857635
 10
169.5603732391728
 20
378.6402230857634
 10
173.2295932391726
 20
377.1246900857634
 10
175.6225682391729
 20
372.4185130857634
 10
180.2489722391726
 20
370.8231920857635
 10
187.0290622391726
 20
371.4613290857634
 10
193.3305452391729
 20
370.8231920857635
 10
201.3071082391728
 20
371.8601480857634
 10
207.6883642391726
 20
370.4243730857634
 10
213.4314972391726
 20
372.1792100857634
 10
217.8185822391726
 20
371.3017990857634
 10
218.7757662391728
 20
376.8056130857634
 10
225.5558562391728
 20
380.2355450857634
 10
225.7153722391726
 20
385.1810100857635
 10
229.5509742391729
 20
388.5135600857634
 10
233.1989532391726
 20
388.1566880857634
 10
236.9161472391728
 20
388.5284070857634
  0
LWPOLYLINE
  5
11BE
330
2
100
AcDbEntity
  8
HOJO
100
AcDbPolyline
 90
       21
 70
     0
 43
0.0
 10
155.9161472391726
 20
335.0469620857635
 10
159.3902682391726
 20
335.1826660857635
 10
162.9840492391728
 20
334.2151140857635
 10
166.2899872391727
 20
335.5174510857635
 10
166.4495332391728
 20
339.3462020857635
 10
169.5603732391728
 20
343.5737870857635
 10
173.2295932391726
 20
345.0893200857634
 10
175.6225682391729
 20
349.7954970857634
 10
180.2489722391726
 20
351.3908180857634
 10
187.0290622391726
 20
350.7526810857636
 10
193.3305452391729
 20
351.3908180857634
 10
201.3071082391728
 20
350.3538620857634
 10
207.6883642391726
 20
351.7896370857634
 10
213.4314972391726
 20
350.0348000857635
 10
217.8185822391726
 20
350.9122110857635
 10
218.7757662391728
 20
345.4083970857634
 10
225.5558562391728
 20
341.9784650857635
 10
225.7153722391726
 20
337.0330000857634
 10
229.5509742391729
 20
333.7004500857635
 10
233.1989532391726
 20
334.0573150857634
 10
236.9161472391728
 20
333.6855950857635
  0
LINE
  5
11C2
330
2
100
AcDbEntity
  8
0
100
AcDbLine
 10
168.4161472391726
 20
401.1182660857635
 30
0.0
 11
168.4161472391726
 21
380.1952310857634
 31
0.0
  0
LINE
  5
11C3
330
2
100
AcDbEntity
  8
0
100
AcDbLine
 10
155.9161472391726
 20
400.9000810857634
 30
0.0
 11
155.9161472391726
 21
321.3139370857634
 31
0.0
  0
LINE
  5
11C4
330
2
100
AcDbEntity
  8
CENTER
100
AcDbLine
 10
196.4161472391728
 20
408.6551310857633
 30
0.0
 11
196.4161472391728
 21
313.5588790857635
 31
0.0
  0
LINE
  5
11E0
330
2
100
AcDbEntity
  8
PHAS
  6
SEKKEI_P_S
100
AcDbLine
 10
147.6396882391728
 20
376.9808910857634
 30
0.0
 11
161.0161532391725
 21
380.5651040857635
 31
0.0
  0
LINE
  5
11E1
330
2
100
AcDbEntity
  8
PHAS
  6
SEKKEI_P_S
100
AcDbLine
 10
147.6396882391728
 20
345.2331190857634
 30
0.0
 11
161.0161532391725
 21
341.6489060857634
 31
0.0
  0
LINE
  5
11E2
330
2
100
AcDbEntity
  8
PHAS
  6
SEKKEI_P_S
100
AcDbLine
 10
145.4161472391726
 20
374.0831100857634
 30
0.0
 11
145.4161472391726
 21
348.1939800857634
 31
0.0
  0
ARC
  5
11E3
330
2
100
AcDbEntity
  8
PHAS
  6
SEKKEI_P_S
100
AcDbCircle
 10
148.4161472391726
 20
348.1309000857634
 30
0.0
 40
3.0
100
AcDbArc
 50
180.0
 51
254.9999999999988
  0
ARC
  5
11E4
330
2
100
AcDbEntity
  8
PHAS
  6
SEKKEI_P_S
100
AcDbCircle
 10
148.4161472391726
 20
374.0831100857634
 30
0.0
 40
3.0
100
AcDbArc
 50
105.0000000000011
 51
180.0
  0
LINE
  5
11E5
330
2
100
AcDbEntity
  8
0
100
AcDbLine
 10
231.4160552391728
 20
371.1070050857634
 30
0.0
 11
231.4160552391728
 21
351.1070050857635
 31
0.0
  0
LINE
  5
11E6
330
2
100
AcDbEntity
  8
0
100
AcDbLine
 10
161.4162392391728
 20
371.1070050857634
 30
0.0
 11
161.4162392391728
 21
351.1070050857635
 31
0.0
  0
LINE
  5
11E7
330
2
100
AcDbEntity
  8
0
100
AcDbLine
 10
161.0161532391725
 20
381.9570110857635
 30
0.0
 11
161.0161532391725
 21
340.2569990857635
 31
0.0
  0
LINE
  5
11E8
330
2
100
AcDbEntity
  8
0
100
AcDbLine
 10
158.4161472391728
 20
339.5074260857634
 30
0.0
 11
158.4161472391728
 21
382.7065840857635
 31
0.0
  0
LINE
  5
11E9
330
2
100
AcDbEntity
  8
0
100
AcDbLine
 10
231.8161412391729
 20
381.9570110857635
 30
0.0
 11
231.8161412391729
 21
340.2569990857635
 31
0.0
  0
LINE
  5
11EA
330
2
100
AcDbEntity
  8
0
100
AcDbLine
 10
234.4161472391728
 20
339.5074260857634
 30
0.0
 11
234.4161472391728
 21
382.7065840857635
 31
0.0
  0
LINE
  5
11EB
330
2
100
AcDbEntity
  8
0
100
AcDbLine
 10
196.4161472391728
 20
320.6070050857634
 30
0.0
 11
155.9161472391726
 21
321.3139370857634
 31
0.0
  0
LINE
  5
11EC
330
2
100
AcDbEntity
  8
0
100
AcDbLine
 10
168.4161472391726
 20
321.0957440857634
 30
0.0
 11
168.4161472391726
 21
342.0187940857634
 31
0.0
  0
LINE
  5
11ED
330
2
100
AcDbEntity
  8
0
100
AcDbLine
 10
171.4161472391728
 20
348.6070050857634
 30
0.0
 11
175.0182592391728
 21
348.6070050857634
 31
0.0
  0
LINE
  5
11EE
330
2
100
AcDbEntity
  8
0
100
AcDbLine
 10
163.4161472391728
 20
340.2569990857635
 30
0.0
 11
163.4161472391728
 21
351.1070050857635
 31
0.0
  0
LINE
  5
11EF
330
2
100
AcDbEntity
  8
PHAS
100
AcDbLine
 10
162.2161652391729
 20
341.6070050857634
 30
0.0
 11
163.4161472391728
 21
341.6489060857634
 31
0.0
  0
ARC
  5
11F0
330
2
100
AcDbEntity
  8
PHAS
100
AcDbCircle
 10
162.2161652391729
 20
341.8270060857635
 30
0.0
 40
1.219999999999998
100
AcDbArc
 50
188.3022610000004
 51
349.6111449999996
  0
LINE
  5
11F1
330
2
100
AcDbEntity
  8
0
100
AcDbLine
 10
162.6001992391728
 20
336.5841400857636
 30
0.0
 11
159.7320952391726
 21
337.6280320857635
 31
0.0
  0
LINE
  5
11F2
330
2
100
AcDbEntity
  8
0
100
AcDbLine
 10
161.0161532391725
 20
340.2569990857635
 30
0.0
 11
163.4161472391728
 21
340.2569990857635
 31
0.0
  0
LINE
  5
11F3
330
2
100
AcDbEntity
  8
0
100
AcDbLine
 10
158.4161472391728
 20
341.6070050857634
 30
0.0
 11
161.0161532391725
 21
341.6070050857634
 31
0.0
  0
LINE
  5
11F4
330
2
100
AcDbEntity
  8
PHAS
100
AcDbLine
 10
162.2161652391729
 20
341.6070050857634
 30
0.0
 11
161.0161532391725
 21
341.6489060857634
 31
0.0
  0
LINE
  5
11F5
330
2
100
AcDbEntity
  8
0
100
AcDbLine
 10
155.9161472391726
 20
332.9367930857634
 30
0.0
 11
162.4161472391728
 21
333.1070050857634
 31
0.0
  0
ARC
  5
11F6
330
2
100
AcDbEntity
  8
0
100
AcDbCircle
 10
160.4161472391728
 20
339.5074260857634
 30
0.0
 40
2.0
100
AcDbArc
 50
180.0
 51
250.0000000000029
  0
LINE
  5
11F7
330
2
100
AcDbEntity
  8
0
100
AcDbLine
 10
161.4161162391726
 20
333.8070170857635
 30
0.0
 11
162.4161472391728
 21
333.8070170857635
 31
0.0
  0
LINE
  5
11F8
330
2
100
AcDbEntity
  8
0
100
AcDbLine
 10
161.4161162391726
 20
333.8070170857635
 30
0.0
 11
161.4161162391726
 21
334.6372480857635
 31
0.0
  0
LINE
  5
11F9
330
2
100
AcDbEntity
  8
0
100
AcDbLine
 10
157.4161162391726
 20
334.1069900857635
 30
0.0
 11
157.4161162391726
 21
335.1055550857635
 31
0.0
  0
LINE
  5
11FA
330
2
100
AcDbEntity
  8
0
100
AcDbLine
 10
157.4161162391726
 20
334.1069900857635
 30
0.0
 11
161.4161162391726
 21
334.1069740857635
 31
0.0
  0
LINE
  5
11FB
330
2
100
AcDbEntity
  8
0
100
AcDbLine
 10
162.4161472391728
 20
333.1070050857634
 30
0.0
 11
162.4161472391728
 21
334.3680140857634
 31
0.0
  0
LINE
  5
11FC
330
2
100
AcDbEntity
  8
0
100
AcDbLine
 10
163.9161472391728
 20
334.5823010857635
 30
0.0
 11
163.9161472391728
 21
334.7047530857635
 31
0.0
  0
ARC
  5
11FD
330
2
100
AcDbEntity
  8
0
100
AcDbCircle
 10
161.9161472391728
 20
334.7047530857635
 30
0.0
 40
2.0
100
AcDbArc
 50
0.0
 51
69.99999200000162
  0
LINE
  5
11FE
330
2
100
AcDbEntity
  8
0
100
AcDbLine
 10
161.4162392391728
 20
351.1070050857635
 30
0.0
 11
171.4161472391728
 21
351.1070050857635
 31
0.0
  0
LINE
  5
11FF
330
2
100
AcDbEntity
  8
0
100
AcDbLine
 10
164.4161472391726
 20
345.1070050857635
 30
0.0
 11
171.4161472391728
 21
345.1070050857635
 31
0.0
  0
LINE
  5
1200
330
2
100
AcDbEntity
  8
0
100
AcDbLine
 10
164.4161472391726
 20
345.1070050857635
 30
0.0
 11
170.4161472391726
 21
351.1070050857635
 31
0.0
  0
LINE
  5
1201
330
2
100
AcDbEntity
  8
0
100
AcDbLine
 10
170.4161472391726
 20
345.1070050857635
 30
0.0
 11
164.4161472391726
 21
351.1070050857635
 31
0.0
  0
LINE
  5
1202
330
2
100
AcDbEntity
  8
0
100
AcDbLine
 10
164.4161472391726
 20
345.1070050857635
 30
0.0
 11
164.4161472391726
 21
351.1070050857635
 31
0.0
  0
LINE
  5
1203
330
2
100
AcDbEntity
  8
0
100
AcDbLine
 10
164.4161472391726
 20
345.1070050857635
 30
0.0
 11
163.4161472391728
 21
344.5296580857634
 31
0.0
  0
LINE
  5
1204
330
2
100
AcDbEntity
  8
0
100
AcDbLine
 10
171.4161472391728
 20
344.3402970857635
 30
0.0
 11
171.4161472391728
 21
351.1070050857635
 31
0.0
  0
LINE
  5
1205
330
2
100
AcDbEntity
  8
0
100
AcDbLine
 10
170.4161472391726
 20
345.1070050857635
 30
0.0
 11
170.4161472391726
 21
351.1070050857635
 31
0.0
  0
LINE
  5
1206
330
2
100
AcDbEntity
  8
0
100
AcDbLine
 10
189.4510592391728
 20
345.9741770857636
 30
0.0
 11
173.5383092391726
 21
345.6964060857635
 31
0.0
  0
LINE
  5
1207
330
2
100
AcDbEntity
  8
0
100
AcDbLine
 10
187.1181432391728
 20
349.9334520857634
 30
0.0
 11
175.5904022391726
 21
349.7322340857635
 31
0.0
  0
ARC
  5
1208
330
2
100
AcDbEntity
  8
0
100
AcDbCircle
 10
189.4161472391726
 20
347.9738720857634
 30
0.0
 40
2.0
100
AcDbArc
 50
271.0000000000017
 51
0.0
  0
ARC
  5
1209
330
2
100
AcDbEntity
  8
0
100
AcDbCircle
 10
187.0832312391726
 20
351.9331460857634
 30
0.0
 40
2.0
100
AcDbArc
 50
271.0000000000017
 51
330.0149539999981
  0
LINE
  5
120A
330
2
100
AcDbEntity
  8
0
100
AcDbLine
 10
190.9872832391728
 20
346.7363080857635
 30
0.0
 11
188.6543672391726
 21
350.6955980857635
 31
0.0
  0
LINE
  5
120B
330
2
100
AcDbEntity
  8
0
100
AcDbLine
 10
191.4161472391726
 20
347.9738720857634
 30
0.0
 11
191.4161472391726
 21
351.1969560857634
 31
0.0
  0
LINE
  5
120C
330
2
100
AcDbEntity
  8
0
100
AcDbLine
 10
203.3812352391726
 20
346.1923630857634
 30
0.0
 11
218.6858922391728
 21
345.9252120857634
 31
0.0
  0
LINE
  5
120D
330
2
100
AcDbEntity
  8
0
100
AcDbLine
 10
205.7141512391726
 20
350.1516370857634
 30
0.0
 11
217.9881382391728
 21
349.9373880857636
 31
0.0
  0
ARC
  5
120E
330
2
100
AcDbEntity
  8
0
100
AcDbCircle
 10
205.7490632391728
 20
352.1513320857635
 30
0.0
 40
2.0
100
AcDbArc
 50
215.5904390000004
 51
268.9999999999981
  0
ARC
  5
120F
330
2
100
AcDbEntity
  8
0
100
AcDbCircle
 10
203.4161472391728
 20
348.1920570857634
 30
0.0
 40
2.0
100
AcDbArc
 50
180.0
 51
268.9999999999981
  0
LINE
  5
1210
330
2
100
AcDbEntity
  8
0
100
AcDbLine
 10
204.1779272391728
 20
350.9137830857635
 30
0.0
 11
201.8450112391728
 21
346.9545090857634
 31
0.0
  0
LINE
  5
1211
330
2
100
AcDbEntity
  8
0
100
AcDbLine
 10
201.4161472391728
 20
348.1920570857634
 30
0.0
 11
201.4161472391728
 21
350.3783980857634
 31
0.0
  0
LINE
  5
1212
330
2
100
AcDbEntity
  8
0
100
AcDbLine
 10
229.4161472391726
 20
340.2569990857635
 30
0.0
 11
229.4161472391726
 21
351.1070050857635
 31
0.0
  0
LINE
  5
1213
330
2
100
AcDbEntity
  8
0
100
AcDbLine
 10
234.4161472391728
 20
341.6070050857634
 30
0.0
 11
231.8161412391729
 21
341.6070050857634
 31
0.0
  0
LINE
  5
1214
330
2
100
AcDbEntity
  8
PHAS
100
AcDbLine
 10
230.6161292391728
 20
341.6070050857634
 30
0.0
 11
229.4161472391726
 21
341.6489060857634
 31
0.0
  0
LINE
  5
1215
330
2
100
AcDbEntity
  8
PHAS
100
AcDbLine
 10
230.6161292391728
 20
341.6070050857634
 30
0.0
 11
231.8161412391729
 21
341.6489060857634
 31
0.0
  0
ARC
  5
1216
330
2
100
AcDbEntity
  8
PHAS
100
AcDbCircle
 10
230.6161292391728
 20
341.8270060857635
 30
0.0
 40
1.219999999999998
100
AcDbArc
 50
190.3888549999994
 51
351.6977370000001
  0
ARC
  5
1217
330
2
100
AcDbEntity
  8
0
100
AcDbCircle
 10
232.4161472391728
 20
339.5074260857634
 30
0.0
 40
2.0
100
AcDbArc
 50
289.9999999999969
 51
0.0
  0
LINE
  5
1218
330
2
100
AcDbEntity
  8
0
100
AcDbLine
 10
230.2320042391728
 20
336.5841020857635
 30
0.0
 11
233.1001992391725
 21
337.6280320857635
 31
0.0
  0
ARC
  5
1219
330
2
100
AcDbEntity
  8
0
100
AcDbCircle
 10
230.9160552391728
 20
334.7047150857635
 30
0.0
 40
2.0
100
AcDbArc
 50
110.0000079999982
 51
180.0
  0
LINE
  5
121A
330
2
100
AcDbEntity
  8
0
100
AcDbLine
 10
228.9160552391728
 20
334.2521010857635
 30
0.0
 11
228.9160552391728
 21
334.7047150857635
 31
0.0
  0
LINE
  5
121B
330
2
100
AcDbEntity
  8
0
100
AcDbLine
 10
231.8161412391729
 20
340.2569990857635
 30
0.0
 11
229.4161472391726
 21
340.2569990857635
 31
0.0
  0
LINE
  5
121C
330
2
100
AcDbEntity
  8
0
100
AcDbLine
 10
231.4160552391728
 20
351.1070050857635
 30
0.0
 11
221.4161472391728
 21
351.1070050857635
 31
0.0
  0
LINE
  5
121D
330
2
100
AcDbEntity
  8
0
100
AcDbLine
 10
228.4161472391728
 20
345.1070050857635
 30
0.0
 11
221.4161472391728
 21
345.1070050857635
 31
0.0
  0
LINE
  5
121E
330
2
100
AcDbEntity
  8
0
100
AcDbLine
 10
228.4161472391728
 20
345.1070050857635
 30
0.0
 11
222.4161472391728
 21
351.1070050857635
 31
0.0
  0
LINE
  5
121F
330
2
100
AcDbEntity
  8
0
100
AcDbLine
 10
222.4161472391728
 20
345.1070050857635
 30
0.0
 11
228.4161472391728
 21
351.1070050857635
 31
0.0
  0
LINE
  5
1220
330
2
100
AcDbEntity
  8
0
100
AcDbLine
 10
221.4161472391728
 20
344.0726730857635
 30
0.0
 11
221.4161472391728
 21
351.1070050857635
 31
0.0
  0
LINE
  5
1221
330
2
100
AcDbEntity
  8
0
100
AcDbLine
 10
222.4161472391728
 20
345.1070050857635
 30
0.0
 11
222.4161472391728
 21
351.1070050857635
 31
0.0
  0
LINE
  5
1222
330
2
100
AcDbEntity
  8
0
100
AcDbLine
 10
221.4161472391728
 20
348.6070050857634
 30
0.0
 11
218.2194922391728
 21
348.6070050857634
 31
0.0
  0
LINE
  5
1223
330
2
100
AcDbEntity
  8
0
100
AcDbLine
 10
228.4161472391728
 20
345.1070050857635
 30
0.0
 11
228.4161472391728
 21
351.1070050857635
 31
0.0
  0
LINE
  5
1224
330
2
100
AcDbEntity
  8
0
100
AcDbLine
 10
228.4161472391728
 20
345.1070050857635
 30
0.0
 11
229.4161472391726
 21
344.5296580857634
 31
0.0
  0
LINE
  5
1225
330
2
100
AcDbEntity
  8
0
100
AcDbLine
 10
181.4162392391726
 20
354.6070050857634
 30
0.0
 11
211.4160552391726
 21
354.6070050857634
 31
0.0
  0
LINE
  5
1226
330
2
100
AcDbEntity
  8
0
100
AcDbLine
 10
231.4160552391728
 20
368.9070080857634
 30
0.0
 11
161.4162392391728
 21
368.9070080857634
 31
0.0
  0
LINE
  5
1227
330
2
100
AcDbEntity
  8
0
100
AcDbLine
 10
211.4160552391726
 20
367.6070050857635
 30
0.0
 11
181.4162392391726
 21
367.6070050857635
 31
0.0
  0
ARC
  5
1228
330
2
100
AcDbEntity
  8
0
100
AcDbCircle
 10
189.4161472391726
 20
374.2401380857634
 30
0.0
 40
2.0
100
AcDbArc
 50
0.0
 51
88.99999999999822
  0
LINE
  5
1229
330
2
100
AcDbEntity
  8
0
100
AcDbLine
 10
164.4161472391726
 20
377.1070050857634
 30
0.0
 11
170.4161472391726
 21
371.1070050857634
 31
0.0
  0
LINE
  5
122A
330
2
100
AcDbEntity
  8
0
100
AcDbLine
 10
170.4161472391726
 20
377.1070050857634
 30
0.0
 11
164.4161472391726
 21
371.1070050857634
 31
0.0
  0
LINE
  5
122B
330
2
100
AcDbEntity
  8
0
100
AcDbLine
 10
163.4161472391728
 20
381.9570110857635
 30
0.0
 11
163.4161472391728
 21
371.1070050857634
 31
0.0
  0
LINE
  5
122C
330
2
100
AcDbEntity
  8
0
100
AcDbLine
 10
164.4161472391726
 20
377.1070050857634
 30
0.0
 11
164.4161472391726
 21
371.1070050857634
 31
0.0
  0
LINE
  5
122D
330
2
100
AcDbEntity
  8
0
100
AcDbLine
 10
171.4161472391728
 20
371.1070050857634
 30
0.0
 11
171.4161472391728
 21
377.8737130857634
 31
0.0
  0
LINE
  5
122E
330
2
100
AcDbEntity
  8
0
100
AcDbLine
 10
170.4161472391726
 20
377.1070050857634
 30
0.0
 11
170.4161472391726
 21
371.1070050857634
 31
0.0
  0
LINE
  5
122F
330
2
100
AcDbEntity
  8
0
100
AcDbLine
 10
188.6543672391726
 20
371.5184120857634
 30
0.0
 11
190.9872832391728
 21
375.4777020857634
 31
0.0
  0
LINE
  5
1230
330
2
100
AcDbEntity
  8
0
100
AcDbLine
 10
171.4161472391728
 20
373.6070050857634
 30
0.0
 11
175.0182592391728
 21
373.6070050857634
 31
0.0
  0
LINE
  5
1231
330
2
100
AcDbEntity
  8
0
100
AcDbLine
 10
169.4162392391726
 20
355.1070050857635
 30
0.0
 11
181.4162392391726
 21
355.1070050857635
 31
0.0
  0
LINE
  5
1232
330
2
100
AcDbEntity
  8
0
100
AcDbLine
 10
169.4162392391726
 20
366.7638650857635
 30
0.0
 11
181.4162392391726
 21
366.7638650857635
 31
0.0
  0
LINE
  5
1233
330
2
100
AcDbEntity
  8
0
100
AcDbLine
 10
163.4162392391726
 20
355.1070050857635
 30
0.0
 11
163.4162392391726
 21
367.1070050857634
 31
0.0
  0
LINE
  5
1234
330
2
100
AcDbEntity
  8
0
100
AcDbLine
 10
169.4162392391726
 20
354.8570050857634
 30
0.0
 11
169.4162392391726
 21
367.3570050857634
 31
0.0
  0
LINE
  5
1235
330
2
100
AcDbEntity
  8
0
100
AcDbLine
 10
168.2662452391728
 20
354.8570050857634
 30
0.0
 11
168.2662452391728
 21
367.3570050857634
 31
0.0
  0
LINE
  5
1236
330
2
100
AcDbEntity
  8
0
100
AcDbLine
 10
163.4162392391726
 20
355.1070050857635
 30
0.0
 11
161.4162392391728
 21
353.9523110857635
 31
0.0
  0
LINE
  5
1237
330
2
100
AcDbEntity
  8
0
100
AcDbLine
 10
163.4162392391726
 20
355.1070050857635
 30
0.0
 11
168.2662452391728
 21
355.1070050857635
 31
0.0
  0
LINE
  5
1238
330
2
100
AcDbEntity
  8
0
100
AcDbLine
 10
168.2662452391728
 20
354.8570050857634
 30
0.0
 11
169.4162392391726
 21
354.8570050857634
 31
0.0
  0
LINE
  5
1239
330
2
100
AcDbEntity
  8
0
100
AcDbLine
 10
163.4162392391726
 20
367.1070050857634
 30
0.0
 11
161.4162392391728
 21
368.2617140857634
 31
0.0
  0
LINE
  5
123A
330
2
100
AcDbEntity
  8
0
100
AcDbLine
 10
161.4162392391728
 20
371.1070050857634
 30
0.0
 11
171.4161472391728
 21
371.1070050857634
 31
0.0
  0
LINE
  5
123B
330
2
100
AcDbEntity
  8
0
100
AcDbLine
 10
163.4162392391726
 20
366.7638650857635
 30
0.0
 11
168.2662452391728
 21
366.7638650857635
 31
0.0
  0
LINE
  5
123C
330
2
100
AcDbEntity
  8
0
100
AcDbLine
 10
168.2662452391728
 20
367.3570050857634
 30
0.0
 11
169.4162392391726
 21
367.3570050857634
 31
0.0
  0
LINE
  5
123D
330
2
100
AcDbEntity
  8
0
100
AcDbLine
 10
181.4162392391726
 20
354.6070050857634
 30
0.0
 11
181.4162392391726
 21
367.6070050857635
 31
0.0
  0
LINE
  5
123E
330
2
100
AcDbEntity
  8
0
100
AcDbLine
 10
187.1181432391728
 20
372.2805580857634
 30
0.0
 11
175.5904022391726
 21
372.4817760857634
 31
0.0
  0
ARC
  5
123F
330
2
100
AcDbEntity
  8
0
100
AcDbCircle
 10
187.0832312391726
 20
370.2808640857635
 30
0.0
 40
2.0
100
AcDbArc
 50
29.9850520000009
 51
88.99999999999822
  0
LINE
  5
1240
330
2
100
AcDbEntity
  8
0
100
AcDbLine
 10
191.4161472391726
 20
371.0170540857634
 30
0.0
 11
191.4161472391726
 21
374.2401380857634
 31
0.0
  0
ARC
  5
1241
330
2
100
AcDbEntity
  8
0
100
AcDbCircle
 10
161.9161472391728
 20
387.5092570857635
 30
0.0
 40
2.0
100
AcDbArc
 50
290.0000079999983
 51
0.0
  0
LINE
  5
1242
330
2
100
AcDbEntity
  8
0
100
AcDbLine
 10
162.6001992391728
 20
385.6298780857635
 30
0.0
 11
159.7320952391726
 21
384.5859780857635
 31
0.0
  0
LINE
  5
1243
330
2
100
AcDbEntity
  8
0
100
AcDbLine
 10
161.0161532391725
 20
381.9570110857635
 30
0.0
 11
163.4161472391728
 21
381.9570110857635
 31
0.0
  0
LINE
  5
1244
330
2
100
AcDbEntity
  8
PHAS
100
AcDbLine
 10
162.2161652391729
 20
380.6070050857634
 30
0.0
 11
163.4161472391728
 21
380.5651040857635
 31
0.0
  0
ARC
  5
1245
330
2
100
AcDbEntity
  8
PHAS
100
AcDbCircle
 10
162.2161652391729
 20
380.3870040857635
 30
0.0
 40
1.219999999999998
100
AcDbArc
 50
10.38885499999955
 51
171.6977389999994
  0
LINE
  5
1246
330
2
100
AcDbEntity
  8
0
100
AcDbLine
 10
158.4161472391728
 20
380.6070050857634
 30
0.0
 11
161.0161532391725
 21
380.6070050857634
 31
0.0
  0
LINE
  5
1247
330
2
100
AcDbEntity
  8
PHAS
100
AcDbLine
 10
162.2161652391729
 20
380.6070050857634
 30
0.0
 11
161.0161532391725
 21
380.5651040857635
 31
0.0
  0
ARC
  5
1248
330
2
100
AcDbEntity
  8
0
100
AcDbCircle
 10
160.4161472391728
 20
382.7065840857635
 30
0.0
 40
2.0
100
AcDbArc
 50
109.999999999997
 51
180.0
  0
LINE
  5
1249
330
2
100
AcDbEntity
  8
0
100
AcDbLine
 10
164.4161472391726
 20
377.1070050857634
 30
0.0
 11
171.4161472391728
 21
377.1070050857634
 31
0.0
  0
LINE
  5
124A
330
2
100
AcDbEntity
  8
0
100
AcDbLine
 10
164.4161472391726
 20
377.1070050857634
 30
0.0
 11
163.4161472391728
 21
377.6843520857634
 31
0.0
  0
LINE
  5
124B
330
2
100
AcDbEntity
  8
0
100
AcDbLine
 10
155.9161472391726
 20
389.2772170857636
 30
0.0
 11
162.4161472391728
 21
389.1070050857635
 31
0.0
  0
LINE
  5
124C
330
2
100
AcDbEntity
  8
0
100
AcDbLine
 10
157.4161162391726
 20
388.1070200857634
 30
0.0
 11
157.4161162391726
 21
387.1084550857634
 31
0.0
  0
LINE
  5
124D
330
2
100
AcDbEntity
  8
0
100
AcDbLine
 10
161.4161162391726
 20
388.4069930857634
 30
0.0
 11
162.4161472391728
 21
388.4069930857634
 31
0.0
  0
LINE
  5
124E
330
2
100
AcDbEntity
  8
0
100
AcDbLine
 10
157.4161162391726
 20
388.1070200857634
 30
0.0
 11
161.4161162391726
 21
388.1070360857634
 31
0.0
  0
LINE
  5
124F
330
2
100
AcDbEntity
  8
0
100
AcDbLine
 10
161.4161162391726
 20
388.4069930857634
 30
0.0
 11
161.4161162391726
 21
387.5767620857634
 31
0.0
  0
LINE
  5
1250
330
2
100
AcDbEntity
  8
0
100
AcDbLine
 10
162.4161472391728
 20
389.1070050857635
 30
0.0
 11
162.4161472391728
 21
387.8460030857634
 31
0.0
  0
LINE
  5
1251
330
2
100
AcDbEntity
  8
0
100
AcDbLine
 10
163.9161472391728
 20
387.6317090857634
 30
0.0
 11
163.9161472391728
 21
387.5092570857635
 31
0.0
  0
LINE
  5
1252
330
2
100
AcDbEntity
  8
0
100
AcDbLine
 10
189.4510592391728
 20
376.2398480857634
 30
0.0
 11
173.5383092391726
 21
376.5176040857634
 31
0.0
  0
ARC
  5
1253
330
2
100
AcDbEntity
  8
0
100
AcDbCircle
 10
203.4161472391728
 20
374.0219530857634
 30
0.0
 40
2.0
100
AcDbArc
 50
91.00000000000177
 51
180.0
  0
LINE
  5
1254
330
2
100
AcDbEntity
  8
0
100
AcDbLine
 10
228.4161472391728
 20
377.1070050857634
 30
0.0
 11
222.4161472391728
 21
371.1070050857634
 31
0.0
  0
LINE
  5
1255
330
2
100
AcDbEntity
  8
0
100
AcDbLine
 10
222.4161472391728
 20
377.1070050857634
 30
0.0
 11
228.4161472391728
 21
371.1070050857634
 31
0.0
  0
LINE
  5
1256
330
2
100
AcDbEntity
  8
0
100
AcDbLine
 10
221.4161472391728
 20
371.1070050857634
 30
0.0
 11
221.4161472391728
 21
378.1413370857634
 31
0.0
  0
LINE
  5
1257
330
2
100
AcDbEntity
  8
0
100
AcDbLine
 10
222.4161472391728
 20
377.1070050857634
 30
0.0
 11
222.4161472391728
 21
371.1070050857634
 31
0.0
  0
LINE
  5
1258
330
2
100
AcDbEntity
  8
0
100
AcDbLine
 10
229.4161472391726
 20
381.9570110857635
 30
0.0
 11
229.4161472391726
 21
371.1070050857634
 31
0.0
  0
LINE
  5
1259
330
2
100
AcDbEntity
  8
0
100
AcDbLine
 10
228.4161472391728
 20
377.1070050857634
 30
0.0
 11
228.4161472391728
 21
371.1070050857634
 31
0.0
  0
LINE
  5
125A
330
2
100
AcDbEntity
  8
0
100
AcDbLine
 10
223.4160552391728
 20
366.7638650857635
 30
0.0
 11
211.4160552391726
 21
366.7638650857635
 31
0.0
  0
LINE
  5
125B
330
2
100
AcDbEntity
  8
0
100
AcDbLine
 10
223.4160552391728
 20
355.1070050857635
 30
0.0
 11
211.4160552391726
 21
355.1070050857635
 31
0.0
  0
LINE
  5
125C
330
2
100
AcDbEntity
  8
0
100
AcDbLine
 10
205.7141512391726
 20
372.0623730857634
 30
0.0
 11
217.9881382391728
 21
372.2766220857634
 31
0.0
  0
LINE
  5
125D
330
2
100
AcDbEntity
  8
0
100
AcDbLine
 10
211.4160552391726
 20
354.6070050857634
 30
0.0
 11
211.4160552391726
 21
367.6070050857635
 31
0.0
  0
ARC
  5
125E
330
2
100
AcDbEntity
  8
0
100
AcDbCircle
 10
205.7490632391728
 20
370.0626780857634
 30
0.0
 40
2.0
100
AcDbArc
 50
91.00000000000177
 51
144.4095609999995
  0
LINE
  5
125F
330
2
100
AcDbEntity
  8
0
100
AcDbLine
 10
204.1779272391728
 20
371.3002270857634
 30
0.0
 11
201.8450112391728
 21
375.2595010857634
 31
0.0
  0
LINE
  5
1260
330
2
100
AcDbEntity
  8
0
100
AcDbLine
 10
201.4161472391728
 20
374.0219530857634
 30
0.0
 11
201.4161472391728
 21
371.8356120857635
 31
0.0
  0
LINE
  5
1261
330
2
100
AcDbEntity
  8
0
100
AcDbLine
 10
223.4160552391728
 20
354.8570050857634
 30
0.0
 11
223.4160552391728
 21
367.3570050857634
 31
0.0
  0
LINE
  5
1262
330
2
100
AcDbEntity
  8
0
100
AcDbLine
 10
224.5660492391726
 20
354.8570050857634
 30
0.0
 11
224.5660492391726
 21
367.3570050857634
 31
0.0
  0
LINE
  5
1263
330
2
100
AcDbEntity
  8
0
100
AcDbLine
 10
229.4160552391728
 20
355.1070050857635
 30
0.0
 11
229.4160552391728
 21
367.1070050857634
 31
0.0
  0
LINE
  5
1264
330
2
100
AcDbEntity
  8
0
100
AcDbLine
 10
229.4160552391728
 20
355.1070050857635
 30
0.0
 11
224.5660492391726
 21
355.1070050857635
 31
0.0
  0
LINE
  5
1265
330
2
100
AcDbEntity
  8
0
100
AcDbLine
 10
224.5660492391726
 20
354.8570050857634
 30
0.0
 11
223.4160552391728
 21
354.8570050857634
 31
0.0
  0
LINE
  5
1266
330
2
100
AcDbEntity
  8
0
100
AcDbLine
 10
229.4160552391728
 20
355.1070050857635
 30
0.0
 11
231.4160552391728
 21
353.9523110857635
 31
0.0
  0
LINE
  5
1267
330
2
100
AcDbEntity
  8
0
100
AcDbLine
 10
231.4160552391728
 20
371.1070050857634
 30
0.0
 11
221.4161472391728
 21
371.1070050857634
 31
0.0
  0
LINE
  5
1268
330
2
100
AcDbEntity
  8
0
100
AcDbLine
 10
229.4160552391728
 20
366.7638650857635
 30
0.0
 11
224.5660492391726
 21
366.7638650857635
 31
0.0
  0
LINE
  5
1269
330
2
100
AcDbEntity
  8
0
100
AcDbLine
 10
221.4161472391728
 20
373.6070050857634
 30
0.0
 11
218.2194922391728
 21
373.6070050857634
 31
0.0
  0
LINE
  5
126A
330
2
100
AcDbEntity
  8
0
100
AcDbLine
 10
224.5660492391726
 20
367.3570050857634
 30
0.0
 11
223.4160552391728
 21
367.3570050857634
 31
0.0
  0
LINE
  5
126B
330
2
100
AcDbEntity
  8
0
100
AcDbLine
 10
229.4160552391728
 20
367.1070050857634
 30
0.0
 11
231.4160552391728
 21
368.2617140857634
 31
0.0
  0
LINE
  5
126C
330
2
100
AcDbEntity
  8
0
100
AcDbLine
 10
203.3812352391726
 20
376.0216470857634
 30
0.0
 11
218.6858922391728
 21
376.2887980857634
 31
0.0
  0
ARC
  5
126D
330
2
100
AcDbEntity
  8
0
100
AcDbCircle
 10
230.9160552391728
 20
387.5092880857635
 30
0.0
 40
2.0
100
AcDbArc
 50
180.0
 51
250.0000000000029
  0
LINE
  5
126E
330
2
100
AcDbEntity
  8
0
100
AcDbLine
 10
228.4161472391728
 20
377.1070050857634
 30
0.0
 11
221.4161472391728
 21
377.1070050857634
 31
0.0
  0
LINE
  5
126F
330
2
100
AcDbEntity
  8
0
100
AcDbLine
 10
230.2320042391728
 20
385.6299080857634
 30
0.0
 11
233.1001992391725
 21
384.5859780857635
 31
0.0
  0
LINE
  5
1270
330
2
100
AcDbEntity
  8
0
100
AcDbLine
 10
228.4161472391728
 20
377.1070050857634
 30
0.0
 11
229.4161472391726
 21
377.6843520857634
 31
0.0
  0
LINE
  5
1271
330
2
100
AcDbEntity
  8
0
100
AcDbLine
 10
234.4161472391728
 20
380.6070050857634
 30
0.0
 11
231.8161412391729
 21
380.6070050857634
 31
0.0
  0
LINE
  5
1272
330
2
100
AcDbEntity
  8
0
100
AcDbLine
 10
231.8161412391729
 20
381.9570110857635
 30
0.0
 11
229.4161472391726
 21
381.9570110857635
 31
0.0
  0
LINE
  5
1273
330
2
100
AcDbEntity
  8
PHAS
100
AcDbLine
 10
230.6161292391728
 20
380.6070050857634
 30
0.0
 11
231.8161412391729
 21
380.5651040857635
 31
0.0
  0
LINE
  5
1274
330
2
100
AcDbEntity
  8
PHAS
100
AcDbLine
 10
230.6161292391728
 20
380.6070050857634
 30
0.0
 11
229.4161472391726
 21
380.5651040857635
 31
0.0
  0
ARC
  5
1275
330
2
100
AcDbEntity
  8
PHAS
100
AcDbCircle
 10
230.6161292391728
 20
380.3870040857635
 30
0.0
 40
1.219999999999998
100
AcDbArc
 50
8.302276999999667
 51
169.6111449999996
  0
ARC
  5
1276
330
2
100
AcDbEntity
  8
0
100
AcDbCircle
 10
232.4161472391728
 20
382.7065840857635
 30
0.0
 40
2.0
100
AcDbArc
 50
0.0
 51
70.00000000000297
  0
LINE
  5
1277
330
2
100
AcDbEntity
  8
0
100
AcDbLine
 10
228.9160552391728
 20
387.9619090857634
 30
0.0
 11
228.9160552391728
 21
387.5092880857635
 31
0.0
  0
LINE
  5
1278
330
2
100
AcDbEntity
  8
0
100
AcDbLine
 10
196.4161472391728
 20
401.6070050857634
 30
0.0
 11
155.9161472391726
 21
400.9000810857634
 31
0.0
  0
LINE
  5
1279
330
2
100
AcDbEntity
  8
0
100
AcDbLine
 10
236.9161472391728
 20
400.9000810857634
 30
0.0
 11
236.9161472391728
 21
321.3139370857634
 31
0.0
  0
LINE
  5
1289
330
2
100
AcDbEntity
  8
PHAS
  6
SEKKEI_P_S
100
AcDbLine
 10
247.4161472391728
 20
374.0831100857634
 30
0.0
 11
247.4161472391728
 21
348.1939800857634
 31
0.0
  0
ARC
  5
128A
330
2
100
AcDbEntity
  8
PHAS
  6
SEKKEI_P_S
100
AcDbCircle
 10
244.4161472391728
 20
348.1309000857634
 30
0.0
 40
3.0
100
AcDbArc
 50
285.000000000001
 51
0.0
  0
ARC
  5
128B
330
2
100
AcDbEntity
  8
PHAS
  6
SEKKEI_P_S
100
AcDbCircle
 10
244.4161472391728
 20
374.0831100857634
 30
0.0
 40
3.0
100
AcDbArc
 50
0.0
 51
74.99999999999882
  0
LINE
  5
128C
330
2
100
AcDbEntity
  8
CENTER
100
AcDbLine
 10
408.0151699161596
 20
194.6803181390592
 30
0.0
 11
495.0639059161595
 21
194.6803181390592
 31
0.0
  0
LINE
  5
128D
330
2
100
AcDbEntity
  8
HIDS
100
AcDbLine
 10
459.0201439161595
 20
198.6803181390591
 30
0.0
 11
491.5201439161594
 21
198.6803181390591
 31
0.0
  0
LINE
  5
128E
330
2
100
AcDbEntity
  8
0
100
AcDbLine
 10
451.0201439161595
 20
201.6803181390591
 30
0.0
 11
491.5201439161594
 21
200.9733941390591
 31
0.0
  0
LINE
  5
128F
330
2
100
AcDbEntity
  8
HIDS
100
AcDbLine
 10
423.0201439161595
 20
198.0803121390591
 30
0.0
 11
491.5201439161594
 21
198.0803121390591
 31
0.0
  0
LINE
  5
1291
330
2
100
AcDbEntity
  8
0
100
AcDbLine
 10
451.0201439161595
 20
201.6803181390591
 30
0.0
 11
410.5201439161595
 21
200.9733941390591
 31
0.0
  0
LINE
  5
1292
330
2
100
AcDbEntity
  8
HIDS
100
AcDbLine
 10
423.0201439161595
 20
198.6803181390591
 30
0.0
 11
443.0201439161595
 21
198.6803181390591
 31
0.0
  0
LINE
  5
1293
330
2
100
AcDbEntity
  8
HIDS
  6
SEKKEI_H
100
AcDbLine
 10
410.5201439161595
 20
198.9303181390591
 30
0.0
 11
423.0201439161595
 21
198.9303181390591
 31
0.0
  0
TEXT
  5
16D4
330
2
100
AcDbEntity
  8
TITLE
100
AcDbText
 10
213.7613313417571
 20
63.30799974698408
 30
0.0
 40
7.0
  1
F2SB-12-10～240-S25K
 41
0.8
100
AcDbText
  0
TEXT
  5
16D5
330
2
100
AcDbEntity
  8
TITLE
100
AcDbText
 10
213.7613313417571
 20
39.30799974698407
 30
0.0
 40
7.0
  1
F2SB-12-10～120-S40K
 41
0.8
100
AcDbText
  0
TEXT
  5
16D6
330
2
100
AcDbEntity
  8
TITLE
100
AcDbText
 10
213.7613313417571
 20
51.30799974698408
 30
0.0
 40
7.0
  1
F2SB-12-10～240-S25WK
 41
0.8
100
AcDbText
  0
TEXT
  5
16D7
330
2
100
AcDbEntity
  8
TITLE
100
AcDbText
 10
213.7613313417571
 20
27.30799974698407
 30
0.0
 40
7.0
  1
F2SB-12-10～120-S40WK
 41
0.8
100
AcDbText
  0
LINE
  5
1743
330
2
100
AcDbEntity
  8
CENTER
100
AcDbLine
 10
283.5733632332219
 20
131.0734451390592
 30
0.0
 11
283.5733632332219
 21
191.2871911390591
 31
0.0
  0
LINE
  5
1744
330
2
100
AcDbEntity
  8
CENTER
100
AcDbLine
 10
229.573363233222
 20
135.6589561390592
 30
0.0
 11
229.573363233222
 21
119.7016801390592
 31
0.0
  0
LINE
  5
1745
330
2
100
AcDbEntity
  8
CENTER
100
AcDbLine
 10
237.5520012332219
 20
127.6803181390592
 30
0.0
 11
221.5947252332219
 21
127.6803181390592
 31
0.0
  0
LINE
  5
1746
330
2
100
AcDbEntity
  8
CENTER
100
AcDbLine
 10
221.501021233222
 20
137.6803181390592
 30
0.0
 11
232.6457052332218
 21
137.6803181390592
 31
0.0
  0
LINE
  5
1747
330
2
100
AcDbEntity
  8
CENTER
100
AcDbLine
 10
227.073363233222
 20
132.1079761390592
 30
0.0
 11
227.073363233222
 21
143.2526601390591
 31
0.0
  0
LINE
  5
1748
330
2
100
AcDbEntity
  8
CENTER
100
AcDbLine
 10
315.573363233222
 20
135.6589561390592
 30
0.0
 11
315.573363233222
 21
119.7016801390592
 31
0.0
  0
LINE
  5
1749
330
2
100
AcDbEntity
  8
CENTER
100
AcDbLine
 10
318.0733632332219
 20
132.1079761390592
 30
0.0
 11
318.0733632332219
 21
143.2526601390591
 31
0.0
  0
LINE
  5
174A
330
2
100
AcDbEntity
  8
CENTER
100
AcDbLine
 10
323.552001233222
 20
127.6803181390592
 30
0.0
 11
307.594725233222
 21
127.6803181390592
 31
0.0
  0
LINE
  5
174B
330
2
100
AcDbEntity
  8
CENTER
100
AcDbLine
 10
312.5010212332221
 20
137.6803181390592
 30
0.0
 11
323.645705233222
 21
137.6803181390592
 31
0.0
  0
LINE
  5
174C
330
2
100
AcDbEntity
  8
CENTER
100
AcDbLine
 10
227.073363233222
 20
179.1079761390592
 30
0.0
 11
227.073363233222
 21
190.2526601390591
 31
0.0
  0
LINE
  5
174D
330
2
100
AcDbEntity
  8
CENTER
100
AcDbLine
 10
237.5520012332219
 20
194.6803181390592
 30
0.0
 11
221.5947252332219
 21
194.6803181390592
 31
0.0
  0
LINE
  5
174E
330
2
100
AcDbEntity
  8
CENTER
100
AcDbLine
 10
221.501021233222
 20
184.6803181390591
 30
0.0
 11
232.6457052332218
 21
184.6803181390591
 31
0.0
  0
LINE
  5
174F
330
2
100
AcDbEntity
  8
CENTER
100
AcDbLine
 10
229.573363233222
 20
202.6589561390591
 30
0.0
 11
229.573363233222
 21
186.7016801390591
 31
0.0
  0
LINE
  5
1750
330
2
100
AcDbEntity
  8
CENTER
100
AcDbLine
 10
318.0733632332219
 20
179.1079761390592
 30
0.0
 11
318.0733632332219
 21
190.2526601390591
 31
0.0
  0
LINE
  5
1751
330
2
100
AcDbEntity
  8
CENTER
100
AcDbLine
 10
315.573363233222
 20
202.6589561390591
 30
0.0
 11
315.573363233222
 21
186.7016801390591
 31
0.0
  0
LINE
  5
1752
330
2
100
AcDbEntity
  8
CENTER
100
AcDbLine
 10
323.552001233222
 20
194.6803181390592
 30
0.0
 11
307.594725233222
 21
194.6803181390592
 31
0.0
  0
LINE
  5
1753
330
2
100
AcDbEntity
  8
CENTER
100
AcDbLine
 10
312.5010212332221
 20
184.6803181390591
 30
0.0
 11
323.645705233222
 21
184.6803181390591
 31
0.0
  0
LINE
  5
1754
330
2
100
AcDbEntity
  8
CENTER
100
AcDbLine
 10
662.7222260744596
 20
131.0734451390592
 30
0.0
 11
662.7222260744596
 21
191.2871911390591
 31
0.0
  0
LINE
  5
1755
330
2
100
AcDbEntity
  8
CENTER
100
AcDbLine
 10
630.7222260744596
 20
135.6589561390592
 30
0.0
 11
630.7222260744596
 21
119.7016801390592
 31
0.0
  0
LINE
  5
1756
330
2
100
AcDbEntity
  8
CENTER
100
AcDbLine
 10
638.7008640744595
 20
127.6803181390592
 30
0.0
 11
622.7435880744596
 21
127.6803181390592
 31
0.0
  0
LINE
  5
1757
330
2
100
AcDbEntity
  8
CENTER
100
AcDbLine
 10
716.7222260744597
 20
135.6589561390592
 30
0.0
 11
716.7222260744597
 21
119.7016801390592
 31
0.0
  0
LINE
  5
1758
330
2
100
AcDbEntity
  8
CENTER
100
AcDbLine
 10
724.7008640744597
 20
127.6803181390592
 30
0.0
 11
708.7435880744595
 21
127.6803181390592
 31
0.0
  0
LINE
  5
1759
330
2
100
AcDbEntity
  8
CENTER
100
AcDbLine
 10
630.7222260744596
 20
202.6589561390591
 30
0.0
 11
630.7222260744596
 21
186.7016801390591
 31
0.0
  0
LINE
  5
175A
330
2
100
AcDbEntity
  8
CENTER
100
AcDbLine
 10
638.7008640744595
 20
194.6803181390592
 30
0.0
 11
622.7435880744596
 21
194.6803181390592
 31
0.0
  0
LINE
  5
175B
330
2
100
AcDbEntity
  8
CENTER
100
AcDbLine
 10
716.7222260744597
 20
202.6589561390591
 30
0.0
 11
716.7222260744597
 21
186.7016801390591
 31
0.0
  0
LINE
  5
175C
330
2
100
AcDbEntity
  8
CENTER
100
AcDbLine
 10
724.7008640744597
 20
194.6803181390592
 30
0.0
 11
708.7435880744595
 21
194.6803181390592
 31
0.0
  0
LINE
  5
2839
330
2
100
AcDbEntity
  8
0
100
AcDbLine
 10
433.5201439161594
 20
244.6803331390591
 30
0.0
 11
468.5201439161595
 21
244.6803331390591
 31
0.0
  0
LINE
  5
283B
330
2
100
AcDbEntity
  8
0
100
AcDbLine
 10
430.8580527321862
 20
245.6803331390591
 30
0.0
 11
471.1822351001327
 21
245.6803331390591
 31
0.0
  0
LINE
  5
283D
330
2
100
AcDbEntity
  8
CENTER
100
AcDbLine
 10
420.976536934951
 20
228.6803181390591
 30
0.0
 11
481.063750897368
 21
228.6803181390591
 31
0.0
  0
LINE
  5
283E
330
2
100
AcDbEntity
  8
0
100
AcDbLine
 10
426.0201439161595
 20
213.6803181390591
 30
0.0
 11
476.0201289161596
 21
213.6803181390591
 31
0.0
  0
LINE
  5
283F
330
2
100
AcDbEntity
  8
0
100
AcDbLine
 10
426.0201439161595
 20
202.6803181390592
 30
0.0
 11
476.0201289161596
 21
202.6803181390592
 31
0.0
  0
LINE
  5
2840
330
2
100
AcDbEntity
  8
0
100
AcDbLine
 10
426.0201439161595
 20
212.6803181390591
 30
0.0
 11
476.0201289161596
 21
212.6803181390591
 31
0.0
  0
LINE
  5
2872
330
2
100
AcDbEntity
  8
0
100
AcDbLine
 10
148.017866233222
 20
244.6803331390591
 30
0.0
 11
183.017866233222
 21
244.6803331390591
 31
0.0
  0
LINE
  5
2873
330
2
100
AcDbEntity
  8
0
100
AcDbLine
 10
140.5178592332219
 20
213.6803181390591
 30
0.0
 11
190.517866233222
 21
213.6803181390591
 31
0.0
  0
LINE
  5
2874
330
2
100
AcDbEntity
  8
0
100
AcDbLine
 10
140.5178592332219
 20
202.6803181390592
 30
0.0
 11
190.517866233222
 21
202.6803181390592
 31
0.0
  0
LINE
  5
2875
330
2
100
AcDbEntity
  8
0
100
AcDbLine
 10
140.5178592332219
 20
212.6803181390591
 30
0.0
 11
190.517866233222
 21
212.6803181390591
 31
0.0
  0
LINE
  5
2876
330
2
100
AcDbEntity
  8
0
100
AcDbLine
 10
142.017859233222
 20
200.6803181390591
 30
0.0
 11
188.517866233222
 21
200.6803181390591
 31
0.0
  0
LINE
  5
2877
330
2
100
AcDbEntity
  8
0
100
AcDbLine
 10
145.3557750492485
 20
245.6803331390591
 30
0.0
 11
185.6799574171956
 21
245.6803331390591
 31
0.0
  0
LINE
  5
2878
330
2
100
AcDbEntity
  8
CENTER
100
AcDbLine
 10
135.4742592520135
 20
228.6803181390591
 30
0.0
 11
195.5614732144304
 21
228.6803181390591
 31
0.0
  0
LINE
  5
2879
330
2
100
AcDbEntity
  8
0
100
AcDbLine
 10
140.5178592332219
 20
244.6803331390591
 30
0.0
 11
140.5178592332219
 21
202.6803181390592
 31
0.0
  0
LINE
  5
287A
330
2
100
AcDbEntity
  8
CENTER
100
AcDbLine
 10
165.517866233222
 20
194.2908221390591
 30
0.0
 11
165.517866233222
 21
251.0678331390591
 31
0.0
  0
LINE
  5
287B
330
2
100
AcDbEntity
  8
0
100
AcDbLine
 10
142.017859233222
 20
200.6803181390591
 30
0.0
 11
142.017859233222
 21
199.1803181390591
 31
0.0
  0
LINE
  5
287C
330
2
100
AcDbEntity
  8
0
100
AcDbLine
 10
140.5178592332219
 20
202.6803181390592
 30
0.0
 11
142.5178592332219
 21
200.6803181390591
 31
0.0
  0
LINE
  5
287E
330
2
100
AcDbEntity
  8
0
100
AcDbLine
 10
139.6428592332219
 20
218.1803181390591
 30
0.0
 11
141.6428592332219
 21
218.1803181390591
 31
0.0
  0
LINE
  5
287F
330
2
100
AcDbEntity
  8
0
100
AcDbLine
 10
143.7303662327669
 20
244.2633331390593
 30
0.0
 11
144.305366233677
 21
244.2633331390593
 31
0.0
  0
ARC
  5
2880
330
2
100
AcDbEntity
  8
0
100
AcDbCircle
 10
144.017866233222
 20
236.7803331390593
 30
0.0
 40
9.0
100
AcDbArc
 50
74.11914999171883
 51
105.8808500082811
  0
LINE
  5
2881
330
2
100
AcDbEntity
  8
0
100
AcDbLine
 10
148.017866233222
 20
243.1803331390591
 30
0.0
 11
140.517866233222
 21
243.1803331390593
 31
0.0
  0
LINE
  5
2882
330
2
100
AcDbEntity
  8
0
100
AcDbLine
 10
139.6428592332219
 20
239.1803181390591
 30
0.0
 11
141.6428592332219
 21
239.1803181390591
 31
0.0
  0
LINE
  5
2883
330
2
100
AcDbEntity
  8
0
100
AcDbLine
 10
140.517866233222
 20
243.1803331390593
 30
0.0
 11
140.6158023721099
 21
244.2997483288774
 31
0.0
  0
ARC
  5
2884
330
2
100
AcDbEntity
  8
0
100
AcDbCircle
 10
141.9108554796291
 20
244.1864458633055
 30
0.0
 40
1.3
100
AcDbArc
 50
105.8808500082811
 51
175.0000000000001
  0
LINE
  5
2885
330
2
100
AcDbEntity
  8
0
100
AcDbLine
 10
141.9881264100578
 20
245.3327746764369
 30
0.0
 11
141.9678662332219
 21
245.5437514218985
 31
0.0
  0
LINE
  5
2886
330
2
100
AcDbEntity
  8
0
100
AcDbLine
 10
141.517866233222
 20
245.6803331390591
 30
0.0
 11
140.517866233222
 21
244.6803331390591
 31
0.0
  0
LINE
  5
2887
330
2
100
AcDbEntity
  8
0
100
AcDbLine
 10
142.6799574171954
 20
245.6803331390591
 30
0.0
 11
141.517866233222
 21
245.6803331390591
 31
0.0
  0
SPLINE
  5
2888
330
2
100
AcDbEntity
  8
0
100
AcDbSpline
210
0.0
220
0.0
230
1.0
 70
     8
 71
     3
 72
    11
 73
     7
 74
     0
 42
0.0000000001
 43
0.0000000001
 40
0.0
 40
0.0
 40
0.0
 40
0.0
 40
0.4601364636755307
 40
1.04988694485363
 40
1.713742833862792
 40
2.320347933405154
 40
2.320347933405154
 40
2.320347933405154
 40
2.320347933405178
 10
143.7303662327669
 20
244.2633331390593
 30
0.0
 10
143.707948575659
 20
244.418356578739
 30
0.0
 10
143.6567985204256
 20
244.7720713966567
 30
0.0
 10
143.2209133588921
 20
245.1967990682583
 30
0.0
 10
142.6158626438847
 20
245.4159862482241
 30
0.0
 10
142.1906780197089
 20
245.3469949486136
 30
0.0
 10
141.9881264100578
 20
245.3327746764369
 30
0.0
  0
LINE
  5
2889
330
2
100
AcDbEntity
  8
0
100
AcDbLine
 10
147.517866233222
 20
243.1803331390593
 30
0.0
 11
147.419930094334
 21
244.2997483288774
 31
0.0
  0
LINE
  5
288A
330
2
100
AcDbEntity
  8
0
100
AcDbLine
 10
148.017866233222
 20
243.1803331390591
 30
0.0
 11
148.017866233222
 21
245.1803331390592
 31
0.0
  0
LINE
  5
288B
330
2
100
AcDbEntity
  8
0
100
AcDbLine
 10
148.517866233222
 20
245.6803331390591
 30
0.0
 11
148.017866233222
 21
245.1803331390591
 31
0.0
  0
SPLINE
  5
288C
330
2
100
AcDbEntity
  8
0
100
AcDbSpline
210
0.0
220
0.0
230
1.0
 70
     8
 71
     3
 72
    11
 73
     7
 74
     0
 42
0.0000000001
 43
0.0000000001
 40
0.0
 40
0.0
 40
0.0
 40
0.0
 40
0.4601364636755307
 40
1.04988694485363
 40
1.713742833862792
 40
2.320347933405154
 40
2.320347933405154
 40
2.320347933405154
 40
2.320347933405178
 10
144.305366233677
 20
244.2633331390593
 30
0.0
 10
144.3277838907849
 20
244.418356578739
 30
0.0
 10
144.3789339460181
 20
244.7720713966567
 30
0.0
 10
144.8148191075516
 20
245.1967990682583
 30
0.0
 10
145.4198698225591
 20
245.4159862482241
 30
0.0
 10
145.8450544467349
 20
245.3469949486136
 30
0.0
 10
146.047606056386
 20
245.3327746764369
 30
0.0
  0
LINE
  5
288D
330
2
100
AcDbEntity
  8
0
100
AcDbLine
 10
146.047606056386
 20
245.3327746764369
 30
0.0
 11
146.0678662332218
 21
245.5437514218985
 31
0.0
  0
LINE
  5
288E
330
2
100
AcDbEntity
  8
0
100
AcDbLine
 10
148.017866233222
 20
245.1803331390591
 30
0.0
 11
146.9628436228424
 21
245.1803331390591
 31
0.0
  0
ARC
  5
288F
330
2
100
AcDbEntity
  8
0
100
AcDbCircle
 10
146.1248769868149
 20
244.1864458633055
 30
0.0
 40
1.3
100
AcDbArc
 50
4.999999999999743
 51
74.11914999171883
  0
LINE
  5
2890
330
2
100
AcDbEntity
  8
0
100
AcDbLine
 10
190.517866233222
 20
244.6803331390591
 30
0.0
 11
190.517866233222
 21
202.6803181390592
 31
0.0
  0
LINE
  5
2891
330
2
100
AcDbEntity
  8
0
100
AcDbLine
 10
188.017866233222
 20
200.6803181390591
 30
0.0
 11
188.017866233222
 21
199.1803181390591
 31
0.0
  0
LINE
  5
2892
330
2
100
AcDbEntity
  8
0
100
AcDbLine
 10
188.517866233222
 20
200.6803181390591
 30
0.0
 11
190.517866233222
 21
202.6803181390592
 31
0.0
  0
SPLINE
  5
2893
330
2
100
AcDbEntity
  8
0
100
AcDbSpline
210
0.0
220
0.0
230
1.0
 70
     8
 71
     3
 72
    11
 73
     7
 74
     0
 42
0.0000000001
 43
0.0000000001
 40
0.0
 40
0.0
 40
0.0
 40
0.0
 40
0.4601364636755307
 40
1.04988694485363
 40
1.713742833862792
 40
2.320347933405154
 40
2.320347933405154
 40
2.320347933405154
 40
2.320347933405178
 10
186.7303662327671
 20
244.2633331390593
 30
0.0
 10
186.7079485756591
 20
244.418356578739
 30
0.0
 10
186.6567985204259
 20
244.7720713966567
 30
0.0
 10
186.2209133588923
 20
245.1967990682583
 30
0.0
 10
185.615862643885
 20
245.4159862482241
 30
0.0
 10
185.190678019709
 20
245.3469949486136
 30
0.0
 10
184.9881264100581
 20
245.3327746764369
 30
0.0
  0
LINE
  5
2894
330
2
100
AcDbEntity
  8
0
100
AcDbLine
 10
183.017866233222
 20
243.1803331390591
 30
0.0
 11
190.517866233222
 21
243.1803331390593
 31
0.0
  0
ARC
  5
2895
330
2
100
AcDbEntity
  8
0
100
AcDbCircle
 10
187.0178662332221
 20
236.7803331390593
 30
0.0
 40
9.0
100
AcDbArc
 50
74.11914999171883
 51
105.8808500082811
  0
LINE
  5
2896
330
2
100
AcDbEntity
  8
0
100
AcDbLine
 10
183.017866233222
 20
243.1803331390591
 30
0.0
 11
183.017866233222
 21
245.1803331390592
 31
0.0
  0
LINE
  5
2897
330
2
100
AcDbEntity
  8
0
100
AcDbLine
 10
182.517866233222
 20
245.6803331390591
 30
0.0
 11
183.017866233222
 21
245.1803331390591
 31
0.0
  0
LINE
  5
2898
330
2
100
AcDbEntity
  8
0
100
AcDbLine
 10
183.017866233222
 20
245.1803331390591
 30
0.0
 11
184.0728888436016
 21
245.1803331390591
 31
0.0
  0
ARC
  5
2899
330
2
100
AcDbEntity
  8
0
100
AcDbCircle
 10
184.9108554796291
 20
244.1864458633055
 30
0.0
 40
1.3
100
AcDbArc
 50
105.8808500082811
 51
175.0000000000001
  0
LINE
  5
289A
330
2
100
AcDbEntity
  8
0
100
AcDbLine
 10
183.5178662332221
 20
243.1803331390593
 30
0.0
 11
183.6158023721099
 21
244.2997483288774
 31
0.0
  0
LINE
  5
289B
330
2
100
AcDbEntity
  8
0
100
AcDbLine
 10
184.9881264100581
 20
245.3327746764369
 30
0.0
 11
184.967866233222
 21
245.5437514218985
 31
0.0
  0
LINE
  5
289C
330
2
100
AcDbEntity
  8
0
100
AcDbLine
 10
190.517866233222
 20
243.1803331390593
 30
0.0
 11
190.4199300943341
 21
244.2997483288774
 31
0.0
  0
SPLINE
  5
289D
330
2
100
AcDbEntity
  8
0
100
AcDbSpline
210
0.0
220
0.0
230
1.0
 70
     8
 71
     3
 72
    11
 73
     7
 74
     0
 42
0.0000000001
 43
0.0000000001
 40
0.0
 40
0.0
 40
0.0
 40
0.0
 40
0.4601364636755307
 40
1.04988694485363
 40
1.713742833862792
 40
2.320347933405154
 40
2.320347933405154
 40
2.320347933405154
 40
2.320347933405178
 10
187.305366233677
 20
244.2633331390593
 30
0.0
 10
187.3277838907849
 20
244.418356578739
 30
0.0
 10
187.3789339460183
 20
244.7720713966567
 30
0.0
 10
187.8148191075519
 20
245.1967990682583
 30
0.0
 10
188.4198698225592
 20
245.4159862482241
 30
0.0
 10
188.8450544467351
 20
245.3469949486136
 30
0.0
 10
189.0476060563861
 20
245.3327746764369
 30
0.0
  0
LINE
  5
289E
330
2
100
AcDbEntity
  8
0
100
AcDbLine
 10
187.305366233677
 20
244.2633331390593
 30
0.0
 11
186.7303662327671
 21
244.2633331390593
 31
0.0
  0
LINE
  5
289F
330
2
100
AcDbEntity
  8
0
100
AcDbLine
 10
189.0476060563861
 20
245.3327746764369
 30
0.0
 11
189.0678662332222
 21
245.5437514218985
 31
0.0
  0
LINE
  5
28A0
330
2
100
AcDbEntity
  8
0
100
AcDbLine
 10
188.3557750492485
 20
245.6803331390591
 30
0.0
 11
189.517866233222
 21
245.6803331390591
 31
0.0
  0
LINE
  5
28A1
330
2
100
AcDbEntity
  8
0
100
AcDbLine
 10
189.517866233222
 20
245.6803331390591
 30
0.0
 11
190.517866233222
 21
244.6803331390591
 31
0.0
  0
ARC
  5
28A2
330
2
100
AcDbEntity
  8
0
100
AcDbCircle
 10
189.1248769868149
 20
244.1864458633055
 30
0.0
 40
1.3
100
AcDbArc
 50
4.999999999999743
 51
74.11914999171883
  0
LINE
  5
28A3
330
2
100
AcDbEntity
  8
0
100
AcDbLine
 10
426.0201439161595
 20
244.6803331390591
 30
0.0
 11
426.0201439161595
 21
202.6803181390592
 31
0.0
  0
LINE
  5
28A5
330
2
100
AcDbEntity
  8
0
100
AcDbLine
 10
426.0201439161595
 20
202.6803181390592
 30
0.0
 11
427.4318751096841
 21
201.2685869455345
 31
0.0
  0
SPLINE
  5
28A6
330
2
100
AcDbEntity
  8
0
100
AcDbSpline
210
0.0
220
0.0
230
1.0
 70
     8
 71
     3
 72
    11
 73
     7
 74
     0
 42
0.0000000001
 43
0.0000000001
 40
0.0
 40
0.0
 40
0.0
 40
0.0
 40
0.4601364636755307
 40
1.04988694485363
 40
1.713742833862792
 40
2.320347933405154
 40
2.320347933405154
 40
2.320347933405154
 40
2.320347933405178
 10
429.2326439157043
 20
244.2633331390593
 30
0.0
 10
429.2102262585965
 20
244.4183565787393
 30
0.0
 10
429.1590762033631
 20
244.7720713966567
 30
0.0
 10
428.7231910418297
 20
245.1967990682585
 30
0.0
 10
428.1181403268223
 20
245.4159862482241
 30
0.0
 10
427.6929557026464
 20
245.3469949486136
 30
0.0
 10
427.4904040929953
 20
245.332774676437
 30
0.0
  0
LINE
  5
28A7
330
2
100
AcDbEntity
  8
0
100
AcDbLine
 10
433.5201439161594
 20
243.1803331390593
 30
0.0
 11
426.0201439161595
 21
243.1803331390594
 31
0.0
  0
ARC
  5
28A8
330
2
100
AcDbEntity
  8
0
100
AcDbCircle
 10
429.5201439161593
 20
236.7803331390593
 30
0.0
 40
9.0
100
AcDbArc
 50
74.11914999171883
 51
105.8808500082811
  0
LINE
  5
28A9
330
2
100
AcDbEntity
  8
0
100
AcDbLine
 10
427.4904040929953
 20
245.332774676437
 30
0.0
 11
427.4701439161595
 21
245.5437514218985
 31
0.0
  0
LINE
  5
28AA
330
2
100
AcDbEntity
  8
0
100
AcDbLine
 10
427.0201439161595
 20
245.6803331390593
 30
0.0
 11
426.0201439161595
 21
244.6803331390592
 31
0.0
  0
ARC
  5
28AB
330
2
100
AcDbEntity
  8
0
100
AcDbCircle
 10
427.4131331625666
 20
244.1864458633058
 30
0.0
 40
1.3
100
AcDbArc
 50
105.8808500082811
 51
175.0000000000001
  0
LINE
  5
28AC
330
2
100
AcDbEntity
  8
0
100
AcDbLine
 10
426.0201439161595
 20
243.1803331390594
 30
0.0
 11
426.1180800550473
 21
244.2997483288777
 31
0.0
  0
LINE
  5
28AD
330
2
100
AcDbEntity
  8
0
100
AcDbLine
 10
428.182235100133
 20
245.6803331390593
 30
0.0
 11
427.0201439161595
 21
245.6803331390593
 31
0.0
  0
LINE
  5
28AE
330
2
100
AcDbEntity
  8
0
100
AcDbLine
 10
434.0201439161595
 20
245.6803331390593
 30
0.0
 11
433.5201439161594
 21
245.1803331390592
 31
0.0
  0
LINE
  5
28AF
330
2
100
AcDbEntity
  8
0
100
AcDbLine
 10
433.5201439161594
 20
245.1803331390592
 30
0.0
 11
432.4651213057798
 21
245.1803331390592
 31
0.0
  0
LINE
  5
28B0
330
2
100
AcDbEntity
  8
0
100
AcDbLine
 10
433.5201439161594
 20
243.1803331390593
 30
0.0
 11
433.5201439161594
 21
245.1803331390594
 31
0.0
  0
LINE
  5
28B1
330
2
100
AcDbEntity
  8
0
100
AcDbLine
 10
433.0201439161593
 20
243.1803331390594
 30
0.0
 11
432.9222077772716
 21
244.2997483288777
 31
0.0
  0
LINE
  5
28B2
330
2
100
AcDbEntity
  8
0
100
AcDbLine
 10
429.2326439157043
 20
244.2633331390593
 30
0.0
 11
429.8076439166145
 21
244.2633331390593
 31
0.0
  0
LINE
  5
28B3
330
2
100
AcDbEntity
  8
0
100
AcDbLine
 10
431.5498837393236
 20
245.332774676437
 30
0.0
 11
431.5701439161593
 21
245.5437514218985
 31
0.0
  0
SPLINE
  5
28B4
330
2
100
AcDbEntity
  8
0
100
AcDbSpline
210
0.0
220
0.0
230
1.0
 70
     8
 71
     3
 72
    11
 73
     7
 74
     0
 42
0.0000000001
 43
0.0000000001
 40
0.0
 40
0.0
 40
0.0
 40
0.0
 40
0.4601364636755307
 40
1.04988694485363
 40
1.713742833862792
 40
2.320347933405154
 40
2.320347933405154
 40
2.320347933405154
 40
2.320347933405178
 10
429.8076439166145
 20
244.2633331390593
 30
0.0
 10
429.8300615737223
 20
244.4183565787393
 30
0.0
 10
429.8812116289556
 20
244.7720713966567
 30
0.0
 10
430.3170967904891
 20
245.1967990682585
 30
0.0
 10
430.9221475054965
 20
245.4159862482241
 30
0.0
 10
431.3473321296724
 20
245.3469949486136
 30
0.0
 10
431.5498837393236
 20
245.332774676437
 30
0.0
  0
ARC
  5
28B5
330
2
100
AcDbEntity
  8
0
100
AcDbCircle
 10
431.6271546697524
 20
244.1864458633058
 30
0.0
 40
1.3
100
AcDbArc
 50
4.999999999999743
 51
74.11914999171883
  0
LINE
  5
28B7
330
2
100
AcDbEntity
  8
0
100
AcDbLine
 10
476.0201289161596
 20
244.6803331390591
 30
0.0
 11
476.0201289161596
 21
202.6803181390592
 31
0.0
  0
LINE
  5
28BA
330
2
100
AcDbEntity
  8
0
100
AcDbLine
 10
474.6083979799668
 20
201.2685872028665
 30
0.0
 11
476.0201289161596
 21
202.6803181390592
 31
0.0
  0
SPLINE
  5
28BB
330
2
100
AcDbEntity
  8
0
100
AcDbSpline
210
0.0
220
0.0
230
1.0
 70
     8
 71
     3
 72
    11
 73
     7
 74
     0
 42
0.0000000001
 43
0.0000000001
 40
0.0
 40
0.0
 40
0.0
 40
0.0
 40
0.4601364636755307
 40
1.04988694485363
 40
1.713742833862792
 40
2.320347933405154
 40
2.320347933405154
 40
2.320347933405154
 40
2.320347933405178
 10
472.2326439157044
 20
244.2633331390593
 30
0.0
 10
472.2102262585967
 20
244.4183565787393
 30
0.0
 10
472.1590762033635
 20
244.7720713966567
 30
0.0
 10
471.7231910418298
 20
245.1967990682585
 30
0.0
 10
471.1181403268223
 20
245.4159862482241
 30
0.0
 10
470.6929557026466
 20
245.3469949486136
 30
0.0
 10
470.4904040929955
 20
245.332774676437
 30
0.0
  0
ARC
  5
28BC
330
2
100
AcDbEntity
  8
0
100
AcDbCircle
 10
472.5201439161597
 20
236.7803331390593
 30
0.0
 40
9.0
100
AcDbArc
 50
74.11914999171883
 51
105.8808500082811
  0
LINE
  5
28BD
330
2
100
AcDbEntity
  8
0
100
AcDbLine
 10
468.5201439161595
 20
243.1803331390593
 30
0.0
 11
476.0201439161595
 21
243.1803331390594
 31
0.0
  0
LINE
  5
28BE
330
2
100
AcDbEntity
  8
0
100
AcDbLine
 10
470.4904040929955
 20
245.332774676437
 30
0.0
 11
470.4701439161595
 21
245.5437514218985
 31
0.0
  0
LINE
  5
28BF
330
2
100
AcDbEntity
  8
0
100
AcDbLine
 10
468.5201439161595
 20
245.1803331390592
 30
0.0
 11
469.5751665265391
 21
245.1803331390592
 31
0.0
  0
LINE
  5
28C0
330
2
100
AcDbEntity
  8
0
100
AcDbLine
 10
469.0201439161596
 20
243.1803331390594
 30
0.0
 11
469.1180800550474
 21
244.2997483288777
 31
0.0
  0
LINE
  5
28C1
330
2
100
AcDbEntity
  8
0
100
AcDbLine
 10
468.5201439161595
 20
243.1803331390593
 30
0.0
 11
468.5201439161595
 21
245.1803331390594
 31
0.0
  0
LINE
  5
28C2
330
2
100
AcDbEntity
  8
0
100
AcDbLine
 10
468.0201439161595
 20
245.6803331390593
 30
0.0
 11
468.5201439161595
 21
245.1803331390592
 31
0.0
  0
ARC
  5
28C3
330
2
100
AcDbEntity
  8
0
100
AcDbCircle
 10
470.4131331625666
 20
244.1864458633058
 30
0.0
 40
1.3
100
AcDbArc
 50
105.8808500082811
 51
175.0000000000001
  0
LINE
  5
28C4
330
2
100
AcDbEntity
  8
0
100
AcDbLine
 10
476.0201439161595
 20
243.1803331390594
 30
0.0
 11
475.9222077772716
 21
244.2997483288777
 31
0.0
  0
ARC
  5
28C5
330
2
100
AcDbEntity
  8
0
100
AcDbCircle
 10
474.6271546697523
 20
244.1864458633058
 30
0.0
 40
1.3
100
AcDbArc
 50
4.999999999999743
 51
74.11914999171883
  0
LINE
  5
28C6
330
2
100
AcDbEntity
  8
0
100
AcDbLine
 10
475.0201439161594
 20
245.6803331390593
 30
0.0
 11
476.0201439161595
 21
244.6803331390592
 31
0.0
  0
LINE
  5
28C7
330
2
100
AcDbEntity
  8
0
100
AcDbLine
 10
474.5498837393236
 20
245.332774676437
 30
0.0
 11
474.5701439161595
 21
245.5437514218985
 31
0.0
  0
LINE
  5
28C8
330
2
100
AcDbEntity
  8
0
100
AcDbLine
 10
472.8076439166145
 20
244.2633331390593
 30
0.0
 11
472.2326439157044
 21
244.2633331390593
 31
0.0
  0
SPLINE
  5
28C9
330
2
100
AcDbEntity
  8
0
100
AcDbSpline
210
0.0
220
0.0
230
1.0
 70
     8
 71
     3
 72
    11
 73
     7
 74
     0
 42
0.0000000001
 43
0.0000000001
 40
0.0
 40
0.0
 40
0.0
 40
0.0
 40
0.4601364636755307
 40
1.04988694485363
 40
1.713742833862792
 40
2.320347933405154
 40
2.320347933405154
 40
2.320347933405154
 40
2.320347933405178
 10
472.8076439166145
 20
244.2633331390593
 30
0.0
 10
472.8300615737225
 20
244.4183565787393
 30
0.0
 10
472.8812116289558
 20
244.7720713966567
 30
0.0
 10
473.3170967904893
 20
245.1967990682585
 30
0.0
 10
473.9221475054968
 20
245.4159862482241
 30
0.0
 10
474.3473321296725
 20
245.3469949486136
 30
0.0
 10
474.5498837393236
 20
245.332774676437
 30
0.0
  0
LINE
  5
28CA
330
2
100
AcDbEntity
  8
0
100
AcDbLine
 10
473.8580527321861
 20
245.6803331390593
 30
0.0
 11
475.0201439161594
 21
245.6803331390593
 31
0.0
  0
LINE
  5
28CB
330
2
100
AcDbEntity
  8
CENTER
100
AcDbLine
 10
810.8213070556681
 20
228.6803181390591
 30
0.0
 11
750.734093093251
 21
228.6803181390591
 31
0.0
  0
LINE
  5
28CC
330
2
100
AcDbEntity
  8
0
100
AcDbLine
 10
800.9397912584329
 20
245.6803331390591
 30
0.0
 11
760.6156088904858
 21
245.6803331390591
 31
0.0
  0
LINE
  5
28CD
330
2
100
AcDbEntity
  8
0
100
AcDbLine
 10
804.2777070744596
 20
200.6803181390591
 30
0.0
 11
757.7777000744596
 21
200.6803181390591
 31
0.0
  0
LINE
  5
28CE
330
2
100
AcDbEntity
  8
0
100
AcDbLine
 10
805.7777070744595
 20
212.6803181390591
 30
0.0
 11
755.7777000744596
 21
212.6803181390591
 31
0.0
  0
LINE
  5
28CF
330
2
100
AcDbEntity
  8
0
100
AcDbLine
 10
805.7777070744595
 20
202.6803181390592
 30
0.0
 11
755.7777000744596
 21
202.6803181390592
 31
0.0
  0
LINE
  5
28D0
330
2
100
AcDbEntity
  8
0
100
AcDbLine
 10
805.7777070744595
 20
213.6803181390591
 30
0.0
 11
755.7777000744596
 21
213.6803181390591
 31
0.0
  0
LINE
  5
28D1
330
2
100
AcDbEntity
  8
0
100
AcDbLine
 10
798.2777000744596
 20
244.6803331390591
 30
0.0
 11
763.2777000744596
 21
244.6803331390591
 31
0.0
  0
LINE
  5
28D3
330
2
100
AcDbEntity
  8
CENTER
100
AcDbLine
 10
780.7777000744596
 20
194.2908221390591
 30
0.0
 11
780.7777000744596
 21
251.0678331390591
 31
0.0
  0
LINE
  5
28D4
330
2
100
AcDbEntity
  8
0
100
AcDbLine
 10
755.7777000744596
 20
244.6803331390591
 30
0.0
 11
755.7777000744596
 21
202.6803181390592
 31
0.0
  0
LINE
  5
28D5
330
2
100
AcDbEntity
  8
0
100
AcDbLine
 10
758.2777000744596
 20
200.6803181390591
 30
0.0
 11
758.2777000744596
 21
199.1803181390591
 31
0.0
  0
LINE
  5
28D6
330
2
100
AcDbEntity
  8
0
100
AcDbLine
 10
757.7777000744596
 20
200.6803181390591
 30
0.0
 11
755.7777000744596
 21
202.6803181390592
 31
0.0
  0
LINE
  5
28D7
330
2
100
AcDbEntity
  8
0
100
AcDbLine
 10
763.2777000744596
 20
245.1803331390591
 30
0.0
 11
762.2226774640799
 21
245.1803331390591
 31
0.0
  0
LINE
  5
28D8
330
2
100
AcDbEntity
  8
0
100
AcDbLine
 10
763.2777000744596
 20
243.1803331390591
 30
0.0
 11
755.7777000744596
 21
243.1803331390593
 31
0.0
  0
SPLINE
  5
28D9
330
2
100
AcDbEntity
  8
0
100
AcDbSpline
210
0.0
220
0.0
230
1.0
 70
     8
 71
     3
 72
    11
 73
     7
 74
     0
 42
0.0000000001
 43
0.0000000001
 40
0.0
 40
0.0
 40
0.0
 40
0.0
 40
0.4601364636755307
 40
1.04988694485363
 40
1.713742833862792
 40
2.320347933405154
 40
2.320347933405154
 40
2.320347933405154
 40
2.320347933405178
 10
758.9902000740045
 20
244.2633331390593
 30
0.0
 10
758.9677824168965
 20
244.418356578739
 30
0.0
 10
758.9166323616632
 20
244.7720713966567
 30
0.0
 10
758.4807472001297
 20
245.1967990682583
 30
0.0
 10
757.8756964851224
 20
245.4159862482241
 30
0.0
 10
757.4505118609463
 20
245.3469949486136
 30
0.0
 10
757.2479602512953
 20
245.3327746764369
 30
0.0
  0
ARC
  5
28DA
330
2
100
AcDbEntity
  8
0
100
AcDbCircle
 10
759.2777000744595
 20
236.7803331390593
 30
0.0
 40
9.0
100
AcDbArc
 50
74.11914999171883
 51
105.8808500082811
  0
LINE
  5
28DB
330
2
100
AcDbEntity
  8
0
100
AcDbLine
 10
757.939791258433
 20
245.6803331390591
 30
0.0
 11
756.7777000744596
 21
245.6803331390591
 31
0.0
  0
LINE
  5
28DC
330
2
100
AcDbEntity
  8
0
100
AcDbLine
 10
757.2479602512953
 20
245.3327746764369
 30
0.0
 11
757.2277000744593
 21
245.5437514218985
 31
0.0
  0
LINE
  5
28DD
330
2
100
AcDbEntity
  8
0
100
AcDbLine
 10
755.7777000744596
 20
243.1803331390593
 30
0.0
 11
755.8756362133473
 21
244.2997483288774
 31
0.0
  0
ARC
  5
28DE
330
2
100
AcDbEntity
  8
0
100
AcDbCircle
 10
757.1706893208666
 20
244.1864458633055
 30
0.0
 40
1.3
100
AcDbArc
 50
105.8808500082811
 51
175.0000000000001
  0
LINE
  5
28DF
330
2
100
AcDbEntity
  8
0
100
AcDbLine
 10
756.7777000744596
 20
245.6803331390591
 30
0.0
 11
755.7777000744596
 21
244.6803331390591
 31
0.0
  0
LINE
  5
28E0
330
2
100
AcDbEntity
  8
0
100
AcDbLine
 10
762.7777000744595
 20
243.1803331390593
 30
0.0
 11
762.6797639355717
 21
244.2997483288774
 31
0.0
  0
ARC
  5
28E1
330
2
100
AcDbEntity
  8
0
100
AcDbCircle
 10
761.3847108280525
 20
244.1864458633055
 30
0.0
 40
1.3
100
AcDbArc
 50
4.999999999999743
 51
74.11914999171883
  0
LINE
  5
28E2
330
2
100
AcDbEntity
  8
0
100
AcDbLine
 10
761.3074398976236
 20
245.3327746764369
 30
0.0
 11
761.3277000744595
 21
245.5437514218985
 31
0.0
  0
LINE
  5
28E3
330
2
100
AcDbEntity
  8
0
100
AcDbLine
 10
758.9902000740045
 20
244.2633331390593
 30
0.0
 11
759.5652000749145
 21
244.2633331390593
 31
0.0
  0
SPLINE
  5
28E4
330
2
100
AcDbEntity
  8
0
100
AcDbSpline
210
0.0
220
0.0
230
1.0
 70
     8
 71
     3
 72
    11
 73
     7
 74
     0
 42
0.0000000001
 43
0.0000000001
 40
0.0
 40
0.0
 40
0.0
 40
0.0
 40
0.4601364636755307
 40
1.04988694485363
 40
1.713742833862792
 40
2.320347933405154
 40
2.320347933405154
 40
2.320347933405154
 40
2.320347933405178
 10
759.5652000749145
 20
244.2633331390593
 30
0.0
 10
759.5876177320223
 20
244.418356578739
 30
0.0
 10
759.6387677872557
 20
244.7720713966567
 30
0.0
 10
760.0746529487892
 20
245.1967990682583
 30
0.0
 10
760.6797036637966
 20
245.4159862482241
 30
0.0
 10
761.1048882879726
 20
245.3469949486136
 30
0.0
 10
761.3074398976236
 20
245.3327746764369
 30
0.0
  0
LINE
  5
28E5
330
2
100
AcDbEntity
  8
0
100
AcDbLine
 10
763.7777000744596
 20
245.6803331390591
 30
0.0
 11
763.2777000744596
 21
245.1803331390591
 31
0.0
  0
LINE
  5
28E6
330
2
100
AcDbEntity
  8
0
100
AcDbLine
 10
763.2777000744596
 20
243.1803331390591
 30
0.0
 11
763.2777000744596
 21
245.1803331390592
 31
0.0
  0
LINE
  5
28E7
330
2
100
AcDbEntity
  8
0
100
AcDbLine
 10
805.7777070744595
 20
244.6803331390591
 30
0.0
 11
805.7777070744595
 21
202.6803181390592
 31
0.0
  0
LINE
  5
28E9
330
2
100
AcDbEntity
  8
0
100
AcDbLine
 10
804.2777070744596
 20
200.6803181390591
 30
0.0
 11
804.2777070744596
 21
199.1803181390591
 31
0.0
  0
LINE
  5
28EA
330
2
100
AcDbEntity
  8
0
100
AcDbLine
 10
805.7777070744595
 20
202.6803181390592
 30
0.0
 11
803.7777070744597
 21
200.6803181390591
 31
0.0
  0
SPLINE
  5
28EB
330
2
100
AcDbEntity
  8
0
100
AcDbSpline
210
0.0
220
0.0
230
1.0
 70
     8
 71
     3
 72
    11
 73
     7
 74
     0
 42
0.0000000001
 43
0.0000000001
 40
0.0
 40
0.0
 40
0.0
 40
0.0
 40
0.4601364636755307
 40
1.04988694485363
 40
1.713742833862792
 40
2.320347933405154
 40
2.320347933405154
 40
2.320347933405154
 40
2.320347933405178
 10
801.9902000740046
 20
244.2633331390593
 30
0.0
 10
801.9677824168969
 20
244.418356578739
 30
0.0
 10
801.9166323616634
 20
244.7720713966567
 30
0.0
 10
801.4807472001297
 20
245.1967990682583
 30
0.0
 10
800.8756964851224
 20
245.4159862482241
 30
0.0
 10
800.4505118609468
 20
245.3469949486136
 30
0.0
 10
800.2479602512956
 20
245.3327746764369
 30
0.0
  0
ARC
  5
28EC
330
2
100
AcDbEntity
  8
0
100
AcDbCircle
 10
802.2777000744596
 20
236.7803331390593
 30
0.0
 40
9.0
100
AcDbArc
 50
74.11914999171883
 51
105.8808500082811
  0
LINE
  5
28ED
330
2
100
AcDbEntity
  8
0
100
AcDbLine
 10
798.2777000744596
 20
243.1803331390591
 30
0.0
 11
805.7777000744597
 21
243.1803331390593
 31
0.0
  0
LINE
  5
28EE
330
2
100
AcDbEntity
  8
0
100
AcDbLine
 10
800.2479602512956
 20
245.3327746764369
 30
0.0
 11
800.2277000744596
 21
245.5437514218985
 31
0.0
  0
LINE
  5
28EF
330
2
100
AcDbEntity
  8
0
100
AcDbLine
 10
797.7777000744596
 20
245.6803331390591
 30
0.0
 11
798.2777000744596
 21
245.1803331390591
 31
0.0
  0
LINE
  5
28F0
330
2
100
AcDbEntity
  8
0
100
AcDbLine
 10
798.2777000744596
 20
243.1803331390591
 30
0.0
 11
798.2777000744596
 21
245.1803331390592
 31
0.0
  0
LINE
  5
28F1
330
2
100
AcDbEntity
  8
0
100
AcDbLine
 10
798.7777000744596
 20
243.1803331390593
 30
0.0
 11
798.8756362133474
 21
244.2997483288774
 31
0.0
  0
ARC
  5
28F2
330
2
100
AcDbEntity
  8
0
100
AcDbCircle
 10
800.1706893208666
 20
244.1864458633055
 30
0.0
 40
1.3
100
AcDbArc
 50
105.8808500082811
 51
175.0000000000001
  0
LINE
  5
28F3
330
2
100
AcDbEntity
  8
0
100
AcDbLine
 10
798.2777000744596
 20
245.1803331390591
 30
0.0
 11
799.3327226848393
 21
245.1803331390591
 31
0.0
  0
LINE
  5
28F4
330
2
100
AcDbEntity
  8
0
100
AcDbLine
 10
806.6527070744596
 20
218.1803181390591
 30
0.0
 11
804.6527070744597
 21
218.1803181390591
 31
0.0
  0
LINE
  5
28F5
330
2
100
AcDbEntity
  8
0
100
AcDbLine
 10
804.7777000744597
 20
245.6803331390591
 30
0.0
 11
805.7777000744597
 21
244.6803331390591
 31
0.0
  0
ARC
  5
28F6
330
2
100
AcDbEntity
  8
0
100
AcDbCircle
 10
804.3847108280525
 20
244.1864458633055
 30
0.0
 40
1.3
100
AcDbArc
 50
4.999999999999743
 51
74.11914999171883
  0
LINE
  5
28F7
330
2
100
AcDbEntity
  8
0
100
AcDbLine
 10
806.6527070744596
 20
239.1803181390591
 30
0.0
 11
804.6527070744597
 21
239.1803181390591
 31
0.0
  0
LINE
  5
28F8
330
2
100
AcDbEntity
  8
0
100
AcDbLine
 10
804.3074398976237
 20
245.3327746764369
 30
0.0
 11
804.3277000744597
 21
245.5437514218985
 31
0.0
  0
LINE
  5
28F9
330
2
100
AcDbEntity
  8
0
100
AcDbLine
 10
802.5652000749147
 20
244.2633331390593
 30
0.0
 11
801.9902000740046
 21
244.2633331390593
 31
0.0
  0
SPLINE
  5
28FA
330
2
100
AcDbEntity
  8
0
100
AcDbSpline
210
0.0
220
0.0
230
1.0
 70
     8
 71
     3
 72
    11
 73
     7
 74
     0
 42
0.0000000001
 43
0.0000000001
 40
0.0
 40
0.0
 40
0.0
 40
0.0
 40
0.4601364636755307
 40
1.04988694485363
 40
1.713742833862792
 40
2.320347933405154
 40
2.320347933405154
 40
2.320347933405154
 40
2.320347933405178
 10
802.5652000749147
 20
244.2633331390593
 30
0.0
 10
802.5876177320224
 20
244.418356578739
 30
0.0
 10
802.6387677872559
 20
244.7720713966567
 30
0.0
 10
803.0746529487894
 20
245.1967990682583
 30
0.0
 10
803.6797036637969
 20
245.4159862482241
 30
0.0
 10
804.1048882879726
 20
245.3469949486136
 30
0.0
 10
804.3074398976237
 20
245.3327746764369
 30
0.0
  0
LINE
  5
28FB
330
2
100
AcDbEntity
  8
0
100
AcDbLine
 10
803.615608890486
 20
245.6803331390591
 30
0.0
 11
804.7777000744597
 21
245.6803331390591
 31
0.0
  0
LINE
  5
28FC
330
2
100
AcDbEntity
  8
0
100
AcDbLine
 10
805.7777000744597
 20
243.1803331390593
 30
0.0
 11
805.6797639355718
 21
244.2997483288774
 31
0.0
  0
LINE
  5
2900
330
2
100
AcDbEntity
  8
0
100
AcDbLine
 10
803.7778070744595
 20
409.7245797406698
 30
0.0
 11
757.7778980744596
 21
409.7245797406698
 31
0.0
  0
LINE
  5
2901
330
2
100
AcDbEntity
  8
0
100
AcDbLine
 10
803.7778070744595
 20
359.7245797406698
 30
0.0
 11
757.7778980744596
 21
359.7245797406698
 31
0.0
  0
LINE
  5
2902
330
2
100
AcDbEntity
  8
CENTER
100
AcDbLine
 10
780.7777000744596
 20
414.7681867218783
 30
0.0
 11
780.7777000744596
 21
354.6809727594612
 31
0.0
  0
LINE
  5
2903
330
2
100
AcDbEntity
  8
0
100
AcDbLine
 10
757.7778980744596
 20
367.2245797406698
 30
0.0
 11
757.7778980744596
 21
402.2245797406696
 31
0.0
  0
LINE
  5
2904
330
2
100
AcDbEntity
  8
0
100
AcDbLine
 10
755.7777000744596
 20
361.7245797406698
 30
0.0
 11
755.7778980744595
 21
407.7245797406698
 31
0.0
  0
ARC
  5
2906
330
2
100
AcDbEntity
  8
0
100
AcDbCircle
 10
759.2777000744596
 20
363.2245797406698
 30
0.0
 40
4.0
100
AcDbArc
 50
0.0
 51
90.0
  0
ARC
  5
2907
330
2
100
AcDbEntity
  8
0
100
AcDbCircle
 10
757.2480000744596
 20
361.19487974067
 30
0.0
 40
1.742199999999999
100
AcDbArc
 50
359.9986903345002
 51
90.00130966549972
  0
ARC
  5
2908
330
2
100
AcDbEntity
  8
0
100
AcDbCircle
 10
757.2480000744596
 20
365.2542797406697
 30
0.0
 40
1.742199999999999
100
AcDbArc
 50
269.9986903345035
 51
0.0013096654997424
  0
LINE
  5
2909
330
2
100
AcDbEntity
  8
0
100
AcDbLine
 10
759.2778980744595
 20
367.2245797406698
 30
0.0
 11
755.7778980744595
 21
367.2245797406698
 31
0.0
  0
CIRCLE
  5
290A
330
2
100
AcDbEntity
  8
0
100
AcDbCircle
 10
759.2777000744596
 20
363.2245797406698
 30
0.0
 40
3.500000000000028
  0
ARC
  5
290B
330
2
100
AcDbEntity
  8
0
100
AcDbCircle
 10
759.2777000744596
 20
363.2245797406698
 30
0.0
 40
2.049999999999998
100
AcDbArc
 50
171.9380399160177
 51
180.0
  0
ARC
  5
290C
330
2
100
AcDbEntity
  8
0
100
AcDbCircle
 10
759.2777000744596
 20
363.2245797406698
 30
0.0
 40
2.049999999999998
100
AcDbArc
 50
180.0
 51
188.061960083982
  0
LINE
  5
290D
330
2
100
AcDbEntity
  8
0
100
AcDbLine
 10
755.7777000744596
 20
361.7245797406698
 30
0.0
 11
757.7778980744596
 21
359.7245797406698
 31
0.0
  0
LINE
  5
290E
330
2
100
AcDbEntity
  8
0
100
AcDbLine
 10
755.7778980744595
 20
361.7245797406698
 30
0.0
 11
757.7778980744596
 21
359.7245797406698
 31
0.0
  0
LINE
  5
290F
330
2
100
AcDbEntity
  8
0
100
AcDbLine
 10
755.7778980744595
 20
361.7245797406698
 30
0.0
 11
757.7778980744596
 21
359.7245797406698
 31
0.0
  0
ARC
  5
2910
330
2
100
AcDbEntity
  8
0
100
AcDbCircle
 10
761.3074000744596
 20
361.19487974067
 30
0.0
 40
1.742199999999999
100
AcDbArc
 50
89.9986903345035
 51
180.0013096654996
  0
ARC
  5
2911
330
2
100
AcDbEntity
  8
0
100
AcDbCircle
 10
761.3074000744596
 20
365.2542797406697
 30
0.0
 40
1.742199999999999
100
AcDbArc
 50
179.9986903345001
 51
270.0013096654964
  0
ARC
  5
2912
330
2
100
AcDbEntity
  8
0
100
AcDbCircle
 10
759.2777000744596
 20
363.2245797406698
 30
0.0
 40
2.049999999999998
100
AcDbArc
 50
270.0
 51
278.0619600839819
  0
ARC
  5
2913
330
2
100
AcDbEntity
  8
0
100
AcDbCircle
 10
759.2777000744596
 20
363.2245797406698
 30
0.0
 40
2.049999999999998
100
AcDbArc
 50
261.9380399160177
 51
270.0
  0
ARC
  5
2914
330
2
100
AcDbEntity
  8
0
100
AcDbCircle
 10
759.2777000744596
 20
363.2245797406698
 30
0.0
 40
2.049999999999998
100
AcDbArc
 50
81.93803991601789
 51
90.0
  0
ARC
  5
2915
330
2
100
AcDbEntity
  8
0
100
AcDbCircle
 10
759.2777000744596
 20
363.2245797406698
 30
0.0
 40
2.049999999999998
100
AcDbArc
 50
90.0
 51
98.06196008398213
  0
ARC
  5
2916
330
2
100
AcDbEntity
  8
0
100
AcDbCircle
 10
759.2777000744596
 20
363.2245797406698
 30
0.0
 40
2.049999999999998
100
AcDbArc
 50
0.0
 51
8.061960083982105
  0
ARC
  5
2917
330
2
100
AcDbEntity
  8
0
100
AcDbCircle
 10
759.2777000744596
 20
363.2245797406698
 30
0.0
 40
2.049999999999998
100
AcDbArc
 50
351.9380399160178
 51
0.0
  0
LINE
  5
2918
330
2
100
AcDbEntity
  8
0
100
AcDbLine
 10
763.2778980744595
 20
361.7245797406698
 30
0.0
 11
798.2778070744595
 21
361.7245797406698
 31
0.0
  0
LINE
  5
2919
330
2
100
AcDbEntity
  8
0
100
AcDbLine
 10
763.2778980744595
 20
363.2245797406698
 30
0.0
 11
763.2778980744595
 21
359.7247637406698
 31
0.0
  0
ARC
  5
291A
330
2
100
AcDbEntity
  8
0
100
AcDbCircle
 10
759.2777000744596
 20
406.2246717406698
 30
0.0
 40
4.0
100
AcDbArc
 50
270.0
 51
0.0
  0
ARC
  5
291B
330
2
100
AcDbEntity
  8
0
100
AcDbCircle
 10
757.2480000744596
 20
404.19497174067
 30
0.0
 40
1.742199999999999
100
AcDbArc
 50
359.9986903345002
 51
90.00130966549972
  0
ARC
  5
291C
330
2
100
AcDbEntity
  8
0
100
AcDbCircle
 10
761.3074000744596
 20
404.19497174067
 30
0.0
 40
1.742199999999999
100
AcDbArc
 50
89.9986903345035
 51
180.0013096654996
  0
ARC
  5
291D
330
2
100
AcDbEntity
  8
0
100
AcDbCircle
 10
759.2777000744596
 20
406.2246717406698
 30
0.0
 40
2.049999999999998
100
AcDbArc
 50
180.0
 51
188.061960083982
  0
ARC
  5
291E
330
2
100
AcDbEntity
  8
0
100
AcDbCircle
 10
759.2777000744596
 20
406.2246717406698
 30
0.0
 40
2.049999999999998
100
AcDbArc
 50
351.9380399160178
 51
0.0
  0
CIRCLE
  5
291F
330
2
100
AcDbEntity
  8
0
100
AcDbCircle
 10
759.2777000744596
 20
406.2246717406698
 30
0.0
 40
3.500000000000028
  0
LINE
  5
2921
330
2
100
AcDbEntity
  8
0
100
AcDbLine
 10
759.2778980744595
 20
402.2245797406696
 30
0.0
 11
755.7778980744595
 21
402.2245797406696
 31
0.0
  0
ARC
  5
2922
330
2
100
AcDbEntity
  8
0
100
AcDbCircle
 10
759.2777000744596
 20
406.2246717406698
 30
0.0
 40
2.049999999999998
100
AcDbArc
 50
270.0
 51
278.0619600839819
  0
ARC
  5
2923
330
2
100
AcDbEntity
  8
0
100
AcDbCircle
 10
759.2777000744596
 20
406.2246717406698
 30
0.0
 40
2.049999999999998
100
AcDbArc
 50
261.9380399160177
 51
270.0
  0
ARC
  5
2924
330
2
100
AcDbEntity
  8
0
100
AcDbCircle
 10
757.2480000744596
 20
408.2543717406697
 30
0.0
 40
1.742199999999999
100
AcDbArc
 50
269.9986903345035
 51
0.0013096654997424
  0
ARC
  5
2925
330
2
100
AcDbEntity
  8
0
100
AcDbCircle
 10
759.2777000744596
 20
406.2246717406698
 30
0.0
 40
2.049999999999998
100
AcDbArc
 50
171.9380399160177
 51
180.0
  0
LINE
  5
2926
330
2
100
AcDbEntity
  8
0
100
AcDbLine
 10
757.7778980744596
 20
409.7245797406698
 30
0.0
 11
755.7778980744595
 21
407.7245797406698
 31
0.0
  0
LINE
  5
2927
330
2
100
AcDbEntity
  8
0
100
AcDbLine
 10
755.7778980744595
 20
407.7245797406698
 30
0.0
 11
757.7778980744596
 21
409.7245797406698
 31
0.0
  0
ARC
  5
2928
330
2
100
AcDbEntity
  8
0
100
AcDbCircle
 10
761.3074000744596
 20
408.2543717406697
 30
0.0
 40
1.742199999999999
100
AcDbArc
 50
179.9986903345001
 51
270.0013096654964
  0
ARC
  5
2929
330
2
100
AcDbEntity
  8
0
100
AcDbCircle
 10
759.2777000744596
 20
406.2246717406698
 30
0.0
 40
2.049999999999998
100
AcDbArc
 50
81.93803991601789
 51
90.0
  0
ARC
  5
292A
330
2
100
AcDbEntity
  8
0
100
AcDbCircle
 10
759.2777000744596
 20
406.2246717406698
 30
0.0
 40
2.049999999999998
100
AcDbArc
 50
90.0
 51
98.06196008398213
  0
ARC
  5
292B
330
2
100
AcDbEntity
  8
0
100
AcDbCircle
 10
759.2777000744596
 20
406.2246717406698
 30
0.0
 40
2.049999999999998
100
AcDbArc
 50
0.0
 51
8.061960083982105
  0
LINE
  5
292C
330
2
100
AcDbEntity
  8
0
100
AcDbLine
 10
763.2778980744595
 20
407.7245797406698
 30
0.0
 11
798.2778070744595
 21
407.7245797406698
 31
0.0
  0
LINE
  5
292D
330
2
100
AcDbEntity
  8
0
100
AcDbLine
 10
763.2778980744595
 20
406.2246717406698
 30
0.0
 11
763.2778980744595
 21
409.7245797406698
 31
0.0
  0
LINE
  5
292E
330
2
100
AcDbEntity
  8
0
100
AcDbLine
 10
803.7778070744595
 20
367.2245797406698
 30
0.0
 11
803.7778070744595
 21
402.2245797406696
 31
0.0
  0
LINE
  5
292F
330
2
100
AcDbEntity
  8
0
100
AcDbLine
 10
805.7778070744596
 20
407.7245797406698
 30
0.0
 11
805.7778070744596
 21
361.7245797406698
 31
0.0
  0
ARC
  5
2930
330
2
100
AcDbEntity
  8
0
100
AcDbCircle
 10
800.2481070744597
 20
361.19487974067
 30
0.0
 40
1.742199999999999
100
AcDbArc
 50
359.9986903345002
 51
90.00130966549972
  0
ARC
  5
2931
330
2
100
AcDbEntity
  8
0
100
AcDbCircle
 10
800.2481070744597
 20
365.2542797406697
 30
0.0
 40
1.742199999999999
100
AcDbArc
 50
269.9986903345035
 51
0.0013096654997424
  0
CIRCLE
  5
2932
330
2
100
AcDbEntity
  8
0
100
AcDbCircle
 10
802.2778070744596
 20
363.2245797406698
 30
0.0
 40
3.500000000000028
  0
ARC
  5
2933
330
2
100
AcDbEntity
  8
0
100
AcDbCircle
 10
802.2778070744596
 20
363.2245797406698
 30
0.0
 40
4.0
100
AcDbArc
 50
90.0
 51
180.0
  0
ARC
  5
2934
330
2
100
AcDbEntity
  8
0
100
AcDbCircle
 10
802.2778070744596
 20
363.2245797406698
 30
0.0
 40
2.049999999999998
100
AcDbArc
 50
171.9380399160177
 51
180.0
  0
ARC
  5
2935
330
2
100
AcDbEntity
  8
0
100
AcDbCircle
 10
802.2778070744596
 20
363.2245797406698
 30
0.0
 40
2.049999999999998
100
AcDbArc
 50
180.0
 51
188.061960083982
  0
LINE
  5
2936
330
2
100
AcDbEntity
  8
0
100
AcDbLine
 10
798.2778070744595
 20
363.2245797406698
 30
0.0
 11
798.2778070744595
 21
359.7247637406698
 31
0.0
  0
LINE
  5
2937
330
2
100
AcDbEntity
  8
0
100
AcDbLine
 10
802.2778070744596
 20
367.2245797406698
 30
0.0
 11
805.7778070744596
 21
367.2245797406698
 31
0.0
  0
LINE
  5
2938
330
2
100
AcDbEntity
  8
0
100
AcDbLine
 10
805.7778070744596
 20
361.7245797406698
 30
0.0
 11
803.7778070744595
 21
359.7245797406698
 31
0.0
  0
LINE
  5
2939
330
2
100
AcDbEntity
  8
0
100
AcDbLine
 10
805.7778070744596
 20
361.7245797406698
 30
0.0
 11
803.7778070744595
 21
359.7245797406698
 31
0.0
  0
ARC
  5
293A
330
2
100
AcDbEntity
  8
0
100
AcDbCircle
 10
802.2778070744596
 20
363.2245797406698
 30
0.0
 40
2.049999999999998
100
AcDbArc
 50
0.0
 51
8.061960083982105
  0
ARC
  5
293B
330
2
100
AcDbEntity
  8
0
100
AcDbCircle
 10
802.2778070744596
 20
363.2245797406698
 30
0.0
 40
2.049999999999998
100
AcDbArc
 50
351.9380399160178
 51
0.0
  0
ARC
  5
293C
330
2
100
AcDbEntity
  8
0
100
AcDbCircle
 10
802.2778070744596
 20
363.2245797406698
 30
0.0
 40
2.049999999999998
100
AcDbArc
 50
270.0
 51
278.0619600839819
  0
ARC
  5
293D
330
2
100
AcDbEntity
  8
0
100
AcDbCircle
 10
802.2778070744596
 20
363.2245797406698
 30
0.0
 40
2.049999999999998
100
AcDbArc
 50
261.9380399160177
 51
270.0
  0
ARC
  5
293E
330
2
100
AcDbEntity
  8
0
100
AcDbCircle
 10
802.2778070744596
 20
363.2245797406698
 30
0.0
 40
2.049999999999998
100
AcDbArc
 50
81.93803991601789
 51
90.0
  0
ARC
  5
293F
330
2
100
AcDbEntity
  8
0
100
AcDbCircle
 10
802.2778070744596
 20
363.2245797406698
 30
0.0
 40
2.049999999999998
100
AcDbArc
 50
90.0
 51
98.06196008398213
  0
ARC
  5
2940
330
2
100
AcDbEntity
  8
0
100
AcDbCircle
 10
804.3075070744595
 20
361.19487974067
 30
0.0
 40
1.742199999999999
100
AcDbArc
 50
89.9986903345035
 51
180.0013096654996
  0
ARC
  5
2941
330
2
100
AcDbEntity
  8
0
100
AcDbCircle
 10
804.3075070744595
 20
365.2542797406697
 30
0.0
 40
1.742199999999999
100
AcDbArc
 50
179.9986903345001
 51
270.0013096654964
  0
ARC
  5
2942
330
2
100
AcDbEntity
  8
0
100
AcDbCircle
 10
800.2481070744597
 20
408.2543717406697
 30
0.0
 40
1.742199999999999
100
AcDbArc
 50
269.9986903345035
 51
0.0013096654997424
  0
ARC
  5
2943
330
2
100
AcDbEntity
  8
0
100
AcDbCircle
 10
800.2481070744597
 20
404.19497174067
 30
0.0
 40
1.742199999999999
100
AcDbArc
 50
359.9986903345002
 51
90.00130966549972
  0
CIRCLE
  5
2944
330
2
100
AcDbEntity
  8
0
100
AcDbCircle
 10
802.2778070744596
 20
406.2246717406698
 30
0.0
 40
3.500000000000028
  0
ARC
  5
2945
330
2
100
AcDbEntity
  8
0
100
AcDbCircle
 10
802.2778070744596
 20
406.2246717406698
 30
0.0
 40
4.0
100
AcDbArc
 50
180.0
 51
270.0
  0
ARC
  5
2946
330
2
100
AcDbEntity
  8
0
100
AcDbCircle
 10
802.2778070744596
 20
406.2246717406698
 30
0.0
 40
2.049999999999998
100
AcDbArc
 50
180.0
 51
188.061960083982
  0
ARC
  5
2947
330
2
100
AcDbEntity
  8
0
100
AcDbCircle
 10
802.2778070744596
 20
406.2246717406698
 30
0.0
 40
2.049999999999998
100
AcDbArc
 50
171.9380399160177
 51
180.0
  0
LINE
  5
2948
330
2
100
AcDbEntity
  8
0
100
AcDbLine
 10
798.2778070744595
 20
406.2246717406698
 30
0.0
 11
798.2778070744595
 21
409.7245797406698
 31
0.0
  0
ARC
  5
2949
330
2
100
AcDbEntity
  8
0
100
AcDbCircle
 10
804.3075070744595
 20
404.19497174067
 30
0.0
 40
1.742199999999999
100
AcDbArc
 50
89.9986903345035
 51
180.0013096654996
  0
ARC
  5
294A
330
2
100
AcDbEntity
  8
0
100
AcDbCircle
 10
802.2778070744596
 20
406.2246717406698
 30
0.0
 40
2.049999999999998
100
AcDbArc
 50
351.9380399160178
 51
0.0
  0
LINE
  5
294C
330
2
100
AcDbEntity
  8
0
100
AcDbLine
 10
802.2778070744596
 20
402.2245797406696
 30
0.0
 11
805.7778070744596
 21
402.2245797406696
 31
0.0
  0
ARC
  5
294D
330
2
100
AcDbEntity
  8
0
100
AcDbCircle
 10
802.2778070744596
 20
406.2246717406698
 30
0.0
 40
2.049999999999998
100
AcDbArc
 50
270.0
 51
278.0619600839819
  0
ARC
  5
294E
330
2
100
AcDbEntity
  8
0
100
AcDbCircle
 10
802.2778070744596
 20
406.2246717406698
 30
0.0
 40
2.049999999999998
100
AcDbArc
 50
261.9380399160177
 51
270.0
  0
LINE
  5
294F
330
2
100
AcDbEntity
  8
0
100
AcDbLine
 10
805.7778070744596
 20
407.7245797406698
 30
0.0
 11
803.7778070744595
 21
409.7245797406698
 31
0.0
  0
ARC
  5
2950
330
2
100
AcDbEntity
  8
0
100
AcDbCircle
 10
802.2778070744596
 20
406.2246717406698
 30
0.0
 40
2.049999999999998
100
AcDbArc
 50
0.0
 51
8.061960083982105
  0
ARC
  5
2951
330
2
100
AcDbEntity
  8
0
100
AcDbCircle
 10
802.2778070744596
 20
406.2246717406698
 30
0.0
 40
2.049999999999998
100
AcDbArc
 50
81.93803991601789
 51
90.0
  0
ARC
  5
2952
330
2
100
AcDbEntity
  8
0
100
AcDbCircle
 10
802.2778070744596
 20
406.2246717406698
 30
0.0
 40
2.049999999999998
100
AcDbArc
 50
90.0
 51
98.06196008398213
  0
ARC
  5
2953
330
2
100
AcDbEntity
  8
0
100
AcDbCircle
 10
804.3075070744595
 20
408.2543717406697
 30
0.0
 40
1.742199999999999
100
AcDbArc
 50
179.9986903345001
 51
270.0013096654964
  0
LINE
  5
29D8
330
2
100
AcDbEntity
  8
0
100
AcDbLine
 10
755.7778980744597
 20
407.7245797406698
 30
0.0
 11
720.7191130744596
 21
407.7245797406698
 31
0.0
  0
LINE
  5
29D9
330
2
100
AcDbEntity
  8
0
100
AcDbLine
 10
755.7777000744596
 20
361.7245797406698
 30
0.0
 11
720.7191130744596
 21
361.7245797406698
 31
0.0
  0
ENDSEC
  0
SECTION
  2
OBJECTS
  0
DICTIONARY
  5
7
330
0
100
AcDbDictionary
  3
ACAD_GROUP
350
75
  3
ACAD_LAYOUT
350
61
  3
ACAD_MLINESTYLE
350
76
  3
ACAD_PLOTSETTINGS
350
77
  3
ACAD_PLOTSTYLENAME
350
6
  3
ACADDIM
350
480
  3
ACDBHEADERROUNDTRIPXREC
350
2B58
  3
ACDBVARIABLEDICTIONARY
350
102
  3
DWGPROPS
350
3D2
  0
DICTIONARY
  5
2B33
330
2
100
AcDbDictionary
280
     1
  3
ACAD_LAYOUTSELFREF
360
2B79
  0
DICTIONARY
  5
2B7A
330
2B52
100
AcDbDictionary
280
     1
  3
ACAD_LAYOUTSELFREF
360
2B7B
  0
DICTIONARY
  5
75
102
{ACAD_REACTORS
330
7
102
}
330
7
100
AcDbDictionary
  0
DICTIONARY
  5
61
102
{ACAD_REACTORS
330
7
102
}
330
7
100
AcDbDictionary
  0
DICTIONARY
  5
76
102
{ACAD_REACTORS
330
7
102
}
330
7
100
AcDbDictionary
  3
STANDARD
350
78
  0
DICTIONARY
  5
77
102
{ACAD_REACTORS
330
7
102
}
330
7
100
AcDbDictionary
  0
ACDBDICTIONARYWDFLT
  5
6
102
{ACAD_REACTORS
330
7
102
}
330
7
100
AcDbDictionary
281
     1
  3
Normal
350
5
100
AcDbDictionaryWithDefault
340
5
  0
XRECORD
  5
480
102
{ACAD_REACTORS
330
7
102
}
330
7
100
AcDbXrecord
 90
   990106
  3

 60
     0
 61
     0
 62
     1
 63
     3
 64
     1
 65
     0
 66
     0
 67
     3
 68
     1
 69
     0
 70
     0
 71
     0
 72
     0
 40
0.0
170
     2
340
0
  0
DICTIONARY
  5
2B58
102
{ACAD_REACTORS
330
7
102
}
330
7
100
AcDbDictionary
  3
CEPSNTYPE
350
2B62
  3
DIMSTYLEDATA
350
2B66
  3
FINGERPRINTGUID
350
2B63
  3
HYPERLINKBASE
350
2B5B
  3
INSUNITS
350
2B61
  3
LAYOUTDICT
350
2B5D
  3
LWETCUNION
350
2B60
  3
PLOTSETDICT
350
2B5E
  3
PLOTSTYLNAMDICT
350
2B5F
  3
PSVPSCALE
350
2B65
  3
PUCSBASE
350
2B69
  3
PUCSORGBACK
350
2B6F
  3
PUCSORGBOTTOM
350
2B6B
  3
PUCSORGFRONT
350
2B6E
  3
PUCSORGLEFT
350
2B6C
  3
PUCSORGRIGHT
350
2B6D
  3
PUCSORGTOP
350
2B6A
  3
PUCSORTHOREF
350
2B67
  3
PUCSORTHOVIEW
350
2B68
  3
STYLESHEET
350
2B5C
  3
TSTACKALIGN
350
2B59
  3
TSTACKSIZE
350
2B5A
  3
UCSBASE
350
2B72
  3
UCSORGBACK
350
2B78
  3
UCSORGBOTTOM
350
2B74
  3
UCSORGFRONT
350
2B77
  3
UCSORGLEFT
350
2B75
  3
UCSORGRIGHT
350
2B76
  3
UCSORGTOP
350
2B73
  3
UCSORTHOREF
350
2B70
  3
UCSORTHOVIEW
350
2B71
  3
VERSIONGUID
350
2B64
  0
DICTIONARY
  5
102
102
{ACAD_REACTORS
330
7
102
}
330
7
100
AcDbDictionary
  3
DIMASSOC
350
103
  0
XRECORD
  5
3D2
102
{ACAD_REACTORS
330
7
102
}
330
7
100
AcDbXrecord
  1
DWGPROPS COOKIE
  2

  3

  4

  6

  7

  8

  9

300
=
301
=
302
=
303
=
304
=
305
=
306
=
307
=
308
=
309
=
 40
0.5353330671296296
 41
2452052.431989363
 42
2453406.550756376
  1

 90
        0
  0
XRECORD
  5
2B79
102
{ACAD_REACTORS
330
2B33
102
}
330
2B33
100
AcDbXrecord
340
2
  0
XRECORD
  5
2B7B
102
{ACAD_REACTORS
330
2B7A
102
}
330
2B7A
100
AcDbXrecord
340
2B52
  0
MLINESTYLE
  5
78
102
{ACAD_REACTORS
330
76
102
}
330
76
100
AcDbMlineStyle
  2
STANDARD
 70
     0
  3

 62
     0
 51
90.0
 52
90.0
 71
     2
 49
0.5
 62
   256
  6
BYLAYER
 49
-0.5
 62
   256
  6
BYLAYER
  0
ACDBPLACEHOLDER
  5
5
102
{ACAD_REACTORS
330
6
102
}
330
6
100
AcDbPlaceHolder
280
     0
  0
XRECORD
  5
2B62
102
{ACAD_REACTORS
330
2B58
102
}
330
2B58
100
AcDbXrecord
 90
        0
  0
XRECORD
  5
2B66
102
{ACAD_REACTORS
330
2B58
102
}
330
2B58
100
AcDbXrecord
1000
DSTYLE
1002
{
1070
   179
 70
     2
1002
}
  0
XRECORD
  5
2B63
102
{ACAD_REACTORS
330
2B58
102
}
330
2B58
100
AcDbXrecord
  1
{6385560B-F4B1-4644-A7C2-A3E32AC3D232}
  0
XRECORD
  5
2B5B
102
{ACAD_REACTORS
330
2B58
102
}
330
2B58
100
AcDbXrecord
  1

  0
XRECORD
  5
2B61
102
{ACAD_REACTORS
330
2B58
102
}
330
2B58
100
AcDbXrecord
 90
        0
  0
XRECORD
  5
2B5D
102
{ACAD_REACTORS
330
2B58
102
}
330
2B58
100
AcDbXrecord
340
61
  0
XRECORD
  5
2B60
102
{ACAD_REACTORS
330
2B58
102
}
330
2B58
100
AcDbXrecord
 90
    10781
  0
XRECORD
  5
2B5E
102
{ACAD_REACTORS
330
2B58
102
}
330
2B58
100
AcDbXrecord
340
77
  0
XRECORD
  5
2B5F
102
{ACAD_REACTORS
330
2B58
102
}
330
2B58
100
AcDbXrecord
340
6
  0
XRECORD
  5
2B65
102
{ACAD_REACTORS
330
2B58
102
}
330
2B58
100
AcDbXrecord
 40
0.0
  0
XRECORD
  5
2B69
102
{ACAD_REACTORS
330
2B58
102
}
330
2B58
100
AcDbXrecord
340
0
  0
XRECORD
  5
2B6F
102
{ACAD_REACTORS
330
2B58
102
}
330
2B58
100
AcDbXrecord
 10
0.0
 20
0.0
 30
0.0
  0
XRECORD
  5
2B6B
102
{ACAD_REACTORS
330
2B58
102
}
330
2B58
100
AcDbXrecord
 10
0.0
 20
0.0
 30
0.0
  0
XRECORD
  5
2B6E
102
{ACAD_REACTORS
330
2B58
102
}
330
2B58
100
AcDbXrecord
 10
0.0
 20
0.0
 30
0.0
  0
XRECORD
  5
2B6C
102
{ACAD_REACTORS
330
2B58
102
}
330
2B58
100
AcDbXrecord
 10
0.0
 20
0.0
 30
0.0
  0
XRECORD
  5
2B6D
102
{ACAD_REACTORS
330
2B58
102
}
330
2B58
100
AcDbXrecord
 10
0.0
 20
0.0
 30
0.0
  0
XRECORD
  5
2B6A
102
{ACAD_REACTORS
330
2B58
102
}
330
2B58
100
AcDbXrecord
 10
0.0
 20
0.0
 30
0.0
  0
XRECORD
  5
2B67
102
{ACAD_REACTORS
330
2B58
102
}
330
2B58
100
AcDbXrecord
340
0
  0
XRECORD
  5
2B68
102
{ACAD_REACTORS
330
2B58
102
}
330
2B58
100
AcDbXrecord
 70
     0
  0
XRECORD
  5
2B5C
102
{ACAD_REACTORS
330
2B58
102
}
330
2B58
100
AcDbXrecord
  1
Sekkei.ctb
  0
XRECORD
  5
2B59
102
{ACAD_REACTORS
330
2B58
102
}
330
2B58
100
AcDbXrecord
 90
        1
  0
XRECORD
  5
2B5A
102
{ACAD_REACTORS
330
2B58
102
}
330
2B58
100
AcDbXrecord
 90
       70
  0
XRECORD
  5
2B72
102
{ACAD_REACTORS
330
2B58
102
}
330
2B58
100
AcDbXrecord
340
0
  0
XRECORD
  5
2B78
102
{ACAD_REACTORS
330
2B58
102
}
330
2B58
100
AcDbXrecord
 10
0.0
 20
0.0
 30
0.0
  0
XRECORD
  5
2B74
102
{ACAD_REACTORS
330
2B58
102
}
330
2B58
100
AcDbXrecord
 10
0.0
 20
0.0
 30
0.0
  0
XRECORD
  5
2B77
102
{ACAD_REACTORS
330
2B58
102
}
330
2B58
100
AcDbXrecord
 10
0.0
 20
0.0
 30
0.0
  0
XRECORD
  5
2B75
102
{ACAD_REACTORS
330
2B58
102
}
330
2B58
100
AcDbXrecord
 10
0.0
 20
0.0
 30
0.0
  0
XRECORD
  5
2B76
102
{ACAD_REACTORS
330
2B58
102
}
330
2B58
100
AcDbXrecord
 10
0.0
 20
0.0
 30
0.0
  0
XRECORD
  5
2B73
102
{ACAD_REACTORS
330
2B58
102
}
330
2B58
100
AcDbXrecord
 10
0.0
 20
0.0
 30
0.0
  0
XRECORD
  5
2B70
102
{ACAD_REACTORS
330
2B58
102
}
330
2B58
100
AcDbXrecord
340
0
  0
XRECORD
  5
2B71
102
{ACAD_REACTORS
330
2B58
102
}
330
2B58
100
AcDbXrecord
 70
     0
  0
XRECORD
  5
2B64
102
{ACAD_REACTORS
330
2B58
102
}
330
2B58
100
AcDbXrecord
  1
{550E6C7B-DCAD-4A54-AA12-558C46962814}
  0
DICTIONARYVAR
  5
103
102
{ACAD_REACTORS
330
102
102
}
330
102
100
DictionaryVariables
280
     0
  1
1
  0
ENDSEC
  0
EOF
