  0
SECTION
  2
HEADER
  9
$ACADVER
  1
AC1014
  9
$ACADMAINTVER
 70
     9
  9
$DWGCODEPAGE
  3
ANSI_932
  9
$INSBASE
 10
0.0
 20
0.0
 30
0.0
  9
$EXTMIN
 10
82.49734126498795
 20
15.34275674052428
 30
0.0
  9
$EXTMAX
 10
863.7982370426938
 20
434.2197267406698
 30
0.0
  9
$LIMMIN
 10
0.0
 20
0.0
  9
$LIMMAX
 10
297.0
 20
210.0
  9
$ORTHOMODE
 70
     1
  9
$REGENMODE
 70
     1
  9
$FILLMODE
 70
     1
  9
$QTEXTMODE
 70
     0
  9
$MIRRTEXT
 70
     0
  9
$DRAGMODE
 70
     2
  9
$LTSCALE
 40
3.0
  9
$OSMODE
 70
    37
  9
$ATTMODE
 70
     1
  9
$TEXTSIZE
 40
2.0
  9
$TRACEWID
 40
1.0
  9
$TEXTSTYLE
  7
STANDARD
  9
$CLAYER
  8
0
  9
$CELTYPE
  6
BYLAYER
  9
$CECOLOR
 62
   256
  9
$CELTSCALE
 40
1.0
  9
$DELOBJ
 70
     1
  9
$DISPSILH
 70
     0
  9
$DIMSCALE
 40
3.0
  9
$DIMASZ
 40
1.8
  9
$DIMEXO
 40
0.625
  9
$DIMDLI
 40
3.75
  9
$DIMRND
 40
0.0
  9
$DIMDLE
 40
0.0
  9
$DIMEXE
 40
0.8
  9
$DIMTP
 40
0.0
  9
$DIMTM
 40
0.0
  9
$DIMTXT
 40
1.8
  9
$DIMCEN
 40
2.5
  9
$DIMTSZ
 40
0.0
  9
$DIMTOL
 70
     0
  9
$DIMLIM
 70
     0
  9
$DIMTIH
 70
     0
  9
$DIMTOH
 70
     0
  9
$DIMSE1
 70
     0
  9
$DIMSE2
 70
     0
  9
$DIMTAD
 70
     1
  9
$DIMZIN
 70
     8
  9
$DIMBLK
  1

  9
$DIMASO
 70
     1
  9
$DIMSHO
 70
     1
  9
$DIMPOST
  1

  9
$DIMAPOST
  1

  9
$DIMALT
 70
     0
  9
$DIMALTD
 70
     4
  9
$DIMALTF
 40
0.0394
  9
$DIMLFAC
 40
1.0
  9
$DIMTOFL
 70
     1
  9
$DIMTVP
 40
0.0
  9
$DIMTIX
 70
     0
  9
$DIMSOXD
 70
     0
  9
$DIMSAH
 70
     0
  9
$DIMBLK1
  1

  9
$DIMBLK2
  1

  9
$DIMSTYLE
  2
STANDARD
  9
$DIMCLRD
 70
     0
  9
$DIMCLRE
 70
     0
  9
$DIMCLRT
 70
     0
  9
$DIMTFAC
 40
1.0
  9
$DIMGAP
 40
0.75
  9
$DIMJUST
 70
     0
  9
$DIMSD1
 70
     0
  9
$DIMSD2
 70
     0
  9
$DIMTOLJ
 70
     1
  9
$DIMTZIN
 70
     0
  9
$DIMALTZ
 70
     0
  9
$DIMALTTZ
 70
     0
  9
$DIMFIT
 70
     3
  9
$DIMUPT
 70
     0
  9
$DIMUNIT
 70
     2
  9
$DIMDEC
 70
     2
  9
$DIMTDEC
 70
     2
  9
$DIMALTU
 70
     8
  9
$DIMALTTD
 70
     4
  9
$DIMTXSTY
  7
STANDARD
  9
$DIMAUNIT
 70
     0
  9
$LUNITS
 70
     2
  9
$LUPREC
 70
     3
  9
$SKETCHINC
 40
1.0
  9
$FILLETRAD
 40
10.0
  9
$AUNITS
 70
     0
  9
$AUPREC
 70
     2
  9
$MENU
  1
.
  9
$ELEVATION
 40
0.0
  9
$PELEVATION
 40
0.0
  9
$THICKNESS
 40
0.0
  9
$LIMCHECK
 70
     0
  9
$BLIPMODE
 70
     0
  9
$CHAMFERA
 40
0.0
  9
$CHAMFERB
 40
0.0
  9
$CHAMFERC
 40
20.0
  9
$CHAMFERD
 40
0.0
  9
$SKPOLY
 70
     0
  9
$TDCREATE
 40
2453557.746080729
  9
$TDUPDATE
 40
2453664.558900093
  9
$TDINDWG
 40
0.3154077894
  9
$TDUSRTIMER
 40
0.3154077894
  9
$USRTIMER
 70
     1
  9
$ANGBASE
 50
0.0
  9
$ANGDIR
 70
     0
  9
$PDMODE
 70
     0
  9
$PDSIZE
 40
-10.0
  9
$PLINEWID
 40
0.0
  9
$COORDS
 70
     2
  9
$SPLFRAME
 70
     0
  9
$SPLINETYPE
 70
     6
  9
$SPLINESEGS
 70
     8
  9
$ATTDIA
 70
     0
  9
$ATTREQ
 70
     1
  9
$HANDLING
 70
-16383
  9
$HANDSEED
  5
2A8A
  9
$SURFTAB1
 70
     6
  9
$SURFTAB2
 70
     6
  9
$SURFTYPE
 70
     6
  9
$SURFU
 70
     6
  9
$SURFV
 70
     6
  9
$UCSNAME
  2

  9
$UCSORG
 10
0.0
 20
0.0
 30
0.0
  9
$UCSXDIR
 10
1.0
 20
0.0
 30
0.0
  9
$UCSYDIR
 10
0.0
 20
1.0
 30
0.0
  9
$PUCSNAME
  2

  9
$PUCSORG
 10
0.0
 20
0.0
 30
0.0
  9
$PUCSXDIR
 10
1.0
 20
0.0
 30
0.0
  9
$PUCSYDIR
 10
0.0
 20
1.0
 30
0.0
  9
$USERI1
 70
     0
  9
$USERI2
 70
     0
  9
$USERI3
 70
     0
  9
$USERI4
 70
     0
  9
$USERI5
 70
     0
  9
$USERR1
 40
0.0
  9
$USERR2
 40
0.0
  9
$USERR3
 40
0.0
  9
$USERR4
 40
0.0
  9
$USERR5
 40
0.0
  9
$WORLDVIEW
 70
     1
  9
$SHADEDGE
 70
     3
  9
$SHADEDIF
 70
    70
  9
$TILEMODE
 70
     1
  9
$MAXACTVP
 70
    48
  9
$PINSBASE
 10
0.0
 20
0.0
 30
0.0
  9
$PLIMCHECK
 70
     0
  9
$PEXTMIN
 10
0.0
 20
0.0
 30
0.0
  9
$PEXTMAX
 10
0.0
 20
0.0
 30
0.0
  9
$PLIMMIN
 10
0.0
 20
0.0
  9
$PLIMMAX
 10
12.0
 20
9.0
  9
$UNITMODE
 70
     0
  9
$VISRETAIN
 70
     1
  9
$PLINEGEN
 70
     0
  9
$PSLTSCALE
 70
     1
  9
$TREEDEPTH
 70
  3020
  9
$PICKSTYLE
 70
     1
  9
$CMLSTYLE
  2
STANDARD
  9
$CMLJUST
 70
     0
  9
$CMLSCALE
 40
1.0
  9
$PROXYGRAPHICS
 70
     1
  9
$MEASUREMENT
 70
     0
  0
ENDSEC
  0
SECTION
  2
CLASSES
  0
CLASS
  1
DICTIONARYVAR
  2
AcDbDictionaryVar
  3
AutoCAD 2000
 90
        0
280
     0
281
     0
  0
CLASS
  1
ACDBDICTIONARYWDFLT
  2
AcDbDictionaryWithDefault
  3
AutoCAD 2000
 90
        0
280
     0
281
     0
  0
CLASS
  1
ACDBPLACEHOLDER
  2
AcDbPlaceHolder
  3
AutoCAD 2000
 90
        0
280
     0
281
     0
  0
CLASS
  1
LAYOUT
  2
AcDbLayout
  3
AutoCAD 2000
 90
        0
280
     0
281
     0
  0
CLASS
  1
LONG_TRANSACTION
  2
AcDbLongTransaction
  3
AutoCAD 2000
 90
        0
280
     0
281
     0
  0
CLASS
  1
LWPOLYLINE
  2
AcDbPolyline
  3
AutoCAD 2000
 90
        0
280
     0
281
     1
  0
CLASS
  1
HATCH
  2
AcDbHatch
  3
AutoCAD 2000
 90
        0
280
     0
281
     1
  0
CLASS
  1
XRECORD
  2
AcDbXrecord
  3
AutoCAD 2000
 90
        0
280
     0
281
     0
  0
CLASS
  1
LONG_TRANSACTION
  2
AcDbLongTransaction
  3
AutoCAD 2000
 90
        0
280
     0
281
     0
  0
CLASS
  1
LWPOLYLINE
  2
AcDbPolyline
  3
AutoCAD 2000
 90
        0
280
     0
281
     1
  0
CLASS
  1
HATCH
  2
AcDbHatch
  3
AutoCAD 2000
 90
        0
280
     0
281
     1
  0
CLASS
  1
XRECORD
  2
AcDbXrecord
  3
AutoCAD 2000
 90
        0
280
     0
281
     0
  0
ENDSEC
  0
SECTION
  2
TABLES
  0
TABLE
  2
VPORT
  5
6E
330
0
100
AcDbSymbolTable
 70
     2
  0
VPORT
  5
2A65
330
6E
100
AcDbSymbolTableRecord
100
AcDbViewportTableRecord
  2
*ACTIVE
 70
     0
 10
0.0
 20
0.0
 11
1.0
 21
1.0
 12
481.5346354264585
 22
241.9888924170835
 13
0.0
 23
0.0
 14
10.0
 24
10.0
 15
10.0
 25
10.0
 16
0.0
 26
0.0
 36
1.0
 17
0.0
 27
0.0
 37
0.0
 40
512.0984775230304
 41
1.566970091027308
 42
50.0
 43
0.0
 44
0.0
 50
0.0
 51
0.0
 71
     0
 72
   100
 73
     1
 74
     3
 75
     0
 76
     0
 77
     0
 78
     0
  0
ENDTAB
  0
TABLE
  2
LTYPE
  5
69
330
0
100
AcDbSymbolTable
 70
     6
  0
LTYPE
  5
6A
330
69
100
AcDbSymbolTableRecord
100
AcDbLinetypeTableRecord
  2
BYBLOCK
 70
     0
  3

 72
    65
 73
     0
 40
0.0
  0
LTYPE
  5
6B
330
69
100
AcDbSymbolTableRecord
100
AcDbLinetypeTableRecord
  2
BYLAYER
 70
     0
  3

 72
    65
 73
     0
 40
0.0
  0
LTYPE
  5
8
330
69
100
AcDbSymbolTableRecord
100
AcDbLinetypeTableRecord
  2
CONTINUOUS
 70
     0
  3
Solid line
 72
    65
 73
     0
 40
0.0
  0
LTYPE
  5
27C
330
69
100
AcDbSymbolTableRecord
100
AcDbLinetypeTableRecord
  2
SEKKEI_A2_
 70
     0
  3
center(A2)  ____ _ ____ _ ____ _ ____ _ ____ _ 
 72
    65
 73
     4
 40
14.28749999999999
 49
9.525
 74
     0
 49
-1.587499999999999
 74
     0
 49
1.587499999999999
 74
     0
 49
-1.587499999999999
 74
     0
  0
LTYPE
  5
2B4
330
69
100
AcDbSymbolTableRecord
100
AcDbLinetypeTableRecord
  2
HIDDEN2
 70
     0
  3
Hidden (.5x) _ _ _ _ _ _ _ _ _ _ _ _ _ _ _ _ _
 72
    65
 73
     2
 40
4.762499999999998
 49
3.174999999999998
 74
     0
 49
-1.587499999999999
 74
     0
  0
LTYPE
  5
477
330
69
100
AcDbSymbolTableRecord
100
AcDbLinetypeTableRecord
  2
SEKKEI-P_A4_
 70
     0
  3
Phantom(A4)  ____ _ _ ____ _ _ ____ _ _ _____
 72
    65
 73
     6
 40
15.0
 49
7.5
 74
     0
 49
-1.5
 74
     0
 49
1.5
 74
     0
 49
-1.5
 74
     0
 49
1.5
 74
     0
 49
-1.5
 74
     0
  0
LTYPE
  5
48F
330
69
100
AcDbSymbolTableRecord
100
AcDbLinetypeTableRecord
  2
SEKKEI_H
 70
     0
  3
Hidden-S _ _ _ _ _ _ _ _ _ _ _ _ _ _ _ _ _
 72
    65
 73
     2
 40
2.381249999999999
 49
1.587499999999999
 74
     0
 49
-0.79375
 74
     0
  0
LTYPE
  5
494
330
69
100
AcDbSymbolTableRecord
100
AcDbLinetypeTableRecord
  2
SEKKEI_P_S
 70
     0
  3
Phantom_S   __ _ _ __ _ _ __ _ _ ___
 72
    65
 73
     6
 40
7.5
 49
3.75
 74
     0
 49
-0.75
 74
     0
 49
0.75
 74
     0
 49
-0.75
 74
     0
 49
0.75
 74
     0
 49
-0.75
 74
     0
  0
ENDTAB
  0
TABLE
  2
LAYER
  5
66
330
0
100
AcDbSymbolTable
 70
     9
  0
LAYER
  5
5E
330
66
100
AcDbSymbolTableRecord
100
AcDbLayerTableRecord
  2
0
 70
     0
 62
     7
  6
CONTINUOUS
  0
LAYER
  5
3E
330
66
100
AcDbSymbolTableRecord
100
AcDbLayerTableRecord
  2
CENTER
 70
     0
 62
     3
  6
SEKKEI_A2_
  0
LAYER
  5
135
330
66
100
AcDbSymbolTableRecord
100
AcDbLayerTableRecord
  2
DEFPOINTS
 70
     0
 62
     7
  6
CONTINUOUS
  0
LAYER
  5
2B5
330
66
100
AcDbSymbolTableRecord
100
AcDbLayerTableRecord
  2
HIDS
 70
     0
 62
     1
  6
HIDDEN2
  0
LAYER
  5
2BA
330
66
100
AcDbSymbolTableRecord
100
AcDbLayerTableRecord
  2
HOJO
 70
     0
 62
     4
  6
CONTINUOUS
  0
LAYER
  5
3FA
330
66
100
AcDbSymbolTableRecord
100
AcDbLayerTableRecord
  2
TITLE
 70
     0
 62
     4
  6
CONTINUOUS
  0
LAYER
  5
478
330
66
100
AcDbSymbolTableRecord
100
AcDbLayerTableRecord
  2
PHAS
 70
     0
 62
     2
  6
SEKKEI-P_A4_
  0
ENDTAB
  0
TABLE
  2
STYLE
  5
67
330
0
100
AcDbSymbolTable
 70
     1
  0
STYLE
  5
16
330
67
100
AcDbSymbolTableRecord
100
AcDbTextStyleTableRecord
  2
STANDARD
 70
     0
 40
0.0
 41
1.0
 50
0.0
 71
     0
 42
2.0
  3
simplex.shx
  4
extfont.shx
  0
ENDTAB
  0
TABLE
  2
VIEW
  5
6C
330
0
100
AcDbSymbolTable
 70
     0
  0
ENDTAB
  0
TABLE
  2
UCS
  5
6D
330
0
100
AcDbSymbolTable
 70
     0
  0
ENDTAB
  0
TABLE
  2
APPID
  5
70
330
0
100
AcDbSymbolTable
 70
     2
  0
APPID
  5
71
330
70
100
AcDbSymbolTableRecord
100
AcDbRegAppTableRecord
  2
ACAD
 70
     0
  0
APPID
  5
2A45
330
70
100
AcDbSymbolTableRecord
100
AcDbRegAppTableRecord
  2
CONTENTBLOCKICON
 70
     0
  0
ENDTAB
  0
TABLE
  2
DIMSTYLE
  5
72
330
0
100
AcDbSymbolTable
 70
     1
  0
DIMSTYLE
105
73
330
72
100
AcDbSymbolTableRecord
100
AcDbDimStyleTableRecord
  2
STANDARD
 70
     0
  3

  4

  5

  6

  7

 40
3.0
 41
1.8
 42
0.625
 43
3.75
 44
0.8
 45
0.0
 46
0.0
 47
0.0
 48
0.0
140
1.8
141
2.5
142
0.0
143
0.0394
144
1.0
145
0.0
146
1.0
147
0.75
 71
     0
 72
     0
 73
     0
 74
     0
 75
     0
 76
     0
 77
     1
 78
     8
170
     0
171
     4
172
     1
173
     0
174
     0
175
     0
176
     0
177
     0
178
     0
270
     2
271
     2
272
     2
273
     8
274
     4
340
16
275
     0
280
     0
281
     0
282
     0
283
     1
284
     0
285
     0
286
     0
287
     3
288
     0
  0
ENDTAB
  0
TABLE
  2
BLOCK_RECORD
  5
1
330
0
100
AcDbSymbolTable
 70
    18
  0
BLOCK_RECORD
  5
2
102
{ACAD_XDICTIONARY
360
2A41
102
}
330
1
100
AcDbSymbolTableRecord
100
AcDbBlockTableRecord
  2
*MODEL_SPACE
  0
BLOCK_RECORD
  5
2A60
102
{ACAD_XDICTIONARY
360
2A88
102
}
330
1
100
AcDbSymbolTableRecord
100
AcDbBlockTableRecord
  2
*PAPER_SPACE
  0
ENDTAB
  0
ENDSEC
  0
SECTION
  2
BLOCKS
  0
BLOCK
  5
5D
330
2
100
AcDbEntity
  8
0
100
AcDbBlockBegin
  2
*MODEL_SPACE
 70
     0
 10
0.0
 20
0.0
 30
0.0
  3
*MODEL_SPACE
  1

  0
ENDBLK
  5
5F
330
2
100
AcDbEntity
  8
0
100
AcDbBlockEnd
  0
BLOCK
  5
2A62
330
2A60
100
AcDbEntity
 67
     1
  8
0
100
AcDbBlockBegin
  2
*PAPER_SPACE
 70
     0
 10
0.0
 20
0.0
 30
0.0
  3
*PAPER_SPACE
  1

  0
ENDBLK
  5
2A63
330
2A60
100
AcDbEntity
 67
     1
  8
0
100
AcDbBlockEnd
  0
ENDSEC
  0
SECTION
  2
ENTITIES
  0
LINE
  5
814
330
2
100
AcDbEntity
  8
HIDS
100
AcDbLine
 10
428.0201439161595
 20
121.1803181390592
 30
0.0
 11
472.5886859161595
 21
121.1803181390592
 31
0.0
  0
LINE
  5
815
330
2
100
AcDbEntity
  8
HIDS
100
AcDbLine
 10
474.0201439161594
 20
201.1803181390591
 30
0.0
 11
429.4516019161595
 21
201.1803181390591
 31
0.0
  0
LINE
  5
823
330
2
100
AcDbEntity
  8
HIDS
100
AcDbLine
 10
429.9852319161595
 20
123.5474831390591
 30
0.0
 11
451.0201439161595
 21
123.1803181390592
 31
0.0
  0
LINE
  5
824
330
2
100
AcDbEntity
  8
HIDS
100
AcDbLine
 10
429.9852319161595
 20
198.8131461390591
 30
0.0
 11
451.0201439161595
 21
199.1803181390591
 31
0.0
  0
CIRCLE
  5
828
330
2
100
AcDbEntity
  8
HOJO
100
AcDbCircle
 10
315.573363233222
 20
194.6803181390592
 30
0.0
 40
4.0
  0
CIRCLE
  5
829
330
2
100
AcDbEntity
  8
0
100
AcDbCircle
 10
315.573363233222
 20
194.6803181390592
 30
0.0
 40
4.25
  0
CIRCLE
  5
82A
330
2
100
AcDbEntity
  8
HOJO
100
AcDbCircle
 10
229.573363233222
 20
194.6803181390592
 30
0.0
 40
4.0
  0
CIRCLE
  5
82B
330
2
100
AcDbEntity
  8
0
100
AcDbCircle
 10
229.573363233222
 20
194.6803181390592
 30
0.0
 40
4.25
  0
LINE
  5
82C
330
2
100
AcDbEntity
  8
HIDS
100
AcDbLine
 10
425.9160789161596
 20
199.7158561390591
 30
0.0
 11
412.4846219161595
 21
186.2843981390591
 31
0.0
  0
ARC
  5
82D
330
2
100
AcDbEntity
  8
0
100
AcDbCircle
 10
224.573363233222
 20
191.1803181390591
 30
0.0
 40
2.0
100
AcDbArc
 50
180.0
 51
270.0
  0
ARC
  5
82E
330
2
100
AcDbEntity
  8
0
100
AcDbCircle
 10
320.5733632332219
 20
191.1803181390591
 30
0.0
 40
2.0
100
AcDbArc
 50
270.0
 51
0.0
  0
LINE
  5
82F
330
2
100
AcDbEntity
  8
0
100
AcDbLine
 10
91.01787123322205
 20
196.1803181390591
 30
0.0
 11
91.01787123322205
 21
126.1803181390591
 31
0.0
  0
LINE
  5
830
330
2
100
AcDbEntity
  8
0
100
AcDbLine
 10
140.017859233222
 20
121.1803181390592
 30
0.0
 11
140.017859233222
 21
201.1803181390591
 31
0.0
  0
ARC
  5
831
330
2
100
AcDbEntity
  8
0
100
AcDbCircle
 10
244.573363233222
 20
192.1803181390591
 30
0.0
 40
2.0
100
AcDbArc
 50
319.3987049999997
 51
0.0
  0
LINE
  5
832
330
2
100
AcDbEntity
  8
0
100
AcDbLine
 10
236.172011233222
 20
182.3787281390591
 30
0.0
 11
244.091872233222
 21
191.6185811390591
 31
0.0
  0
ARC
  5
833
330
2
100
AcDbEntity
  8
0
100
AcDbCircle
 10
300.5733632332219
 20
192.1803181390591
 30
0.0
 40
2.0
100
AcDbArc
 50
180.0
 51
220.6012879999999
  0
LINE
  5
834
330
2
100
AcDbEntity
  8
0
100
AcDbLine
 10
308.974730233222
 20
182.3787281390591
 30
0.0
 11
301.054839233222
 21
191.6185811390591
 31
0.0
  0
LINE
  5
836
330
2
100
AcDbEntity
  8
0
100
AcDbLine
 10
322.5733632332219
 20
127.6803181390592
 30
0.0
 11
322.5733632332219
 21
194.6803181390592
 31
0.0
  0
LINE
  5
838
330
2
100
AcDbEntity
  8
0
100
AcDbLine
 10
222.573363233222
 20
194.6803181390592
 30
0.0
 11
222.573363233222
 21
177.5087481390591
 31
0.0
  0
LINE
  5
839
330
2
100
AcDbEntity
  8
0
100
AcDbLine
 10
149.517859233222
 20
199.1803181390591
 30
0.0
 11
149.517859233222
 21
123.1803181390592
 31
0.0
  0
ARC
  5
83D
330
2
100
AcDbEntity
  8
HIDS
100
AcDbCircle
 10
425.0201439161594
 20
192.8820541390591
 30
0.0
 40
3.0
100
AcDbArc
 50
309.3567009999997
 51
0.0
  0
LINE
  5
83F
330
2
100
AcDbEntity
  8
0
100
AcDbLine
 10
149.517859233222
 20
130.9313561390591
 30
0.0
 11
222.573363233222
 21
130.9313561390591
 31
0.0
  0
LINE
  5
840
330
2
100
AcDbEntity
  8
0
100
AcDbLine
 10
149.517859233222
 20
123.1803181390592
 30
0.0
 11
221.2146142332219
 21
123.1803181390592
 31
0.0
  0
LINE
  5
841
330
2
100
AcDbEntity
  8
CENTER
100
AcDbLine
 10
330.1141342332219
 20
161.1803181390591
 30
0.0
 11
82.49734126498795
 21
161.1803181390591
 31
0.0
  0
LINE
  5
843
330
2
100
AcDbEntity
  8
0
100
AcDbLine
 10
96.01787123322205
 20
121.1803181390592
 30
0.0
 11
140.017859233222
 21
121.1803181390592
 31
0.0
  0
ARC
  5
844
330
2
100
AcDbEntity
  8
0
100
AcDbCircle
 10
96.01787823322204
 20
126.1803181390591
 30
0.0
 40
5.0
100
AcDbArc
 50
180.0
 51
270.0
  0
LINE
  5
845
330
2
100
AcDbEntity
  8
0
100
AcDbLine
 10
140.017859233222
 20
130.9313171390591
 30
0.0
 11
149.517859233222
 21
130.9313171390591
 31
0.0
  0
LINE
  5
846
330
2
100
AcDbEntity
  8
0
100
AcDbLine
 10
140.017859233222
 20
123.1803181390592
 30
0.0
 11
149.517859233222
 21
123.1803181390592
 31
0.0
  0
LINE
  5
847
330
2
100
AcDbEntity
  8
0
100
AcDbLine
 10
93.76787123322205
 20
185.1803181390591
 30
0.0
 11
140.017859233222
 21
185.1803181390591
 31
0.0
  0
LINE
  5
848
330
2
100
AcDbEntity
  8
0
100
AcDbLine
 10
93.76787123322205
 20
135.1803181390592
 30
0.0
 11
140.017859233222
 21
135.1803181390592
 31
0.0
  0
LINE
  5
849
330
2
100
AcDbEntity
  8
0
100
AcDbLine
 10
144.517859233222
 20
184.7097221390591
 30
0.0
 11
144.517859233222
 21
180.2097221390591
 31
0.0
  0
LINE
  5
84A
330
2
100
AcDbEntity
  8
0
100
AcDbLine
 10
143.017859233222
 20
184.7097221390591
 30
0.0
 11
143.017859233222
 21
180.2097221390591
 31
0.0
  0
LINE
  5
84B
330
2
100
AcDbEntity
  8
0
100
AcDbLine
 10
141.5178592332219
 20
184.7097221390591
 30
0.0
 11
141.5178592332219
 21
179.6941121390591
 31
0.0
  0
LINE
  5
84C
330
2
100
AcDbEntity
  8
HOJO
100
AcDbLine
 10
143.017859233222
 20
180.7097221390591
 30
0.0
 11
144.517859233222
 21
180.2097221390591
 31
0.0
  0
LINE
  5
84D
330
2
100
AcDbEntity
  8
HOJO
100
AcDbLine
 10
141.5178592332219
 20
179.7097221390591
 30
0.0
 11
143.017859233222
 21
180.2097221390591
 31
0.0
  0
ARC
  5
84E
330
2
100
AcDbEntity
  8
0
100
AcDbCircle
 10
140.017859233222
 20
184.7097221390591
 30
0.0
 40
1.5
100
AcDbArc
 50
0.0
 51
90.0
  0
ARC
  5
84F
330
2
100
AcDbEntity
  8
0
100
AcDbCircle
 10
140.017859233222
 20
184.7097221390591
 30
0.0
 40
3.0
100
AcDbArc
 50
0.0
 51
90.0
  0
ARC
  5
850
330
2
100
AcDbEntity
  8
0
100
AcDbCircle
 10
140.017859233222
 20
184.7097221390591
 30
0.0
 40
4.5
100
AcDbArc
 50
0.0
 51
90.0
  0
CIRCLE
  5
851
330
2
100
AcDbEntity
  8
HOJO
100
AcDbCircle
 10
315.573363233222
 20
127.6803181390592
 30
0.0
 40
4.0
  0
CIRCLE
  5
852
330
2
100
AcDbEntity
  8
0
100
AcDbCircle
 10
315.573363233222
 20
127.6803181390592
 30
0.0
 40
4.25
  0
CIRCLE
  5
853
330
2
100
AcDbEntity
  8
0
100
AcDbCircle
 10
315.573363233222
 20
127.6803181390592
 30
0.0
 40
3.399999999999999
  0
LINE
  5
855
330
2
100
AcDbEntity
  8
0
100
AcDbLine
 10
320.5733632332219
 20
180.1803181390591
 30
0.0
 11
318.0733632332219
 21
180.1803181390591
 31
0.0
  0
LINE
  5
856
330
2
100
AcDbEntity
  8
0
100
AcDbLine
 10
320.5733632332219
 20
189.1803181390591
 30
0.0
 11
318.0733632332219
 21
189.1803181390591
 31
0.0
  0
LINE
  5
857
330
2
100
AcDbEntity
  8
0
100
AcDbLine
 10
318.0733632332219
 20
182.8803001390591
 30
0.0
 11
319.573363233222
 21
183.7463281390592
 31
0.0
  0
LINE
  5
858
330
2
100
AcDbEntity
  8
0
100
AcDbLine
 10
318.0733632332219
 20
186.4803061390592
 30
0.0
 11
319.573363233222
 21
185.6142781390591
 31
0.0
  0
CIRCLE
  5
859
330
2
100
AcDbEntity
  8
0
100
AcDbCircle
 10
318.0733632332219
 20
184.6803181390591
 30
0.0
 40
3.5
  0
CIRCLE
  5
85A
330
2
100
AcDbEntity
  8
0
100
AcDbCircle
 10
318.0733632332219
 20
184.6803181390591
 30
0.0
 40
3.799999999999998
  0
LINE
  5
85B
330
2
100
AcDbEntity
  8
0
100
AcDbLine
 10
320.5733632332219
 20
142.1803181390591
 30
0.0
 11
318.0733632332219
 21
142.1803181390591
 31
0.0
  0
LINE
  5
85C
330
2
100
AcDbEntity
  8
0
100
AcDbLine
 10
320.5733632332219
 20
133.1803181390592
 30
0.0
 11
318.0733632332219
 21
133.1803181390592
 31
0.0
  0
LINE
  5
85E
330
2
100
AcDbEntity
  8
0
100
AcDbLine
 10
318.0733632332219
 20
139.4803361390592
 30
0.0
 11
319.573363233222
 21
138.6143081390592
 31
0.0
  0
LINE
  5
85F
330
2
100
AcDbEntity
  8
0
100
AcDbLine
 10
318.0733632332219
 20
135.8803301390592
 30
0.0
 11
319.573363233222
 21
136.7463581390591
 31
0.0
  0
CIRCLE
  5
860
330
2
100
AcDbEntity
  8
0
100
AcDbCircle
 10
318.0733632332219
 20
137.6803181390592
 30
0.0
 40
3.5
  0
CIRCLE
  5
861
330
2
100
AcDbEntity
  8
0
100
AcDbCircle
 10
318.0733632332219
 20
137.6803181390592
 30
0.0
 40
3.799999999999998
  0
ARC
  5
862
330
2
100
AcDbEntity
  8
0
100
AcDbCircle
 10
315.573363233222
 20
127.6803181390592
 30
0.0
 40
7.0
100
AcDbArc
 50
227.3640749999997
 51
0.0
  0
CIRCLE
  5
865
330
2
100
AcDbEntity
  8
0
100
AcDbCircle
 10
227.073363233222
 20
137.6803181390592
 30
0.0
 40
3.5
  0
CIRCLE
  5
866
330
2
100
AcDbEntity
  8
0
100
AcDbCircle
 10
227.073363233222
 20
137.6803181390592
 30
0.0
 40
3.799999999999998
  0
ARC
  5
867
330
2
100
AcDbEntity
  8
0
100
AcDbCircle
 10
227.073363233222
 20
137.6803181390592
 30
0.0
 40
4.5
100
AcDbArc
 50
270.0
 51
90.0
  0
ARC
  5
868
330
2
100
AcDbEntity
  8
0
100
AcDbCircle
 10
318.0733632332219
 20
137.6803181390592
 30
0.0
 40
4.5
100
AcDbArc
 50
90.0
 51
270.0
  0
LINE
  5
86A
330
2
100
AcDbEntity
  8
0
100
AcDbLine
 10
237.0918722332219
 20
141.9819081390591
 30
0.0
 11
246.091872233222
 21
131.4819001390592
 31
0.0
  0
LINE
  5
86B
330
2
100
AcDbEntity
  8
0
100
AcDbLine
 10
236.172011233222
 20
139.9819081390591
 30
0.0
 11
244.091872233222
 21
130.7420551390592
 31
0.0
  0
LINE
  5
86C
330
2
100
AcDbEntity
  8
0
100
AcDbLine
 10
308.054839233222
 20
141.9819081390591
 30
0.0
 11
299.054854233222
 21
131.4819001390592
 31
0.0
  0
LINE
  5
86D
330
2
100
AcDbEntity
  8
0
100
AcDbLine
 10
308.974730233222
 20
139.9819081390591
 30
0.0
 11
301.054839233222
 21
130.7420551390592
 31
0.0
  0
LINE
  5
86E
330
2
100
AcDbEntity
  8
0
100
AcDbLine
 10
222.573363233222
 20
144.8518881390591
 30
0.0
 11
222.573363233222
 21
127.6803181390592
 31
0.0
  0
LINE
  5
86F
330
2
100
AcDbEntity
  8
0
100
AcDbLine
 10
291.5733632332219
 20
125.6803181390591
 30
0.0
 11
253.573363233222
 21
125.6803181390591
 31
0.0
  0
LINE
  5
870
330
2
100
AcDbEntity
  8
0
100
AcDbLine
 10
229.573363233222
 20
120.6803181390591
 30
0.0
 11
315.573363233222
 21
120.6803181390591
 31
0.0
  0
ARC
  5
871
330
2
100
AcDbEntity
  8
0
100
AcDbCircle
 10
224.573363233222
 20
131.1803181390592
 30
0.0
 40
2.0
100
AcDbArc
 50
90.0
 51
180.0
  0
LINE
  5
872
330
2
100
AcDbEntity
  8
0
100
AcDbLine
 10
221.9097432332219
 20
123.0556231390592
 30
0.0
 11
227.140380233222
 21
121.1167351390592
 31
0.0
  0
ARC
  5
873
330
2
100
AcDbEntity
  8
0
100
AcDbCircle
 10
229.573363233222
 20
127.6803181390592
 30
0.0
 40
7.0
100
AcDbArc
 50
180.0
 51
312.6359250000002
  0
ARC
  5
875
330
2
100
AcDbEntity
  8
0
100
AcDbCircle
 10
221.2146142332219
 20
121.1803181390592
 30
0.0
 40
2.0
100
AcDbArc
 50
69.66126999999999
 51
90.0
  0
ARC
  5
876
330
2
100
AcDbEntity
  8
0
100
AcDbCircle
 10
248.974028233222
 20
130.6803181390592
 30
0.0
 40
10.0
100
AcDbArc
 50
247.6683580000006
 51
270.0
  0
ARC
  5
878
330
2
100
AcDbEntity
  8
0
100
AcDbCircle
 10
238.378752233222
 20
118.1165741390592
 30
0.0
 40
6.0
100
AcDbArc
 50
59.64169700000056
 51
132.6359250000002
  0
CIRCLE
  5
879
330
2
100
AcDbEntity
  8
HOJO
100
AcDbCircle
 10
229.573363233222
 20
127.6803181390592
 30
0.0
 40
4.0
  0
CIRCLE
  5
87A
330
2
100
AcDbEntity
  8
0
100
AcDbCircle
 10
229.573363233222
 20
127.6803181390592
 30
0.0
 40
4.25
  0
CIRCLE
  5
87B
330
2
100
AcDbEntity
  8
0
100
AcDbCircle
 10
229.573363233222
 20
127.6803181390592
 30
0.0
 40
3.399999999999999
  0
LINE
  5
87C
330
2
100
AcDbEntity
  8
0
100
AcDbLine
 10
224.573363233222
 20
133.1803181390592
 30
0.0
 11
227.073363233222
 21
133.1803181390592
 31
0.0
  0
ARC
  5
87D
330
2
100
AcDbEntity
  8
0
100
AcDbCircle
 10
246.573363233222
 20
128.9453251390592
 30
0.0
 40
2.0
100
AcDbArc
 50
180.0
 51
249.5126799999996
  0
ARC
  5
87E
330
2
100
AcDbEntity
  8
0
100
AcDbCircle
 10
248.573363233222
 20
128.3154041390592
 30
0.0
 40
2.0
100
AcDbArc
 50
180.0
 51
255.5224910000005
  0
ARC
  5
87F
330
2
100
AcDbEntity
  8
0
100
AcDbCircle
 10
253.573363233222
 20
147.6803181390591
 30
0.0
 40
22.0
100
AcDbArc
 50
249.5126879999995
 51
270.0
  0
ARC
  5
880
330
2
100
AcDbEntity
  8
0
100
AcDbCircle
 10
256.5733632332219
 20
149.1803181390591
 30
0.0
 40
30.0
100
AcDbArc
 50
239.6417009999999
 51
247.6683580000006
  0
LINE
  5
881
330
2
100
AcDbEntity
  8
0
100
AcDbLine
 10
246.449126233222
 20
130.8742111390592
 30
0.0
 11
244.449126233222
 21
130.1343591390591
 31
0.0
  0
ARC
  5
882
330
2
100
AcDbEntity
  8
0
100
AcDbCircle
 10
242.573363233222
 20
129.4404731390592
 30
0.0
 40
2.0
100
AcDbArc
 50
0.0
 51
40.60129500000027
  0
ARC
  5
883
330
2
100
AcDbEntity
  8
0
100
AcDbCircle
 10
244.573363233222
 20
130.1803181390592
 30
0.0
 40
2.0
100
AcDbArc
 50
0.0
 51
40.60129500000027
  0
LINE
  5
884
330
2
100
AcDbEntity
  8
0
100
AcDbLine
 10
246.573363233222
 20
130.1803181390592
 30
0.0
 11
246.573363233222
 21
128.3154041390592
 31
0.0
  0
LINE
  5
885
330
2
100
AcDbEntity
  8
0
100
AcDbLine
 10
244.573363233222
 20
129.4404731390592
 30
0.0
 11
244.573363233222
 21
128.9453251390592
 31
0.0
  0
ARC
  5
886
330
2
100
AcDbEntity
  8
0
100
AcDbCircle
 10
296.172698233222
 20
130.6803181390592
 30
0.0
 40
10.0
100
AcDbArc
 50
270.0
 51
292.3316419999995
  0
ARC
  5
888
330
2
100
AcDbEntity
  8
0
100
AcDbCircle
 10
288.573363233222
 20
149.1803181390591
 30
0.0
 40
30.0
100
AcDbArc
 50
292.3316419999995
 51
300.3583029999994
  0
ARC
  5
889
330
2
100
AcDbEntity
  8
0
100
AcDbCircle
 10
298.5733632332219
 20
128.9453251390592
 30
0.0
 40
2.0
100
AcDbArc
 50
290.4873119999995
 51
0.0
  0
ARC
  5
88A
330
2
100
AcDbEntity
  8
0
100
AcDbCircle
 10
296.573363233222
 20
128.3154041390592
 30
0.0
 40
2.0
100
AcDbArc
 50
284.4775089999994
 51
0.0
  0
ARC
  5
88B
330
2
100
AcDbEntity
  8
0
100
AcDbCircle
 10
291.5733632332219
 20
147.6803181390591
 30
0.0
 40
22.0
100
AcDbArc
 50
270.0
 51
290.4873049999995
  0
LINE
  5
88C
330
2
100
AcDbEntity
  8
0
100
AcDbLine
 10
298.697600233222
 20
130.8742111390592
 30
0.0
 11
300.697600233222
 21
130.1343591390591
 31
0.0
  0
ARC
  5
88D
330
2
100
AcDbEntity
  8
0
100
AcDbCircle
 10
302.5733632332219
 20
129.4404731390592
 30
0.0
 40
2.0
100
AcDbArc
 50
139.398712
 51
180.0
  0
ARC
  5
88E
330
2
100
AcDbEntity
  8
0
100
AcDbCircle
 10
300.5733632332219
 20
130.1803181390592
 30
0.0
 40
2.0
100
AcDbArc
 50
139.398712
 51
180.0
  0
LINE
  5
88F
330
2
100
AcDbEntity
  8
0
100
AcDbLine
 10
298.5733632332219
 20
130.1803181390592
 30
0.0
 11
298.5733632332219
 21
128.3154041390592
 31
0.0
  0
LINE
  5
890
330
2
100
AcDbEntity
  8
0
100
AcDbLine
 10
300.5733632332219
 20
129.4404731390592
 30
0.0
 11
300.5733632332219
 21
128.9453251390592
 31
0.0
  0
ARC
  5
891
330
2
100
AcDbEntity
  8
0
100
AcDbCircle
 10
306.767974233222
 20
118.1165741390592
 30
0.0
 40
6.0
100
AcDbArc
 50
47.3640670000003
 51
120.358299
  0
LINE
  5
892
330
2
100
AcDbEntity
  8
0
100
AcDbLine
 10
231.573363233222
 20
174.6803181390591
 30
0.0
 11
231.573363233222
 21
147.6803181390591
 31
0.0
  0
LINE
  5
893
330
2
100
AcDbEntity
  8
0
100
AcDbLine
 10
226.573363233222
 20
150.5087481390591
 30
0.0
 11
226.573363233222
 21
171.8518881390591
 31
0.0
  0
LINE
  5
894
330
2
100
AcDbEntity
  8
0
100
AcDbLine
 10
222.0733632332219
 20
186.8707781390591
 30
0.0
 11
222.0733632332219
 21
135.4898501390592
 31
0.0
  0
ARC
  5
895
330
2
100
AcDbEntity
  8
0
100
AcDbCircle
 10
224.573363233222
 20
144.1803181390591
 30
0.0
 40
2.0
100
AcDbArc
 50
180.0
 51
270.0
  0
LINE
  5
897
330
2
100
AcDbEntity
  8
0
100
AcDbLine
 10
225.9875782332219
 20
149.0945331390592
 30
0.0
 11
223.1591482332219
 21
146.2661031390591
 31
0.0
  0
LINE
  5
898
330
2
100
AcDbEntity
  8
0
100
AcDbLine
 10
222.0733632332219
 20
135.4898501390592
 30
0.0
 11
222.573363233222
 21
135.4898501390592
 31
0.0
  0
ARC
  5
899
330
2
100
AcDbEntity
  8
0
100
AcDbCircle
 10
224.573363233222
 20
144.8518881390591
 30
0.0
 40
2.0
100
AcDbArc
 50
134.9999999999994
 51
180.0
  0
ARC
  5
89A
330
2
100
AcDbEntity
  8
0
100
AcDbCircle
 10
234.208449233222
 20
142.6803181390591
 30
0.0
 40
2.0
100
AcDbArc
 50
194.4775090000004
 51
270.0
  0
LINE
  5
89B
330
2
100
AcDbEntity
  8
0
100
AcDbLine
 10
236.409072233222
 20
142.4973501390591
 30
0.0
 11
235.4892112332219
 21
140.4973501390592
 31
0.0
  0
LINE
  5
89C
330
2
100
AcDbEntity
  8
0
100
AcDbLine
 10
227.073363233222
 20
135.8803301390592
 30
0.0
 11
228.573363233222
 21
136.7463581390591
 31
0.0
  0
LINE
  5
89D
330
2
100
AcDbEntity
  8
0
100
AcDbLine
 10
228.573363233222
 20
138.6143081390592
 30
0.0
 11
228.573363233222
 21
136.7463581390591
 31
0.0
  0
LINE
  5
89E
330
2
100
AcDbEntity
  8
0
100
AcDbLine
 10
227.073363233222
 20
139.4803361390592
 30
0.0
 11
228.573363233222
 21
138.6143081390592
 31
0.0
  0
LINE
  5
89F
330
2
100
AcDbEntity
  8
0
100
AcDbLine
 10
227.073363233222
 20
139.4803361390592
 30
0.0
 11
225.573363233222
 21
138.6143081390592
 31
0.0
  0
LINE
  5
8A0
330
2
100
AcDbEntity
  8
0
100
AcDbLine
 10
225.573363233222
 20
138.6143081390592
 30
0.0
 11
225.573363233222
 21
136.7463581390591
 31
0.0
  0
LINE
  5
8A1
330
2
100
AcDbEntity
  8
0
100
AcDbLine
 10
227.073363233222
 20
135.8803301390592
 30
0.0
 11
225.573363233222
 21
136.7463581390591
 31
0.0
  0
LINE
  5
8A2
330
2
100
AcDbEntity
  8
0
100
AcDbLine
 10
234.6534872332219
 20
140.6803181390592
 30
0.0
 11
234.208449233222
 21
140.6803181390592
 31
0.0
  0
ARC
  5
8A3
330
2
100
AcDbEntity
  8
0
100
AcDbCircle
 10
234.6534872332219
 20
138.6803181390592
 30
0.0
 40
2.0
100
AcDbArc
 50
40.60129500000027
 51
90.0
  0
ARC
  5
8A4
330
2
100
AcDbEntity
  8
0
100
AcDbCircle
 10
233.799636233222
 20
144.6803181390591
 30
0.0
 40
2.0
100
AcDbArc
 50
188.626923
 51
270.0
  0
LINE
  5
8A5
330
2
100
AcDbEntity
  8
0
100
AcDbLine
 10
224.573363233222
 20
142.1803181390591
 30
0.0
 11
227.073363233222
 21
142.1803181390591
 31
0.0
  0
ARC
  5
8A6
330
2
100
AcDbEntity
  8
0
100
AcDbCircle
 10
253.573363233222
 20
147.6803181390591
 30
0.0
 40
22.0
100
AcDbArc
 50
180.0
 51
194.4775090000004
  0
LINE
  5
8A7
330
2
100
AcDbEntity
  8
0
100
AcDbLine
 10
235.573363233222
 20
142.6803181390591
 30
0.0
 11
233.799636233222
 21
142.6803181390591
 31
0.0
  0
ARC
  5
8A8
330
2
100
AcDbEntity
  8
0
100
AcDbCircle
 10
235.573363233222
 20
140.6803181390592
 30
0.0
 40
2.0
100
AcDbArc
 50
40.60129500000027
 51
90.0
  0
ARC
  5
8A9
330
2
100
AcDbEntity
  8
0
100
AcDbCircle
 10
224.573363233222
 20
150.5087481390591
 30
0.0
 40
2.0
100
AcDbArc
 50
314.9999999999993
 51
0.0
  0
ARC
  5
8AB
330
2
100
AcDbEntity
  8
0
100
AcDbCircle
 10
224.573363233222
 20
178.1803181390591
 30
0.0
 40
2.0
100
AcDbArc
 50
90.0
 51
180.0
  0
CIRCLE
  5
8AC
330
2
100
AcDbEntity
  8
0
100
AcDbCircle
 10
227.073363233222
 20
184.6803181390591
 30
0.0
 40
3.5
  0
CIRCLE
  5
8AD
330
2
100
AcDbEntity
  8
0
100
AcDbCircle
 10
227.073363233222
 20
184.6803181390591
 30
0.0
 40
3.799999999999998
  0
LINE
  5
8AE
330
2
100
AcDbEntity
  8
0
100
AcDbLine
 10
225.9875782332219
 20
173.2661031390591
 30
0.0
 11
223.1591482332219
 21
176.0945331390592
 31
0.0
  0
ARC
  5
8AF
330
2
100
AcDbEntity
  8
0
100
AcDbCircle
 10
224.573363233222
 20
177.5087481390591
 30
0.0
 40
2.0
100
AcDbArc
 50
180.0
 51
225.0000000000006
  0
LINE
  5
8B0
330
2
100
AcDbEntity
  8
0
100
AcDbLine
 10
222.0733632332219
 20
186.8707781390591
 30
0.0
 11
222.573363233222
 21
186.8707781390591
 31
0.0
  0
ARC
  5
8B1
330
2
100
AcDbEntity
  8
0
100
AcDbCircle
 10
253.573363233222
 20
174.6803181390591
 30
0.0
 40
22.0
100
AcDbArc
 50
165.5224909999994
 51
180.0
  0
ARC
  5
8B2
330
2
100
AcDbEntity
  8
0
100
AcDbCircle
 10
224.573363233222
 20
171.8518881390591
 30
0.0
 40
2.0
100
AcDbArc
 50
0.0
 51
45.00000000000057
  0
LINE
  5
8B3
330
2
100
AcDbEntity
  8
0
100
AcDbLine
 10
237.0918722332219
 20
180.3787281390591
 30
0.0
 11
246.091872233222
 21
190.8787281390591
 31
0.0
  0
ARC
  5
8B5
330
2
100
AcDbEntity
  8
0
100
AcDbCircle
 10
227.073363233222
 20
184.6803181390591
 30
0.0
 40
4.5
100
AcDbArc
 50
270.0
 51
90.0
  0
LINE
  5
8B6
330
2
100
AcDbEntity
  8
0
100
AcDbLine
 10
225.573363233222
 20
183.7463281390592
 30
0.0
 11
225.573363233222
 21
185.6142781390591
 31
0.0
  0
LINE
  5
8B7
330
2
100
AcDbEntity
  8
0
100
AcDbLine
 10
228.573363233222
 20
183.7463281390592
 30
0.0
 11
228.573363233222
 21
185.6142781390591
 31
0.0
  0
ARC
  5
8B8
330
2
100
AcDbEntity
  8
0
100
AcDbCircle
 10
234.208449233222
 20
179.6803181390591
 30
0.0
 40
2.0
100
AcDbArc
 50
90.0
 51
165.5224909999994
  0
ARC
  5
8B9
330
2
100
AcDbEntity
  8
0
100
AcDbCircle
 10
233.799636233222
 20
177.6803181390591
 30
0.0
 40
2.0
100
AcDbArc
 50
90.0
 51
171.3730769999999
  0
LINE
  5
8BA
330
2
100
AcDbEntity
  8
0
100
AcDbLine
 10
224.573363233222
 20
180.1803181390591
 30
0.0
 11
227.073363233222
 21
180.1803181390591
 31
0.0
  0
LINE
  5
8BB
330
2
100
AcDbEntity
  8
0
100
AcDbLine
 10
227.073363233222
 20
182.8803001390591
 30
0.0
 11
228.573363233222
 21
183.7463281390592
 31
0.0
  0
LINE
  5
8BC
330
2
100
AcDbEntity
  8
0
100
AcDbLine
 10
227.073363233222
 20
182.8803001390591
 30
0.0
 11
225.573363233222
 21
183.7463281390592
 31
0.0
  0
LINE
  5
8BD
330
2
100
AcDbEntity
  8
0
100
AcDbLine
 10
234.6534872332219
 20
181.6803181390591
 30
0.0
 11
234.208449233222
 21
181.6803181390591
 31
0.0
  0
LINE
  5
8BE
330
2
100
AcDbEntity
  8
0
100
AcDbLine
 10
235.573363233222
 20
179.6803181390591
 30
0.0
 11
233.799636233222
 21
179.6803181390591
 31
0.0
  0
LINE
  5
8BF
330
2
100
AcDbEntity
  8
0
100
AcDbLine
 10
236.409072233222
 20
179.8632861390591
 30
0.0
 11
235.4892112332219
 21
181.8632861390591
 31
0.0
  0
ARC
  5
8C0
330
2
100
AcDbEntity
  8
0
100
AcDbCircle
 10
235.573363233222
 20
181.6803181390591
 30
0.0
 40
2.0
100
AcDbArc
 50
270.0
 51
319.3987049999997
  0
ARC
  5
8C1
330
2
100
AcDbEntity
  8
0
100
AcDbCircle
 10
234.6534872332219
 20
183.6803181390591
 30
0.0
 40
2.0
100
AcDbArc
 50
270.0
 51
319.3987049999997
  0
LINE
  5
8C2
330
2
100
AcDbEntity
  8
0
100
AcDbLine
 10
224.573363233222
 20
189.1803181390591
 30
0.0
 11
227.073363233222
 21
189.1803181390591
 31
0.0
  0
LINE
  5
8C3
330
2
100
AcDbEntity
  8
0
100
AcDbLine
 10
227.073363233222
 20
186.4803061390592
 30
0.0
 11
225.573363233222
 21
185.6142781390591
 31
0.0
  0
LINE
  5
8C4
330
2
100
AcDbEntity
  8
0
100
AcDbLine
 10
227.073363233222
 20
186.4803061390592
 30
0.0
 11
228.573363233222
 21
185.6142781390591
 31
0.0
  0
ARC
  5
8C5
330
2
100
AcDbEntity
  8
0
100
AcDbCircle
 10
283.5733632332219
 20
161.1803181390591
 30
0.0
 40
6.0
100
AcDbArc
 50
109.4712219999995
 51
70.52877800000044
  0
CIRCLE
  5
8C6
330
2
100
AcDbEntity
  8
0
100
AcDbCircle
 10
283.5733632332219
 20
161.1803181390591
 30
0.0
 40
10.0
  0
CIRCLE
  5
8C7
330
2
100
AcDbEntity
  8
0
100
AcDbCircle
 10
283.5733632332219
 20
161.1803181390591
 30
0.0
 40
25.002001
  0
CIRCLE
  5
8C8
330
2
100
AcDbEntity
  8
0
100
AcDbCircle
 10
283.5733632332219
 20
161.1803181390591
 30
0.0
 40
23.0
  0
CIRCLE
  5
8C9
330
2
100
AcDbEntity
  8
0
100
AcDbCircle
 10
283.5733632332219
 20
161.1803181390591
 30
0.0
 40
16.0
  0
CIRCLE
  5
8CA
330
2
100
AcDbEntity
  8
0
100
AcDbCircle
 10
283.5733632332219
 20
161.1803181390591
 30
0.0
 40
19.5
  0
LINE
  5
8CB
330
2
100
AcDbEntity
  8
0
100
AcDbLine
 10
313.573363233222
 20
174.6803181390591
 30
0.0
 11
313.573363233222
 21
147.6803181390591
 31
0.0
  0
ARC
  5
8CC
330
2
100
AcDbEntity
  8
0
100
AcDbCircle
 10
310.938292233222
 20
142.6803181390591
 30
0.0
 40
2.0
100
AcDbArc
 50
270.0
 51
345.5224909999996
  0
LINE
  5
8CD
330
2
100
AcDbEntity
  8
0
100
AcDbLine
 10
308.737639233222
 20
142.4973501390591
 30
0.0
 11
309.657530233222
 21
140.4973501390592
 31
0.0
  0
ARC
  5
8CE
330
2
100
AcDbEntity
  8
0
100
AcDbCircle
 10
310.493224233222
 20
138.6803181390592
 30
0.0
 40
2.0
100
AcDbArc
 50
90.0
 51
139.398712
  0
LINE
  5
8CF
330
2
100
AcDbEntity
  8
0
100
AcDbLine
 10
318.0733632332219
 20
139.4803361390592
 30
0.0
 11
316.5733632332219
 21
138.6143081390592
 31
0.0
  0
LINE
  5
8D0
330
2
100
AcDbEntity
  8
0
100
AcDbLine
 10
318.0733632332219
 20
135.8803301390592
 30
0.0
 11
316.5733632332219
 21
136.7463581390591
 31
0.0
  0
LINE
  5
8D1
330
2
100
AcDbEntity
  8
0
100
AcDbLine
 10
316.5733632332219
 20
138.6143081390592
 30
0.0
 11
316.5733632332219
 21
136.7463581390591
 31
0.0
  0
LINE
  5
8D2
330
2
100
AcDbEntity
  8
0
100
AcDbLine
 10
310.493224233222
 20
140.6803181390592
 30
0.0
 11
310.938292233222
 21
140.6803181390592
 31
0.0
  0
LINE
  5
8D3
330
2
100
AcDbEntity
  8
0
100
AcDbLine
 10
309.5733632332219
 20
142.6803181390591
 30
0.0
 11
311.347075233222
 21
142.6803181390591
 31
0.0
  0
ARC
  5
8D4
330
2
100
AcDbEntity
  8
0
100
AcDbCircle
 10
309.5733632332219
 20
140.6803181390592
 30
0.0
 40
2.0
100
AcDbArc
 50
90.0
 51
139.398712
  0
ARC
  5
8D5
330
2
100
AcDbEntity
  8
0
100
AcDbCircle
 10
291.5733632332219
 20
147.6803181390591
 30
0.0
 40
22.0
100
AcDbArc
 50
345.5224880000002
 51
0.0
  0
ARC
  5
8D6
330
2
100
AcDbEntity
  8
0
100
AcDbCircle
 10
311.347075233222
 20
144.6803181390591
 30
0.0
 40
2.0
100
AcDbArc
 50
270.0
 51
351.373077
  0
LINE
  5
8D7
330
2
100
AcDbEntity
  8
0
100
AcDbLine
 10
285.5733632332219
 20
168.9803211390591
 30
0.0
 11
285.5733632332219
 21
166.8371781390591
 31
0.0
  0
LINE
  5
8D8
330
2
100
AcDbEntity
  8
0
100
AcDbLine
 10
281.5733632332219
 20
168.9803211390591
 30
0.0
 11
281.5733632332219
 21
166.8371781390591
 31
0.0
  0
LINE
  5
8D9
330
2
100
AcDbEntity
  8
0
100
AcDbLine
 10
281.5733632332219
 20
168.9803211390591
 30
0.0
 11
285.5733632332219
 21
168.9803211390591
 31
0.0
  0
ARC
  5
8DA
330
2
100
AcDbEntity
  8
0
100
AcDbCircle
 10
291.5733632332219
 20
174.6803181390591
 30
0.0
 40
22.0
100
AcDbArc
 50
0.0
 51
14.47751199999975
  0
LINE
  5
8DB
330
2
100
AcDbEntity
  8
0
100
AcDbLine
 10
308.054839233222
 20
180.3787281390591
 30
0.0
 11
299.054854233222
 21
190.8787281390591
 31
0.0
  0
ARC
  5
8DC
330
2
100
AcDbEntity
  8
0
100
AcDbCircle
 10
318.0733632332219
 20
184.6803181390591
 30
0.0
 40
4.5
100
AcDbArc
 50
90.0
 51
270.0
  0
LINE
  5
8DE
330
2
100
AcDbEntity
  8
0
100
AcDbLine
 10
316.5733632332219
 20
183.7463281390592
 30
0.0
 11
316.5733632332219
 21
185.6142781390591
 31
0.0
  0
LINE
  5
8DF
330
2
100
AcDbEntity
  8
0
100
AcDbLine
 10
309.5733632332219
 20
179.6803181390591
 30
0.0
 11
311.347075233222
 21
179.6803181390591
 31
0.0
  0
ARC
  5
8E0
330
2
100
AcDbEntity
  8
0
100
AcDbCircle
 10
310.493224233222
 20
183.6803181390591
 30
0.0
 40
2.0
100
AcDbArc
 50
220.6012879999999
 51
270.0
  0
LINE
  5
8E1
330
2
100
AcDbEntity
  8
0
100
AcDbLine
 10
308.737639233222
 20
179.8632861390591
 30
0.0
 11
309.657530233222
 21
181.8632861390591
 31
0.0
  0
ARC
  5
8E2
330
2
100
AcDbEntity
  8
0
100
AcDbCircle
 10
309.5733632332219
 20
181.6803181390591
 30
0.0
 40
2.0
100
AcDbArc
 50
220.6012879999999
 51
270.0
  0
LINE
  5
8E3
330
2
100
AcDbEntity
  8
0
100
AcDbLine
 10
318.0733632332219
 20
182.8803001390591
 30
0.0
 11
316.5733632332219
 21
183.7463281390592
 31
0.0
  0
ARC
  5
8E4
330
2
100
AcDbEntity
  8
0
100
AcDbCircle
 10
310.938292233222
 20
179.6803181390591
 30
0.0
 40
2.0
100
AcDbArc
 50
14.47751199999975
 51
90.0
  0
ARC
  5
8E5
330
2
100
AcDbEntity
  8
0
100
AcDbCircle
 10
311.347075233222
 20
177.6803181390591
 30
0.0
 40
2.0
100
AcDbArc
 50
8.626926999999758
 51
90.0
  0
LINE
  5
8E6
330
2
100
AcDbEntity
  8
0
100
AcDbLine
 10
310.493224233222
 20
181.6803181390591
 30
0.0
 11
310.938292233222
 21
181.6803181390591
 31
0.0
  0
LINE
  5
8E7
330
2
100
AcDbEntity
  8
0
100
AcDbLine
 10
318.0733632332219
 20
186.4803061390592
 30
0.0
 11
316.5733632332219
 21
185.6142781390591
 31
0.0
  0
LINE
  5
8E8
330
2
100
AcDbEntity
  8
HIDS
100
AcDbLine
 10
417.6231709161594
 20
135.1803181390592
 30
0.0
 11
425.0201439161594
 21
127.7833451390592
 31
0.0
  0
ARC
  5
8E9
330
2
100
AcDbEntity
  8
HIDS
100
AcDbCircle
 10
414.0201439161595
 20
138.1803181390592
 30
0.0
 40
3.0
100
AcDbArc
 50
180.0
 51
270.0
  0
ARC
  5
8EF
330
2
100
AcDbEntity
  8
HIDS
100
AcDbCircle
 10
451.0201439161595
 20
161.1803181390591
 30
0.0
 40
38.0
100
AcDbArc
 50
129.3567049999994
 51
230.6432950000004
  0
ARC
  5
8F0
330
2
100
AcDbEntity
  8
0
100
AcDbCircle
 10
320.5733632332219
 20
131.1803181390592
 30
0.0
 40
2.0
100
AcDbArc
 50
0.0
 51
90.0
  0
ARC
  5
8FC
330
2
100
AcDbEntity
  8
HIDS
100
AcDbCircle
 10
428.0201439161595
 20
124.1803181390592
 30
0.0
 40
3.0
100
AcDbArc
 50
180.0
 51
270.0
  0
LINE
  5
900
330
2
100
AcDbEntity
  8
HIDS
100
AcDbLine
 10
428.0201439161595
 20
125.5471771390592
 30
0.0
 11
428.0201439161595
 21
129.4785821390592
 31
0.0
  0
LINE
  5
901
330
2
100
AcDbEntity
  8
HIDS
100
AcDbLine
 10
425.0201439161594
 20
124.1803181390592
 30
0.0
 11
425.0201439161594
 21
127.7833451390592
 31
0.0
  0
ARC
  5
902
330
2
100
AcDbEntity
  8
HIDS
100
AcDbCircle
 10
430.0201439161595
 20
125.5471771390592
 30
0.0
 40
2.0
100
AcDbArc
 50
180.0
 51
268.9999999999998
  0
ARC
  5
904
330
2
100
AcDbEntity
  8
HIDS
100
AcDbCircle
 10
425.0201439161594
 20
129.4785821390592
 30
0.0
 40
3.0
100
AcDbArc
 50
0.0
 51
50.64329900000029
  0
LINE
  5
90B
330
2
100
AcDbEntity
  8
0
100
AcDbLine
 10
318.5733632332219
 20
150.5087481390591
 30
0.0
 11
318.5733632332219
 21
171.8518881390591
 31
0.0
  0
LINE
  5
90C
330
2
100
AcDbEntity
  8
0
100
AcDbLine
 10
319.159148233222
 20
149.0945331390592
 30
0.0
 11
321.9875782332219
 21
146.2661031390591
 31
0.0
  0
ARC
  5
90D
330
2
100
AcDbEntity
  8
0
100
AcDbCircle
 10
320.5733632332219
 20
144.1803181390591
 30
0.0
 40
2.0
100
AcDbArc
 50
270.0
 51
0.0
  0
LINE
  5
90E
330
2
100
AcDbEntity
  8
0
100
AcDbLine
 10
319.573363233222
 20
138.6143081390592
 30
0.0
 11
319.573363233222
 21
136.7463581390591
 31
0.0
  0
ARC
  5
90F
330
2
100
AcDbEntity
  8
0
100
AcDbCircle
 10
320.5733632332219
 20
144.8518881390591
 30
0.0
 40
2.0
100
AcDbArc
 50
0.0
 51
45.00000000000057
  0
ARC
  5
910
330
2
100
AcDbEntity
  8
0
100
AcDbCircle
 10
320.5733632332219
 20
150.5087481390591
 30
0.0
 40
2.0
100
AcDbArc
 50
180.0
 51
225.0000000000006
  0
ARC
  5
911
330
2
100
AcDbEntity
  8
0
100
AcDbCircle
 10
320.5733632332219
 20
177.5087481390591
 30
0.0
 40
2.0
100
AcDbArc
 50
314.9999999999993
 51
0.0
  0
ARC
  5
912
330
2
100
AcDbEntity
  8
0
100
AcDbCircle
 10
320.5733632332219
 20
171.8518881390591
 30
0.0
 40
2.0
100
AcDbArc
 50
134.9999999999994
 51
180.0
  0
LINE
  5
913
330
2
100
AcDbEntity
  8
0
100
AcDbLine
 10
319.159148233222
 20
173.2661031390591
 30
0.0
 11
321.9875782332219
 21
176.0945331390592
 31
0.0
  0
LINE
  5
914
330
2
100
AcDbEntity
  8
0
100
AcDbLine
 10
319.573363233222
 20
183.7463281390592
 30
0.0
 11
319.573363233222
 21
185.6142781390591
 31
0.0
  0
ARC
  5
915
330
2
100
AcDbEntity
  8
0
100
AcDbCircle
 10
320.5733632332219
 20
178.1803181390591
 30
0.0
 40
2.0
100
AcDbArc
 50
0.0
 51
90.0
  0
LINE
  5
916
330
2
100
AcDbEntity
  8
HIDS
100
AcDbLine
 10
411.0201439161595
 20
138.1803181390592
 30
0.0
 11
411.0201439161595
 21
182.7488601390592
 31
0.0
  0
LINE
  5
929
330
2
100
AcDbEntity
  8
HIDS
100
AcDbLine
 10
414.0201439161595
 20
135.1803181390592
 30
0.0
 11
417.6231709161594
 21
135.1803181390592
 31
0.0
  0
ARC
  5
952
330
2
100
AcDbEntity
  8
HIDS
100
AcDbCircle
 10
416.0201439161594
 20
182.7488601390592
 30
0.0
 40
5.0
100
AcDbArc
 50
134.9999999999994
 51
180.0
  0
LINE
  5
981
330
2
100
AcDbEntity
  8
0
100
AcDbLine
 10
149.517859233222
 20
191.4292801390591
 30
0.0
 11
222.573363233222
 21
191.4292801390591
 31
0.0
  0
LINE
  5
982
330
2
100
AcDbEntity
  8
0
100
AcDbLine
 10
149.517859233222
 20
199.1803181390591
 30
0.0
 11
221.2146142332219
 21
199.1803181390591
 31
0.0
  0
LINE
  5
983
330
2
100
AcDbEntity
  8
0
100
AcDbLine
 10
96.01787123322205
 20
201.1803181390591
 30
0.0
 11
140.017859233222
 21
201.1803181390591
 31
0.0
  0
ARC
  5
984
330
2
100
AcDbEntity
  8
0
100
AcDbCircle
 10
96.01787123322205
 20
196.1803181390591
 30
0.0
 40
5.0
100
AcDbArc
 50
90.0
 51
180.0
  0
LINE
  5
989
330
2
100
AcDbEntity
  8
0
100
AcDbLine
 10
140.017859233222
 20
191.4293111390591
 30
0.0
 11
149.517859233222
 21
191.4293111390591
 31
0.0
  0
LINE
  5
98A
330
2
100
AcDbEntity
  8
0
100
AcDbLine
 10
140.017859233222
 20
199.1803181390591
 30
0.0
 11
149.517859233222
 21
199.1803181390591
 31
0.0
  0
CIRCLE
  5
991
330
2
100
AcDbEntity
  8
0
100
AcDbCircle
 10
315.573363233222
 20
194.6803181390592
 30
0.0
 40
3.399999999999999
  0
ARC
  5
992
330
2
100
AcDbEntity
  8
0
100
AcDbCircle
 10
315.573363233222
 20
194.6803181390592
 30
0.0
 40
7.0
100
AcDbArc
 50
0.0
 51
132.6359250000002
  0
LINE
  5
994
330
2
100
AcDbEntity
  8
0
100
AcDbLine
 10
291.5733632332219
 20
196.6803181390591
 30
0.0
 11
253.573363233222
 21
196.6803181390591
 31
0.0
  0
LINE
  5
995
330
2
100
AcDbEntity
  8
0
100
AcDbLine
 10
229.573363233222
 20
201.6803181390591
 30
0.0
 11
315.573363233222
 21
201.6803181390591
 31
0.0
  0
LINE
  5
996
330
2
100
AcDbEntity
  8
0
100
AcDbLine
 10
221.9097432332219
 20
199.3050131390591
 30
0.0
 11
227.140380233222
 21
201.2439011390591
 31
0.0
  0
ARC
  5
997
330
2
100
AcDbEntity
  8
0
100
AcDbCircle
 10
229.573363233222
 20
194.6803181390592
 30
0.0
 40
7.0
100
AcDbArc
 50
47.3640670000003
 51
180.0
  0
ARC
  5
999
330
2
100
AcDbEntity
  8
0
100
AcDbCircle
 10
221.2146142332219
 20
201.1803181390591
 30
0.0
 40
2.0
100
AcDbArc
 50
270.0
 51
290.3387299999998
  0
ARC
  5
99A
330
2
100
AcDbEntity
  8
0
100
AcDbCircle
 10
238.378752233222
 20
204.2440541390591
 30
0.0
 40
6.0
100
AcDbArc
 50
227.3640749999997
 51
300.3583029999994
  0
CIRCLE
  5
99B
330
2
100
AcDbEntity
  8
0
100
AcDbCircle
 10
229.573363233222
 20
194.6803181390592
 30
0.0
 40
3.399999999999999
  0
ARC
  5
99C
330
2
100
AcDbEntity
  8
0
100
AcDbCircle
 10
248.573363233222
 20
194.0452321390591
 30
0.0
 40
2.0
100
AcDbArc
 50
104.4775089999994
 51
180.0
  0
ARC
  5
99D
330
2
100
AcDbEntity
  8
0
100
AcDbCircle
 10
253.573363233222
 20
174.6803181390591
 30
0.0
 40
22.0
100
AcDbArc
 50
90.0
 51
110.4873119999995
  0
ARC
  5
99E
330
2
100
AcDbEntity
  8
0
100
AcDbCircle
 10
246.573363233222
 20
193.4153191390592
 30
0.0
 40
2.0
100
AcDbArc
 50
110.4873119999995
 51
180.0
  0
LINE
  5
99F
330
2
100
AcDbEntity
  8
0
100
AcDbLine
 10
246.449126233222
 20
191.4864251390591
 30
0.0
 11
244.449126233222
 21
192.2262771390592
 31
0.0
  0
ARC
  5
9A0
330
2
100
AcDbEntity
  8
0
100
AcDbCircle
 10
242.573363233222
 20
192.9201711390591
 30
0.0
 40
2.0
100
AcDbArc
 50
319.3987049999997
 51
0.0
  0
LINE
  5
9A1
330
2
100
AcDbEntity
  8
0
100
AcDbLine
 10
246.573363233222
 20
192.1803181390591
 30
0.0
 11
246.573363233222
 21
194.0452321390591
 31
0.0
  0
LINE
  5
9A2
330
2
100
AcDbEntity
  8
0
100
AcDbLine
 10
244.573363233222
 20
192.9201711390591
 30
0.0
 11
244.573363233222
 21
193.4153191390592
 31
0.0
  0
ARC
  5
9A3
330
2
100
AcDbEntity
  8
0
100
AcDbCircle
 10
248.974028233222
 20
191.6803181390591
 30
0.0
 40
10.0
100
AcDbArc
 50
90.0
 51
112.3316419999994
  0
ARC
  5
9A4
330
2
100
AcDbEntity
  8
0
100
AcDbCircle
 10
256.5733632332219
 20
173.1803181390591
 30
0.0
 40
30.0
100
AcDbArc
 50
112.3316419999994
 51
120.358299
  0
ARC
  5
9A5
330
2
100
AcDbEntity
  8
0
100
AcDbCircle
 10
288.573363233222
 20
173.1803181390591
 30
0.0
 40
30.0
100
AcDbArc
 50
59.64169700000056
 51
67.66835800000054
  0
ARC
  5
9A6
330
2
100
AcDbEntity
  8
0
100
AcDbCircle
 10
291.5733632332219
 20
174.6803181390591
 30
0.0
 40
22.0
100
AcDbArc
 50
69.51268799999964
 51
90.0
  0
ARC
  5
9A7
330
2
100
AcDbEntity
  8
0
100
AcDbCircle
 10
298.5733632332219
 20
193.4153191390592
 30
0.0
 40
2.0
100
AcDbArc
 50
0.0
 51
69.51268799999964
  0
ARC
  5
9A8
330
2
100
AcDbEntity
  8
0
100
AcDbCircle
 10
296.573363233222
 20
194.0452321390591
 30
0.0
 40
2.0
100
AcDbArc
 50
0.0
 51
75.52249100000058
  0
LINE
  5
9A9
330
2
100
AcDbEntity
  8
0
100
AcDbLine
 10
298.697600233222
 20
191.4864251390591
 30
0.0
 11
300.697600233222
 21
192.2262771390592
 31
0.0
  0
ARC
  5
9AA
330
2
100
AcDbEntity
  8
0
100
AcDbCircle
 10
302.5733632332219
 20
192.9201711390591
 30
0.0
 40
2.0
100
AcDbArc
 50
180.0
 51
220.6012879999999
  0
LINE
  5
9AB
330
2
100
AcDbEntity
  8
0
100
AcDbLine
 10
298.5733632332219
 20
192.1803181390591
 30
0.0
 11
298.5733632332219
 21
194.0452321390591
 31
0.0
  0
LINE
  5
9AC
330
2
100
AcDbEntity
  8
0
100
AcDbLine
 10
300.5733632332219
 20
192.9201711390591
 30
0.0
 11
300.5733632332219
 21
193.4153191390592
 31
0.0
  0
ARC
  5
9AD
330
2
100
AcDbEntity
  8
0
100
AcDbCircle
 10
296.172698233222
 20
191.6803181390591
 30
0.0
 40
10.0
100
AcDbArc
 50
67.66835800000054
 51
90.0
  0
ARC
  5
9AE
330
2
100
AcDbEntity
  8
0
100
AcDbCircle
 10
306.767974233222
 20
204.2440541390591
 30
0.0
 40
6.0
100
AcDbArc
 50
239.6417009999999
 51
312.6359329999996
  0
ARC
  5
9B1
330
2
100
AcDbEntity
  8
HIDS
100
AcDbCircle
 10
430.0201439161595
 20
196.8134511390591
 30
0.0
 40
2.0
100
AcDbArc
 50
91.00000000000013
 51
180.0
  0
LINE
  5
9B2
330
2
100
AcDbEntity
  8
HIDS
100
AcDbLine
 10
428.0201439161595
 20
196.8134511390591
 30
0.0
 11
428.0201439161595
 21
192.8820541390591
 31
0.0
  0
ARC
  5
9B3
330
2
100
AcDbEntity
  8
HIDS
100
AcDbCircle
 10
429.4516019161595
 20
196.1803181390591
 30
0.0
 40
5.0
100
AcDbArc
 50
90.0
 51
134.9999999999994
  0
CIRCLE
  5
9B4
330
2
100
AcDbEntity
  8
HOJO
100
AcDbCircle
 10
630.7222260744596
 20
194.6803181390592
 30
0.0
 40
4.0
  0
CIRCLE
  5
9B5
330
2
100
AcDbEntity
  8
HOJO
100
AcDbCircle
 10
716.7222260744597
 20
194.6803181390592
 30
0.0
 40
4.0
  0
LINE
  5
9B6
330
2
100
AcDbEntity
  8
HIDS
100
AcDbLine
 10
477.0201439161595
 20
194.5772911390591
 30
0.0
 11
484.4171169161596
 21
187.1803181390591
 31
0.0
  0
LINE
  5
9B7
330
2
100
AcDbEntity
  8
0
100
AcDbLine
 10
855.2777070744596
 20
196.1803181390591
 30
0.0
 11
855.2777070744596
 21
126.1803181390591
 31
0.0
  0
LINE
  5
9B8
330
2
100
AcDbEntity
  8
0
100
AcDbLine
 10
806.2777070744598
 20
121.1803181390592
 30
0.0
 11
806.2777070744598
 21
201.1803181390591
 31
0.0
  0
ARC
  5
9B9
330
2
100
AcDbEntity
  8
0
100
AcDbCircle
 10
701.7222260744595
 20
192.1803181390591
 30
0.0
 40
2.0
100
AcDbArc
 50
180.0
 51
220.6012879999999
  0
LINE
  5
9BA
330
2
100
AcDbEntity
  8
0
100
AcDbLine
 10
710.1235930744596
 20
182.3787281390591
 30
0.0
 11
702.2037320744597
 21
191.6185811390591
 31
0.0
  0
ARC
  5
9BB
330
2
100
AcDbEntity
  8
0
100
AcDbCircle
 10
645.7222260744596
 20
192.1803181390591
 30
0.0
 40
2.0
100
AcDbArc
 50
319.3987049999997
 51
0.0
  0
LINE
  5
9BC
330
2
100
AcDbEntity
  8
0
100
AcDbLine
 10
637.3208590744598
 20
182.3787281390591
 30
0.0
 11
645.2407200744596
 21
191.6185811390591
 31
0.0
  0
LINE
  5
9BE
330
2
100
AcDbEntity
  8
0
100
AcDbLine
 10
623.7222260744596
 20
127.6803181390592
 30
0.0
 11
623.7222260744596
 21
194.6803181390592
 31
0.0
  0
LINE
  5
9C0
330
2
100
AcDbEntity
  8
0
100
AcDbLine
 10
723.7222260744597
 20
194.6803181390592
 30
0.0
 11
723.7222260744597
 21
177.5087481390591
 31
0.0
  0
LINE
  5
9C1
330
2
100
AcDbEntity
  8
0
100
AcDbLine
 10
796.7777070744597
 20
199.1803181390591
 30
0.0
 11
796.7777070744597
 21
123.1803181390592
 31
0.0
  0
ARC
  5
9C4
330
2
100
AcDbEntity
  8
HIDS
100
AcDbCircle
 10
477.0201439161595
 20
192.8820541390591
 30
0.0
 40
3.0
100
AcDbArc
 50
180.0
 51
230.6432950000004
  0
ARC
  5
9C7
330
2
100
AcDbEntity
  8
0
100
AcDbCircle
 10
707.9168670744596
 20
118.1165741390592
 30
0.0
 40
6.0
100
AcDbArc
 50
47.3640670000003
 51
120.358299
  0
LINE
  5
9C8
330
2
100
AcDbEntity
  8
0
100
AcDbLine
 10
710.7222260744597
 20
142.6803181390591
 30
0.0
 11
712.4959690744597
 21
142.6803181390591
 31
0.0
  0
ARC
  5
9C9
330
2
100
AcDbEntity
  8
0
100
AcDbCircle
 10
711.6420870744597
 20
138.6803181390592
 30
0.0
 40
2.0
100
AcDbArc
 50
90.0
 51
139.398712
  0
LINE
  5
9CA
330
2
100
AcDbEntity
  8
0
100
AcDbLine
 10
710.7222260744597
 20
179.6803181390591
 30
0.0
 11
712.4959690744597
 21
179.6803181390591
 31
0.0
  0
ARC
  5
9CB
330
2
100
AcDbEntity
  8
0
100
AcDbCircle
 10
711.6420870744597
 20
183.6803181390591
 30
0.0
 40
2.0
100
AcDbArc
 50
220.6012879999999
 51
270.0
  0
LINE
  5
9CC
330
2
100
AcDbEntity
  8
0
100
AcDbLine
 10
716.7222260744597
 20
120.6803181390591
 30
0.0
 11
630.7222260744596
 21
120.6803181390591
 31
0.0
  0
LINE
  5
9CE
330
2
100
AcDbEntity
  8
CENTER
100
AcDbLine
 10
616.1814550744598
 20
161.1803181390591
 30
0.0
 11
863.7982370426938
 21
161.1803181390591
 31
0.0
  0
LINE
  5
9CF
330
2
100
AcDbEntity
  8
HIDS
100
AcDbLine
 10
489.5556659161595
 20
136.0762451390592
 30
0.0
 11
476.1242089161596
 21
122.6447801390591
 31
0.0
  0
ARC
  5
9D2
330
2
100
AcDbEntity
  8
HIDS
100
AcDbCircle
 10
451.0201439161595
 20
161.1803181390591
 30
0.0
 40
38.0
100
AcDbArc
 50
309.3567009999997
 51
50.64329900000029
  0
ARC
  5
9D7
330
2
100
AcDbEntity
  8
HIDS
100
AcDbCircle
 10
472.5886859161595
 20
126.1803181390591
 30
0.0
 40
5.0
100
AcDbArc
 50
270.0
 51
314.9999999999993
  0
LINE
  5
9D9
330
2
100
AcDbEntity
  8
HIDS
100
AcDbLine
 10
472.0550559161595
 20
123.5474831390591
 30
0.0
 11
451.0201439161595
 21
123.1803181390592
 31
0.0
  0
LINE
  5
9DD
330
2
100
AcDbEntity
  8
HIDS
100
AcDbLine
 10
474.0201439161594
 20
125.5471771390592
 30
0.0
 11
474.0201439161594
 21
129.4785821390592
 31
0.0
  0
ARC
  5
9DE
330
2
100
AcDbEntity
  8
HIDS
100
AcDbCircle
 10
472.0201439161595
 20
125.5471771390592
 30
0.0
 40
2.0
100
AcDbArc
 50
271.0
 51
0.0
  0
ARC
  5
9E2
330
2
100
AcDbEntity
  8
HIDS
100
AcDbCircle
 10
477.0201439161595
 20
129.4785821390592
 30
0.0
 40
3.0
100
AcDbArc
 50
129.3567049999994
 51
180.0
  0
LINE
  5
9E8
330
2
100
AcDbEntity
  8
HIDS
100
AcDbLine
 10
491.0201439161594
 20
184.1803181390591
 30
0.0
 11
491.0201439161594
 21
139.6117761390591
 31
0.0
  0
ARC
  5
A11
330
2
100
AcDbEntity
  8
HIDS
100
AcDbCircle
 10
486.0201439161595
 20
139.6117761390591
 30
0.0
 40
5.0
100
AcDbArc
 50
314.9999999999993
 51
0.0
  0
ARC
  5
A40
330
2
100
AcDbEntity
  8
HIDS
100
AcDbCircle
 10
488.0201439161594
 20
184.1803181390591
 30
0.0
 40
3.0
100
AcDbArc
 50
0.0
 51
90.0
  0
LINE
  5
A43
330
2
100
AcDbEntity
  8
HIDS
100
AcDbLine
 10
488.0201439161594
 20
187.1803181390591
 30
0.0
 11
484.4171169161596
 21
187.1803181390591
 31
0.0
  0
LINE
  5
A49
330
2
100
AcDbEntity
  8
0
100
AcDbLine
 10
709.2037320744594
 20
141.9819081390591
 30
0.0
 11
700.2037320744594
 21
131.4819001390592
 31
0.0
  0
LINE
  5
A4A
330
2
100
AcDbEntity
  8
0
100
AcDbLine
 10
710.1235930744596
 20
139.9819081390591
 30
0.0
 11
702.2037320744597
 21
130.7420551390592
 31
0.0
  0
LINE
  5
A4B
330
2
100
AcDbEntity
  8
0
100
AcDbLine
 10
638.2407200744596
 20
141.9819081390591
 30
0.0
 11
647.2407200744596
 21
131.4819001390592
 31
0.0
  0
LINE
  5
A4C
330
2
100
AcDbEntity
  8
0
100
AcDbLine
 10
637.3208590744598
 20
139.9819081390591
 30
0.0
 11
645.2407200744596
 21
130.7420551390592
 31
0.0
  0
ARC
  5
A4D
330
2
100
AcDbEntity
  8
0
100
AcDbCircle
 10
649.7222260744596
 20
128.3154041390592
 30
0.0
 40
2.0
100
AcDbArc
 50
180.0
 51
255.5224910000005
  0
ARC
  5
A4E
330
2
100
AcDbEntity
  8
0
100
AcDbCircle
 10
654.7222260744596
 20
147.6803181390591
 30
0.0
 40
22.0
100
AcDbArc
 50
249.5126879999995
 51
270.0
  0
ARC
  5
A4F
330
2
100
AcDbEntity
  8
0
100
AcDbCircle
 10
650.1228610744596
 20
130.6803181390592
 30
0.0
 40
10.0
100
AcDbArc
 50
247.6683499999999
 51
270.0
  0
ARC
  5
A50
330
2
100
AcDbEntity
  8
0
100
AcDbCircle
 10
630.7222260744596
 20
127.6803181390592
 30
0.0
 40
7.0
100
AcDbArc
 50
180.0
 51
312.6359250000002
  0
CIRCLE
  5
A52
330
2
100
AcDbEntity
  8
HOJO
100
AcDbCircle
 10
630.7222260744596
 20
127.6803181390592
 30
0.0
 40
4.0
  0
CIRCLE
  5
A53
330
2
100
AcDbEntity
  8
0
100
AcDbCircle
 10
630.7222260744596
 20
127.6803181390592
 30
0.0
 40
3.399999999999999
  0
ARC
  5
A55
330
2
100
AcDbEntity
  8
0
100
AcDbCircle
 10
647.7222260744596
 20
128.9453251390592
 30
0.0
 40
2.0
100
AcDbArc
 50
180.0
 51
249.5126799999996
  0
ARC
  5
A56
330
2
100
AcDbEntity
  8
0
100
AcDbCircle
 10
639.5275850744596
 20
118.1165741390592
 30
0.0
 40
6.0
100
AcDbArc
 50
59.64169700000056
 51
132.6359250000002
  0
ARC
  5
A57
330
2
100
AcDbEntity
  8
0
100
AcDbCircle
 10
657.7222260744596
 20
149.1803181390591
 30
0.0
 40
30.0
100
AcDbArc
 50
239.6416930000005
 51
247.6683499999999
  0
LINE
  5
A58
330
2
100
AcDbEntity
  8
0
100
AcDbLine
 10
647.5980190744595
 20
130.8742111390592
 30
0.0
 11
645.5980190744595
 21
130.1343591390591
 31
0.0
  0
ARC
  5
A59
330
2
100
AcDbEntity
  8
0
100
AcDbCircle
 10
643.7222260744596
 20
129.4404731390592
 30
0.0
 40
2.0
100
AcDbArc
 50
0.0
 51
40.60129500000027
  0
ARC
  5
A5A
330
2
100
AcDbEntity
  8
0
100
AcDbCircle
 10
645.7222260744596
 20
130.1803181390592
 30
0.0
 40
2.0
100
AcDbArc
 50
0.0
 51
40.60129500000027
  0
LINE
  5
A5B
330
2
100
AcDbEntity
  8
0
100
AcDbLine
 10
647.7222260744596
 20
130.1803181390592
 30
0.0
 11
647.7222260744596
 21
128.3154041390592
 31
0.0
  0
LINE
  5
A5C
330
2
100
AcDbEntity
  8
0
100
AcDbLine
 10
645.7222260744596
 20
129.4404731390592
 30
0.0
 11
645.7222260744596
 21
128.9453251390592
 31
0.0
  0
LINE
  5
A5D
330
2
100
AcDbEntity
  8
0
100
AcDbLine
 10
654.7222260744596
 20
125.6803181390591
 30
0.0
 11
692.7222260744597
 21
125.6803181390591
 31
0.0
  0
ARC
  5
A5E
330
2
100
AcDbEntity
  8
0
100
AcDbCircle
 10
697.3215910744596
 20
130.6803181390592
 30
0.0
 40
10.0
100
AcDbArc
 50
270.0
 51
292.3316350000003
  0
ARC
  5
A5F
330
2
100
AcDbEntity
  8
0
100
AcDbCircle
 10
692.7222260744597
 20
147.6803181390591
 30
0.0
 40
22.0
100
AcDbArc
 50
270.0
 51
290.4873049999995
  0
ARC
  5
A60
330
2
100
AcDbEntity
  8
0
100
AcDbCircle
 10
699.7222260744597
 20
128.9453251390592
 30
0.0
 40
2.0
100
AcDbArc
 50
290.4873119999995
 51
0.0
  0
ARC
  5
A61
330
2
100
AcDbEntity
  8
0
100
AcDbCircle
 10
697.7222260744597
 20
128.3154041390592
 30
0.0
 40
2.0
100
AcDbArc
 50
284.4775089999994
 51
0.0
  0
ARC
  5
A62
330
2
100
AcDbEntity
  8
0
100
AcDbCircle
 10
689.7222260744597
 20
149.1803181390591
 30
0.0
 40
30.0
100
AcDbArc
 50
292.3316350000003
 51
300.3583069999994
  0
LINE
  5
A63
330
2
100
AcDbEntity
  8
0
100
AcDbLine
 10
699.8464330744597
 20
130.8742111390592
 30
0.0
 11
701.8464330744596
 21
130.1343591390591
 31
0.0
  0
ARC
  5
A64
330
2
100
AcDbEntity
  8
0
100
AcDbCircle
 10
703.7222260744597
 20
129.4404731390592
 30
0.0
 40
2.0
100
AcDbArc
 50
139.398712
 51
180.0
  0
ARC
  5
A65
330
2
100
AcDbEntity
  8
0
100
AcDbCircle
 10
701.7222260744595
 20
130.1803181390592
 30
0.0
 40
2.0
100
AcDbArc
 50
139.398712
 51
180.0
  0
LINE
  5
A66
330
2
100
AcDbEntity
  8
0
100
AcDbLine
 10
699.7222260744597
 20
130.1803181390592
 30
0.0
 11
699.7222260744597
 21
128.3154041390592
 31
0.0
  0
LINE
  5
A67
330
2
100
AcDbEntity
  8
0
100
AcDbLine
 10
701.7222260744595
 20
129.4404731390592
 30
0.0
 11
701.7222260744595
 21
128.9453251390592
 31
0.0
  0
CIRCLE
  5
A68
330
2
100
AcDbEntity
  8
0
100
AcDbCircle
 10
662.7222260744596
 20
161.1803181390591
 30
0.0
 40
25.002001
  0
CIRCLE
  5
A69
330
2
100
AcDbEntity
  8
0
100
AcDbCircle
 10
662.7222260744596
 20
161.1803181390591
 30
0.0
 40
23.0
  0
CIRCLE
  5
A6A
330
2
100
AcDbEntity
  8
0
100
AcDbCircle
 10
662.7222260744596
 20
161.1803181390591
 30
0.0
 40
16.0
  0
CIRCLE
  5
A6B
330
2
100
AcDbEntity
  8
0
100
AcDbCircle
 10
662.7222260744596
 20
161.1803181390591
 30
0.0
 40
19.5
  0
LINE
  5
A6C
330
2
100
AcDbEntity
  8
0
100
AcDbLine
 10
632.7222260744596
 20
174.6803181390591
 30
0.0
 11
632.7222260744596
 21
147.6803181390591
 31
0.0
  0
LINE
  5
A6D
330
2
100
AcDbEntity
  8
0
100
AcDbLine
 10
627.7222260744596
 20
150.5087481390591
 30
0.0
 11
627.7222260744596
 21
171.8518881390591
 31
0.0
  0
LINE
  5
A6E
330
2
100
AcDbEntity
  8
0
100
AcDbLine
 10
627.1364110744594
 20
149.0945331390592
 30
0.0
 11
624.3080410744596
 21
146.2661031390591
 31
0.0
  0
ARC
  5
A6F
330
2
100
AcDbEntity
  8
0
100
AcDbCircle
 10
635.3572970744596
 20
142.6803181390591
 30
0.0
 40
2.0
100
AcDbArc
 50
194.4775090000004
 51
270.0
  0
ARC
  5
A70
330
2
100
AcDbEntity
  8
0
100
AcDbCircle
 10
634.9484830744597
 20
144.6803181390591
 30
0.0
 40
2.0
100
AcDbArc
 50
188.626923
 51
270.0
  0
ARC
  5
A71
330
2
100
AcDbEntity
  8
0
100
AcDbCircle
 10
625.7222260744596
 20
144.8518881390591
 30
0.0
 40
2.0
100
AcDbArc
 50
134.9999999999994
 51
180.0
  0
ARC
  5
A72
330
2
100
AcDbEntity
  8
0
100
AcDbCircle
 10
654.7222260744596
 20
147.6803181390591
 30
0.0
 40
22.0
100
AcDbArc
 50
180.0
 51
194.4775090000004
  0
LINE
  5
A73
330
2
100
AcDbEntity
  8
0
100
AcDbLine
 10
637.5579190744596
 20
142.4973501390591
 30
0.0
 11
636.6380590744596
 21
140.4973501390592
 31
0.0
  0
LINE
  5
A74
330
2
100
AcDbEntity
  8
0
100
AcDbLine
 10
635.8023650744595
 20
140.6803181390592
 30
0.0
 11
635.3572970744596
 21
140.6803181390592
 31
0.0
  0
ARC
  5
A75
330
2
100
AcDbEntity
  8
0
100
AcDbCircle
 10
635.8023650744595
 20
138.6803181390592
 30
0.0
 40
2.0
100
AcDbArc
 50
40.60129500000027
 51
90.0
  0
LINE
  5
A76
330
2
100
AcDbEntity
  8
0
100
AcDbLine
 10
636.7222260744596
 20
142.6803181390591
 30
0.0
 11
634.9484830744597
 21
142.6803181390591
 31
0.0
  0
ARC
  5
A77
330
2
100
AcDbEntity
  8
0
100
AcDbCircle
 10
636.7222260744596
 20
140.6803181390592
 30
0.0
 40
2.0
100
AcDbArc
 50
40.60129500000027
 51
90.0
  0
ARC
  5
A78
330
2
100
AcDbEntity
  8
0
100
AcDbCircle
 10
625.7222260744596
 20
150.5087481390591
 30
0.0
 40
2.0
100
AcDbArc
 50
314.9999999999993
 51
0.0
  0
ARC
  5
A79
330
2
100
AcDbEntity
  8
0
100
AcDbCircle
 10
654.7222260744596
 20
174.6803181390591
 30
0.0
 40
22.0
100
AcDbArc
 50
165.5224909999994
 51
180.0
  0
ARC
  5
A7A
330
2
100
AcDbEntity
  8
0
100
AcDbCircle
 10
625.7222260744596
 20
177.5087481390591
 30
0.0
 40
2.0
100
AcDbArc
 50
180.0
 51
225.0000000000006
  0
LINE
  5
A7B
330
2
100
AcDbEntity
  8
0
100
AcDbLine
 10
627.1364110744594
 20
173.2661031390591
 30
0.0
 11
624.3080410744596
 21
176.0945331390592
 31
0.0
  0
ARC
  5
A7C
330
2
100
AcDbEntity
  8
0
100
AcDbCircle
 10
625.7222260744596
 20
171.8518881390591
 30
0.0
 40
2.0
100
AcDbArc
 50
0.0
 51
45.00000000000057
  0
ARC
  5
A7D
330
2
100
AcDbEntity
  8
0
100
AcDbCircle
 10
635.3572970744596
 20
179.6803181390591
 30
0.0
 40
2.0
100
AcDbArc
 50
90.0
 51
165.5224909999994
  0
ARC
  5
A7E
330
2
100
AcDbEntity
  8
0
100
AcDbCircle
 10
634.9484830744597
 20
177.6803181390591
 30
0.0
 40
2.0
100
AcDbArc
 50
90.0
 51
171.3730769999999
  0
LINE
  5
A7F
330
2
100
AcDbEntity
  8
0
100
AcDbLine
 10
638.2407200744596
 20
180.3787281390591
 30
0.0
 11
647.2407200744596
 21
190.8787281390591
 31
0.0
  0
LINE
  5
A80
330
2
100
AcDbEntity
  8
0
100
AcDbLine
 10
635.8023650744595
 20
181.6803181390591
 30
0.0
 11
635.3572970744596
 21
181.6803181390591
 31
0.0
  0
LINE
  5
A81
330
2
100
AcDbEntity
  8
0
100
AcDbLine
 10
636.7222260744596
 20
179.6803181390591
 30
0.0
 11
634.9484830744597
 21
179.6803181390591
 31
0.0
  0
LINE
  5
A82
330
2
100
AcDbEntity
  8
0
100
AcDbLine
 10
637.5579190744596
 20
179.8632861390591
 30
0.0
 11
636.6380590744596
 21
181.8632861390591
 31
0.0
  0
ARC
  5
A83
330
2
100
AcDbEntity
  8
0
100
AcDbCircle
 10
636.7222260744596
 20
181.6803181390591
 30
0.0
 40
2.0
100
AcDbArc
 50
270.0
 51
319.3987049999997
  0
ARC
  5
A84
330
2
100
AcDbEntity
  8
0
100
AcDbCircle
 10
635.8023650744595
 20
183.6803181390591
 30
0.0
 40
2.0
100
AcDbArc
 50
270.0
 51
319.3987049999997
  0
ARC
  5
A85
330
2
100
AcDbEntity
  8
0
100
AcDbCircle
 10
662.7222260744596
 20
161.1803181390591
 30
0.0
 40
6.0
100
AcDbArc
 50
109.4712219999995
 51
70.52877800000044
  0
CIRCLE
  5
A86
330
2
100
AcDbEntity
  8
0
100
AcDbCircle
 10
662.7222260744596
 20
161.1803181390591
 30
0.0
 40
10.0
  0
LINE
  5
A87
330
2
100
AcDbEntity
  8
0
100
AcDbLine
 10
709.8865330744596
 20
142.4973501390591
 30
0.0
 11
710.8063930744597
 21
140.4973501390592
 31
0.0
  0
ARC
  5
A88
330
2
100
AcDbEntity
  8
0
100
AcDbCircle
 10
710.7222260744597
 20
140.6803181390592
 30
0.0
 40
2.0
100
AcDbArc
 50
90.0
 51
139.398712
  0
LINE
  5
A89
330
2
100
AcDbEntity
  8
0
100
AcDbLine
 10
664.7222260744596
 20
168.9803211390591
 30
0.0
 11
664.7222260744596
 21
166.8371781390591
 31
0.0
  0
LINE
  5
A8A
330
2
100
AcDbEntity
  8
0
100
AcDbLine
 10
660.7222260744596
 20
168.9803211390591
 30
0.0
 11
660.7222260744596
 21
166.8371781390591
 31
0.0
  0
LINE
  5
A8B
330
2
100
AcDbEntity
  8
0
100
AcDbLine
 10
660.7222260744596
 20
168.9803211390591
 30
0.0
 11
664.7222260744596
 21
168.9803211390591
 31
0.0
  0
LINE
  5
A8C
330
2
100
AcDbEntity
  8
0
100
AcDbLine
 10
709.2037320744594
 20
180.3787281390591
 30
0.0
 11
700.2037320744594
 21
190.8787281390591
 31
0.0
  0
LINE
  5
A8D
330
2
100
AcDbEntity
  8
0
100
AcDbLine
 10
709.8865330744596
 20
179.8632861390591
 30
0.0
 11
710.8063930744597
 21
181.8632861390591
 31
0.0
  0
ARC
  5
A8E
330
2
100
AcDbEntity
  8
0
100
AcDbCircle
 10
710.7222260744597
 20
181.6803181390591
 30
0.0
 40
2.0
100
AcDbArc
 50
220.6012879999999
 51
270.0
  0
LINE
  5
A8F
330
2
100
AcDbEntity
  8
0
100
AcDbLine
 10
852.5277070744596
 20
185.1803181390591
 30
0.0
 11
806.2777070744598
 21
185.1803181390591
 31
0.0
  0
LINE
  5
A90
330
2
100
AcDbEntity
  8
0
100
AcDbLine
 10
852.5277070744596
 20
135.1803181390592
 30
0.0
 11
806.2777070744598
 21
135.1803181390592
 31
0.0
  0
LINE
  5
A91
330
2
100
AcDbEntity
  8
0
100
AcDbLine
 10
850.2777070744595
 20
121.1803181390592
 30
0.0
 11
806.2777070744598
 21
121.1803181390592
 31
0.0
  0
LINE
  5
A92
330
2
100
AcDbEntity
  8
0
100
AcDbLine
 10
723.7222260744597
 20
144.8518881390591
 30
0.0
 11
723.7222260744597
 21
127.6803181390592
 31
0.0
  0
LINE
  5
A93
330
2
100
AcDbEntity
  8
0
100
AcDbLine
 10
796.7777070744597
 20
130.9313561390591
 30
0.0
 11
723.7222260744597
 21
130.9313561390591
 31
0.0
  0
LINE
  5
A94
330
2
100
AcDbEntity
  8
0
100
AcDbLine
 10
796.7777070744597
 20
123.1803181390592
 30
0.0
 11
725.0809910744597
 21
123.1803181390592
 31
0.0
  0
ARC
  5
A95
330
2
100
AcDbEntity
  8
0
100
AcDbCircle
 10
716.7222260744597
 20
127.6803181390592
 30
0.0
 40
7.0
100
AcDbArc
 50
227.3640749999997
 51
0.0
  0
CIRCLE
  5
A97
330
2
100
AcDbEntity
  8
HOJO
100
AcDbCircle
 10
716.7222260744597
 20
127.6803181390592
 30
0.0
 40
4.0
  0
CIRCLE
  5
A98
330
2
100
AcDbEntity
  8
0
100
AcDbCircle
 10
716.7222260744597
 20
127.6803181390592
 30
0.0
 40
3.399999999999999
  0
LINE
  5
A99
330
2
100
AcDbEntity
  8
0
100
AcDbLine
 10
724.3858610744597
 20
123.0556231390592
 30
0.0
 11
719.1552090744596
 21
121.1167351390592
 31
0.0
  0
ARC
  5
A9A
330
2
100
AcDbEntity
  8
0
100
AcDbCircle
 10
725.0809910744597
 20
121.1803181390592
 30
0.0
 40
2.0
100
AcDbArc
 50
90.0
 51
110.33873
  0
LINE
  5
A9B
330
2
100
AcDbEntity
  8
0
100
AcDbLine
 10
806.2777070744598
 20
130.9313171390591
 30
0.0
 11
796.7777070744597
 21
130.9313171390591
 31
0.0
  0
LINE
  5
A9C
330
2
100
AcDbEntity
  8
0
100
AcDbLine
 10
806.2777070744598
 20
123.1803181390592
 30
0.0
 11
796.7777070744597
 21
123.1803181390592
 31
0.0
  0
LINE
  5
A9D
330
2
100
AcDbEntity
  8
0
100
AcDbLine
 10
714.7222260744597
 20
174.6803181390591
 30
0.0
 11
714.7222260744597
 21
147.6803181390591
 31
0.0
  0
LINE
  5
A9E
330
2
100
AcDbEntity
  8
0
100
AcDbLine
 10
719.7222260744597
 20
150.5087481390591
 30
0.0
 11
719.7222260744597
 21
171.8518881390591
 31
0.0
  0
LINE
  5
A9F
330
2
100
AcDbEntity
  8
0
100
AcDbLine
 10
720.3080410744596
 20
149.0945331390592
 30
0.0
 11
723.1364110744594
 21
146.2661031390591
 31
0.0
  0
ARC
  5
AA0
330
2
100
AcDbEntity
  8
0
100
AcDbCircle
 10
712.0871550744595
 20
142.6803181390591
 30
0.0
 40
2.0
100
AcDbArc
 50
270.0
 51
345.5224909999996
  0
LINE
  5
AA1
330
2
100
AcDbEntity
  8
0
100
AcDbLine
 10
711.6420870744597
 20
140.6803181390592
 30
0.0
 11
712.0871550744595
 21
140.6803181390592
 31
0.0
  0
ARC
  5
AA2
330
2
100
AcDbEntity
  8
0
100
AcDbCircle
 10
692.7222260744597
 20
147.6803181390591
 30
0.0
 40
22.0
100
AcDbArc
 50
345.5224880000002
 51
0.0
  0
ARC
  5
AA3
330
2
100
AcDbEntity
  8
0
100
AcDbCircle
 10
712.4959690744597
 20
144.6803181390591
 30
0.0
 40
2.0
100
AcDbArc
 50
270.0
 51
351.373077
  0
ARC
  5
AA4
330
2
100
AcDbEntity
  8
0
100
AcDbCircle
 10
721.7222260744597
 20
144.8518881390591
 30
0.0
 40
2.0
100
AcDbArc
 50
0.0
 51
45.00000000000057
  0
ARC
  5
AA5
330
2
100
AcDbEntity
  8
0
100
AcDbCircle
 10
721.7222260744597
 20
150.5087481390591
 30
0.0
 40
2.0
100
AcDbArc
 50
180.0
 51
225.0000000000006
  0
ARC
  5
AA6
330
2
100
AcDbEntity
  8
0
100
AcDbCircle
 10
692.7222260744597
 20
174.6803181390591
 30
0.0
 40
22.0
100
AcDbArc
 50
0.0
 51
14.47751199999975
  0
ARC
  5
AA7
330
2
100
AcDbEntity
  8
0
100
AcDbCircle
 10
721.7222260744597
 20
177.5087481390591
 30
0.0
 40
2.0
100
AcDbArc
 50
314.9999999999993
 51
0.0
  0
ARC
  5
AA8
330
2
100
AcDbEntity
  8
0
100
AcDbCircle
 10
721.7222260744597
 20
171.8518881390591
 30
0.0
 40
2.0
100
AcDbArc
 50
134.9999999999994
 51
180.0
  0
LINE
  5
AA9
330
2
100
AcDbEntity
  8
0
100
AcDbLine
 10
720.3080410744596
 20
173.2661031390591
 30
0.0
 11
723.1364110744594
 21
176.0945331390592
 31
0.0
  0
ARC
  5
AAA
330
2
100
AcDbEntity
  8
0
100
AcDbCircle
 10
712.0871550744595
 20
179.6803181390591
 30
0.0
 40
2.0
100
AcDbArc
 50
14.47751199999975
 51
90.0
  0
ARC
  5
AAB
330
2
100
AcDbEntity
  8
0
100
AcDbCircle
 10
712.4959690744597
 20
177.6803181390591
 30
0.0
 40
2.0
100
AcDbArc
 50
8.626926999999758
 51
90.0
  0
LINE
  5
AAC
330
2
100
AcDbEntity
  8
0
100
AcDbLine
 10
711.6420870744597
 20
181.6803181390591
 30
0.0
 11
712.0871550744595
 21
181.6803181390591
 31
0.0
  0
ARC
  5
AAD
330
2
100
AcDbEntity
  8
HIDS
  6
SEKKEI_H
 48
0.5
100
AcDbCircle
 10
806.2777070744598
 20
184.7097221390591
 30
0.0
 40
1.5
100
AcDbArc
 50
90.0
 51
180.0
  0
ARC
  5
AAE
330
2
100
AcDbEntity
  8
HIDS
  6
SEKKEI_H
 48
0.5
100
AcDbCircle
 10
806.2777070744598
 20
184.7097221390591
 30
0.0
 40
3.0
100
AcDbArc
 50
90.0
 51
180.0
  0
ARC
  5
AAF
330
2
100
AcDbEntity
  8
HIDS
  6
SEKKEI_H
 48
0.5
100
AcDbCircle
 10
806.2777070744598
 20
184.7097221390591
 30
0.0
 40
4.5
100
AcDbArc
 50
90.0
 51
180.0
  0
LINE
  5
AB0
330
2
100
AcDbEntity
  8
HIDS
  6
SEKKEI_H
 48
0.5
100
AcDbLine
 10
801.7777070744596
 20
184.7097221390591
 30
0.0
 11
801.7777070744596
 21
180.2097221390591
 31
0.0
  0
LINE
  5
AB1
330
2
100
AcDbEntity
  8
HIDS
  6
SEKKEI_H
 48
0.5
100
AcDbLine
 10
803.2777070744597
 20
184.7097221390591
 30
0.0
 11
803.2777070744597
 21
180.2097221390591
 31
0.0
  0
LINE
  5
AB2
330
2
100
AcDbEntity
  8
HIDS
  6
SEKKEI_H
 48
0.5
100
AcDbLine
 10
804.7777070744595
 20
184.7097221390591
 30
0.0
 11
804.7777070744595
 21
179.6941121390591
 31
0.0
  0
LINE
  5
AB3
330
2
100
AcDbEntity
  8
HIDS
  6
SEKKEI_H
 48
0.5
100
AcDbLine
 10
803.2777070744597
 20
180.7097221390591
 30
0.0
 11
801.7777070744596
 21
180.2097221390591
 31
0.0
  0
LINE
  5
AB4
330
2
100
AcDbEntity
  8
HIDS
  6
SEKKEI_H
 48
0.5
100
AcDbLine
 10
804.7777070744595
 20
179.7097221390591
 30
0.0
 11
803.2777070744597
 21
180.2097221390591
 31
0.0
  0
ARC
  5
AB5
330
2
100
AcDbEntity
  8
0
100
AcDbCircle
 10
850.2777070744595
 20
126.1803181390591
 30
0.0
 40
5.0
100
AcDbArc
 50
270.0
 51
0.0
  0
LINE
  5
AB6
330
2
100
AcDbEntity
  8
0
100
AcDbLine
 10
624.4291350744596
 20
425.2245797406698
 30
0.0
 11
723.0153170744596
 21
425.2245797406698
 31
0.0
  0
ARC
  5
AB7
330
2
100
AcDbEntity
  8
0
100
AcDbCircle
 10
707.9168670744596
 20
204.2440541390591
 30
0.0
 40
6.0
100
AcDbArc
 50
239.6416930000005
 51
312.6359250000002
  0
ARC
  5
AB8
330
2
100
AcDbEntity
  8
0
100
AcDbCircle
 10
708.0642060744597
 20
388.5205697406697
 30
0.0
 40
11.0
100
AcDbArc
 50
248.924667
 51
295.7177279999999
  0
LINE
  5
AB9
330
2
100
AcDbEntity
  8
0
100
AcDbLine
 10
699.0897190744597
 20
379.7245797406698
 30
0.0
 11
716.6349460744596
 21
379.7245797406698
 31
0.0
  0
ARC
  5
ABA
330
2
100
AcDbEntity
  8
0
100
AcDbCircle
 10
708.0642060744597
 20
380.9285897406697
 30
0.0
 40
11.0
100
AcDbArc
 50
64.28227199999999
 51
111.0753329999997
  0
LINE
  5
ABB
330
2
100
AcDbEntity
  8
0
100
AcDbLine
 10
699.0897190744597
 20
389.7245797406698
 30
0.0
 11
716.6349460744596
 21
389.7245797406698
 31
0.0
  0
LINE
  5
ABC
330
2
100
AcDbEntity
  8
0
100
AcDbLine
 10
724.7222260744597
 20
412.7245797406698
 30
0.0
 11
624.2109960744596
 21
412.7245797406698
 31
0.0
  0
LINE
  5
ABD
330
2
100
AcDbEntity
  8
0
100
AcDbLine
 10
723.0153170744596
 20
344.2245797406698
 30
0.0
 11
624.4291350744596
 21
344.2245797406698
 31
0.0
  0
LINE
  5
ABE
330
2
100
AcDbEntity
  8
CENTER
100
AcDbLine
 10
616.1814550744598
 20
384.7245797406698
 30
0.0
 11
863.7982370426938
 21
384.7245797406698
 31
0.0
  0
LINE
  5
ABF
330
2
100
AcDbEntity
  8
0
100
AcDbLine
 10
716.7222260744597
 20
201.6803181390591
 30
0.0
 11
630.7222260744596
 21
201.6803181390591
 31
0.0
  0
LINE
  5
AC1
330
2
100
AcDbEntity
  8
0
100
AcDbLine
 10
708.0642060744597
 20
377.5205697406697
 30
0.0
 11
708.0642060744597
 21
344.2245797406698
 31
0.0
  0
LINE
  5
AC2
330
2
100
AcDbEntity
  8
0
100
AcDbLine
 10
699.0897190744597
 20
379.7245797406698
 30
0.0
 11
699.0897190744597
 21
344.2245797406698
 31
0.0
  0
LINE
  5
AC3
330
2
100
AcDbEntity
  8
0
100
AcDbLine
 10
648.3547330744596
 20
379.7245797406698
 30
0.0
 11
648.3547330744596
 21
344.2245797406698
 31
0.0
  0
LINE
  5
AC4
330
2
100
AcDbEntity
  8
0
100
AcDbLine
 10
639.3802460744596
 20
377.5205697406697
 30
0.0
 11
639.3802460744596
 21
344.2245797406698
 31
0.0
  0
LINE
  5
AC5
330
2
100
AcDbEntity
  8
0
100
AcDbLine
 10
623.7222260744596
 20
384.7245797406698
 30
0.0
 11
624.4291350744596
 21
344.2245797406698
 31
0.0
  0
LINE
  5
AC6
330
2
100
AcDbEntity
  8
CENTER
100
AcDbLine
 10
630.7222260744596
 20
340.8656627406698
 30
0.0
 11
630.7222260744596
 21
428.5406807406697
 31
0.0
  0
LINE
  5
AC7
330
2
100
AcDbEntity
  8
CENTER
100
AcDbLine
 10
662.7222260744596
 20
434.2197267406698
 30
0.0
 11
662.7222260744596
 21
335.2294327406698
 31
0.0
  0
LINE
  5
AC8
330
2
100
AcDbEntity
  8
HIDS
100
AcDbLine
 10
634.7222260744596
 20
344.2245797406698
 30
0.0
 11
634.7222260744596
 21
376.7245797406697
 31
0.0
  0
LINE
  5
AC9
330
2
100
AcDbEntity
  8
HIDS
100
AcDbLine
 10
626.7222260744595
 20
344.2245797406698
 30
0.0
 11
626.7222260744595
 21
376.7245797406697
 31
0.0
  0
LINE
  5
ACA
330
2
100
AcDbEntity
  8
HIDS
100
AcDbLine
 10
634.1222500744597
 20
412.7245797406698
 30
0.0
 11
634.1222500744597
 21
344.2245797406698
 31
0.0
  0
LINE
  5
ACB
330
2
100
AcDbEntity
  8
HIDS
100
AcDbLine
 10
627.3222020744595
 20
412.7245797406698
 30
0.0
 11
627.3222020744595
 21
344.2245797406698
 31
0.0
  0
LINE
  5
ACE
330
2
100
AcDbEntity
  8
HIDS
100
AcDbLine
 10
472.0550559161595
 20
198.8131461390591
 30
0.0
 11
451.0201439161595
 21
199.1803181390591
 31
0.0
  0
ARC
  5
ACF
330
2
100
AcDbEntity
  8
HIDS
100
AcDbCircle
 10
474.0201439161594
 20
198.1803181390591
 30
0.0
 40
3.0
100
AcDbArc
 50
0.0
 51
90.0
  0
ARC
  5
AD0
330
2
100
AcDbEntity
  8
HIDS
100
AcDbCircle
 10
472.0201439161595
 20
196.8134511390591
 30
0.0
 40
2.0
100
AcDbArc
 50
0.0
 51
88.99999999999987
  0
LINE
  5
AD1
330
2
100
AcDbEntity
  8
HIDS
100
AcDbLine
 10
477.0201439161595
 20
198.1803181390591
 30
0.0
 11
477.0201439161595
 21
194.5772911390591
 31
0.0
  0
LINE
  5
AD2
330
2
100
AcDbEntity
  8
HIDS
100
AcDbLine
 10
474.0201439161594
 20
196.8134511390591
 30
0.0
 11
474.0201439161594
 21
192.8820541390591
 31
0.0
  0
ARC
  5
AD3
330
2
100
AcDbEntity
  8
0
100
AcDbCircle
 10
649.7222260744596
 20
194.0452321390591
 30
0.0
 40
2.0
100
AcDbArc
 50
104.4775089999994
 51
180.0
  0
ARC
  5
AD4
330
2
100
AcDbEntity
  8
0
100
AcDbCircle
 10
654.7222260744596
 20
174.6803181390591
 30
0.0
 40
22.0
100
AcDbArc
 50
90.0
 51
110.4873119999995
  0
ARC
  5
AD5
330
2
100
AcDbEntity
  8
0
100
AcDbCircle
 10
650.1228610744596
 20
191.6803181390591
 30
0.0
 40
10.0
100
AcDbArc
 50
90.0
 51
112.3316419999994
  0
CIRCLE
  5
AD6
330
2
100
AcDbEntity
  8
0
100
AcDbCircle
 10
630.7222260744596
 20
194.6803181390592
 30
0.0
 40
3.399999999999999
  0
ARC
  5
AD7
330
2
100
AcDbEntity
  8
0
100
AcDbCircle
 10
630.7222260744596
 20
194.6803181390592
 30
0.0
 40
7.0
100
AcDbArc
 50
47.3640670000003
 51
180.0
  0
ARC
  5
AD9
330
2
100
AcDbEntity
  8
0
100
AcDbCircle
 10
639.5275850744596
 20
204.2440541390591
 30
0.0
 40
6.0
100
AcDbArc
 50
227.3640749999997
 51
300.3583069999994
  0
ARC
  5
ADA
330
2
100
AcDbEntity
  8
0
100
AcDbCircle
 10
647.7222260744596
 20
193.4153191390592
 30
0.0
 40
2.0
100
AcDbArc
 50
110.4873119999995
 51
180.0
  0
LINE
  5
ADB
330
2
100
AcDbEntity
  8
0
100
AcDbLine
 10
647.5980190744595
 20
191.4864251390591
 30
0.0
 11
645.5980190744595
 21
192.2262771390592
 31
0.0
  0
ARC
  5
ADC
330
2
100
AcDbEntity
  8
0
100
AcDbCircle
 10
643.7222260744596
 20
192.9201711390591
 30
0.0
 40
2.0
100
AcDbArc
 50
319.3987049999997
 51
0.0
  0
LINE
  5
ADD
330
2
100
AcDbEntity
  8
0
100
AcDbLine
 10
647.7222260744596
 20
192.1803181390591
 30
0.0
 11
647.7222260744596
 21
194.0452321390591
 31
0.0
  0
LINE
  5
ADE
330
2
100
AcDbEntity
  8
0
100
AcDbLine
 10
645.7222260744596
 20
192.9201711390591
 30
0.0
 11
645.7222260744596
 21
193.4153191390592
 31
0.0
  0
ARC
  5
ADF
330
2
100
AcDbEntity
  8
0
100
AcDbCircle
 10
657.7222260744596
 20
173.1803181390591
 30
0.0
 40
30.0
100
AcDbArc
 50
112.3316419999994
 51
120.358299
  0
LINE
  5
AE0
330
2
100
AcDbEntity
  8
0
100
AcDbLine
 10
654.7222260744596
 20
196.6803181390591
 30
0.0
 11
692.7222260744597
 21
196.6803181390591
 31
0.0
  0
ARC
  5
AE1
330
2
100
AcDbEntity
  8
0
100
AcDbCircle
 10
692.7222260744597
 20
174.6803181390591
 30
0.0
 40
22.0
100
AcDbArc
 50
69.51268799999964
 51
90.0
  0
ARC
  5
AE2
330
2
100
AcDbEntity
  8
0
100
AcDbCircle
 10
699.7222260744597
 20
193.4153191390592
 30
0.0
 40
2.0
100
AcDbArc
 50
0.0
 51
69.51268799999964
  0
ARC
  5
AE3
330
2
100
AcDbEntity
  8
0
100
AcDbCircle
 10
697.7222260744597
 20
194.0452321390591
 30
0.0
 40
2.0
100
AcDbArc
 50
0.0
 51
75.52249100000058
  0
LINE
  5
AE4
330
2
100
AcDbEntity
  8
0
100
AcDbLine
 10
699.8464330744597
 20
191.4864251390591
 30
0.0
 11
701.8464330744596
 21
192.2262771390592
 31
0.0
  0
ARC
  5
AE5
330
2
100
AcDbEntity
  8
0
100
AcDbCircle
 10
703.7222260744597
 20
192.9201711390591
 30
0.0
 40
2.0
100
AcDbArc
 50
180.0
 51
220.6012879999999
  0
LINE
  5
AE6
330
2
100
AcDbEntity
  8
0
100
AcDbLine
 10
699.7222260744597
 20
192.1803181390591
 30
0.0
 11
699.7222260744597
 21
194.0452321390591
 31
0.0
  0
LINE
  5
AE7
330
2
100
AcDbEntity
  8
0
100
AcDbLine
 10
701.7222260744595
 20
192.9201711390591
 30
0.0
 11
701.7222260744595
 21
193.4153191390592
 31
0.0
  0
ARC
  5
AE8
330
2
100
AcDbEntity
  8
0
100
AcDbCircle
 10
689.7222260744597
 20
173.1803181390591
 30
0.0
 40
30.0
100
AcDbArc
 50
59.64169700000056
 51
67.66835800000054
  0
ARC
  5
AE9
330
2
100
AcDbEntity
  8
0
100
AcDbCircle
 10
697.3215910744596
 20
191.6803181390591
 30
0.0
 40
10.0
100
AcDbArc
 50
67.66835800000054
 51
90.0
  0
LINE
  5
AEA
330
2
100
AcDbEntity
  8
0
100
AcDbLine
 10
708.0642060744597
 20
425.2245797406698
 30
0.0
 11
708.0642060744597
 21
391.9285897406698
 31
0.0
  0
LINE
  5
AEB
330
2
100
AcDbEntity
  8
0
100
AcDbLine
 10
699.0897190744597
 20
425.2245797406698
 30
0.0
 11
699.0897190744597
 21
389.7245797406698
 31
0.0
  0
LINE
  5
AEC
330
2
100
AcDbEntity
  8
0
100
AcDbLine
 10
639.3802460744596
 20
425.2245797406698
 30
0.0
 11
639.3802460744596
 21
391.9285897406698
 31
0.0
  0
LINE
  5
AED
330
2
100
AcDbEntity
  8
0
100
AcDbLine
 10
648.3547330744596
 20
425.2245797406698
 30
0.0
 11
648.3547330744596
 21
389.7245797406698
 31
0.0
  0
LINE
  5
AEE
330
2
100
AcDbEntity
  8
0
100
AcDbLine
 10
623.7222260744596
 20
384.7245797406698
 30
0.0
 11
624.4291350744596
 21
425.2245797406698
 31
0.0
  0
LINE
  5
AEF
330
2
100
AcDbEntity
  8
HIDS
  6
SEKKEI_H
100
AcDbLine
 10
634.9722260744596
 20
412.7245797406698
 30
0.0
 11
634.9722260744596
 21
425.2245797406698
 31
0.0
  0
LINE
  5
AF0
330
2
100
AcDbEntity
  8
HIDS
  6
SEKKEI_H
100
AcDbLine
 10
626.4722260744596
 20
412.7245797406698
 30
0.0
 11
626.4722260744596
 21
425.2245797406698
 31
0.0
  0
ARC
  5
AF1
330
2
100
AcDbEntity
  8
0
100
AcDbCircle
 10
639.3802460744596
 20
388.5205697406697
 30
0.0
 40
11.0
100
AcDbArc
 50
244.282272
 51
291.0753169999998
  0
LINE
  5
AF2
330
2
100
AcDbEntity
  8
HIDS
100
AcDbLine
 10
626.7222260744595
 20
376.7245797406697
 30
0.0
 11
634.7222260744596
 21
376.7245797406697
 31
0.0
  0
ARC
  5
AF3
330
2
100
AcDbEntity
  8
0
100
AcDbCircle
 10
630.8095060744594
 20
373.2245797406698
 30
0.0
 40
6.5
100
AcDbArc
 50
64.28227199999999
 51
90.0
  0
LINE
  5
AF4
330
2
100
AcDbEntity
  8
0
100
AcDbLine
 10
648.3547330744596
 20
379.7245797406698
 30
0.0
 11
630.8095060744594
 21
379.7245797406698
 31
0.0
  0
ARC
  5
AF5
330
2
100
AcDbEntity
  8
0
100
AcDbCircle
 10
630.8095060744594
 20
396.2245797406698
 30
0.0
 40
6.5
100
AcDbArc
 50
270.0
 51
295.7177279999999
  0
LINE
  5
AF6
330
2
100
AcDbEntity
  8
0
100
AcDbLine
 10
648.3547330744596
 20
389.7245797406698
 30
0.0
 11
630.8095060744594
 21
389.7245797406698
 31
0.0
  0
LINE
  5
AF7
330
2
100
AcDbEntity
  8
0
100
AcDbLine
 10
634.6069310744596
 20
378.6101997406697
 30
0.0
 11
633.6301240744595
 21
379.0807197406698
 31
0.0
  0
ARC
  5
AF8
330
2
100
AcDbEntity
  8
0
100
AcDbCircle
 10
648.3547330744596
 20
373.2245797406698
 30
0.0
 40
6.5
100
AcDbArc
 50
90.0
 51
111.0753329999997
  0
LINE
  5
AF9
330
2
100
AcDbEntity
  8
0
100
AcDbLine
 10
646.0173310744596
 20
379.2897957406697
 30
0.0
 11
643.3358120744595
 21
378.2563797406698
 31
0.0
  0
ARC
  5
AFA
330
2
100
AcDbEntity
  8
0
100
AcDbCircle
 10
639.3802460744596
 20
380.9285897406697
 30
0.0
 40
11.0
100
AcDbArc
 50
68.92466700000015
 51
115.717728
  0
LINE
  5
AFB
330
2
100
AcDbEntity
  8
0
100
AcDbLine
 10
634.6069310744596
 20
390.8389597406698
 30
0.0
 11
633.6301240744595
 21
390.3684707406698
 31
0.0
  0
ARC
  5
AFC
330
2
100
AcDbEntity
  8
0
100
AcDbCircle
 10
648.3547330744596
 20
396.2245797406698
 30
0.0
 40
6.5
100
AcDbArc
 50
248.924667
 51
270.0
  0
LINE
  5
AFD
330
2
100
AcDbEntity
  8
0
100
AcDbLine
 10
646.0173310744596
 20
390.1593637406698
 30
0.0
 11
643.3358120744595
 21
391.1927807406697
 31
0.0
  0
LINE
  5
AFE
330
2
100
AcDbEntity
  8
HIDS
100
AcDbLine
 10
626.7222260744595
 20
412.7245797406698
 30
0.0
 11
626.7222260744595
 21
392.7245797406698
 31
0.0
  0
LINE
  5
AFF
330
2
100
AcDbEntity
  8
HIDS
100
AcDbLine
 10
634.7222260744596
 20
412.7245797406698
 30
0.0
 11
634.7222260744596
 21
392.7245797406698
 31
0.0
  0
LINE
  5
B00
330
2
100
AcDbEntity
  8
HIDS
100
AcDbLine
 10
626.7222260744595
 20
392.7245797406698
 30
0.0
 11
634.7222260744596
 21
392.7245797406698
 31
0.0
  0
LINE
  5
B01
330
2
100
AcDbEntity
  8
0
100
AcDbLine
 10
701.4270600744596
 20
379.2897957406697
 30
0.0
 11
704.1086400744595
 21
378.2563797406698
 31
0.0
  0
ARC
  5
B02
330
2
100
AcDbEntity
  8
0
100
AcDbCircle
 10
699.0897190744597
 20
373.2245797406698
 30
0.0
 40
6.5
100
AcDbArc
 50
68.92466700000015
 51
90.0
  0
LINE
  5
B03
330
2
100
AcDbEntity
  8
0
100
AcDbLine
 10
701.4270600744596
 20
390.1593637406698
 30
0.0
 11
704.1086400744595
 21
391.1927807406697
 31
0.0
  0
ARC
  5
B04
330
2
100
AcDbEntity
  8
0
100
AcDbCircle
 10
699.0897190744597
 20
396.2245797406698
 30
0.0
 40
6.5
100
AcDbArc
 50
270.0
 51
291.0753169999998
  0
LINE
  5
B05
330
2
100
AcDbEntity
  8
0
100
AcDbLine
 10
855.2777070744596
 20
419.7245797406698
 30
0.0
 11
855.2777070744596
 21
349.7245797406698
 31
0.0
  0
LINE
  5
B06
330
2
100
AcDbEntity
  8
0
100
AcDbLine
 10
806.2777070744598
 20
424.7245797406698
 30
0.0
 11
806.2777070744598
 21
392.2245797406698
 31
0.0
  0
LINE
  5
B07
330
2
100
AcDbEntity
  8
0
100
AcDbLine
 10
719.1552090744596
 20
384.7245797406698
 30
0.0
 11
718.7194180744596
 21
359.7594917406697
 31
0.0
  0
LINE
  5
B08
330
2
100
AcDbEntity
  8
0
100
AcDbLine
 10
724.7222260744597
 20
407.7245797406698
 30
0.0
 11
724.7222260744597
 21
361.7245797406698
 31
0.0
  0
LINE
  5
B09
330
2
100
AcDbEntity
  8
CENTER
100
AcDbLine
 10
716.7222260744597
 20
340.8656627406698
 30
0.0
 11
716.7222260744597
 21
428.5406807406697
 31
0.0
  0
LINE
  5
B0A
330
2
100
AcDbEntity
  8
0
100
AcDbLine
 10
796.7777070744597
 20
346.7245797406698
 30
0.0
 11
796.7777070744597
 21
359.7245797406698
 31
0.0
  0
LINE
  5
B0B
330
2
100
AcDbEntity
  8
HIDS
100
AcDbLine
 10
720.7222260744597
 20
344.2245797406698
 30
0.0
 11
720.7222260744597
 21
376.7245797406697
 31
0.0
  0
LINE
  5
B0C
330
2
100
AcDbEntity
  8
HIDS
100
AcDbLine
 10
712.7222260744597
 20
344.2245797406698
 30
0.0
 11
712.7222260744597
 21
376.7245797406697
 31
0.0
  0
LINE
  5
B0D
330
2
100
AcDbEntity
  8
HIDS
100
AcDbLine
 10
720.1222500744596
 20
412.7245797406698
 30
0.0
 11
720.1222500744596
 21
344.2245797406698
 31
0.0
  0
LINE
  5
B0E
330
2
100
AcDbEntity
  8
HIDS
100
AcDbLine
 10
713.3222020744597
 20
412.7245797406698
 30
0.0
 11
713.3222020744597
 21
344.2245797406698
 31
0.0
  0
LINE
  5
B0F
330
2
100
AcDbEntity
  8
0
100
AcDbLine
 10
853.0277070744595
 20
360.7245797406698
 30
0.0
 11
806.2777070744598
 21
360.7245797406698
 31
0.0
  0
LINE
  5
B10
330
2
100
AcDbEntity
  8
0
100
AcDbLine
 10
850.2777070744595
 20
344.7245797406698
 30
0.0
 11
806.2777070744598
 21
344.7245797406698
 31
0.0
  0
LINE
  5
B11
330
2
100
AcDbEntity
  8
0
100
AcDbLine
 10
850.2777070744595
 20
201.1803181390591
 30
0.0
 11
806.2777070744598
 21
201.1803181390591
 31
0.0
  0
LINE
  5
B12
330
2
100
AcDbEntity
  8
0
100
AcDbLine
 10
796.7777070744597
 20
191.4292801390591
 30
0.0
 11
723.7222260744597
 21
191.4292801390591
 31
0.0
  0
LINE
  5
B13
330
2
100
AcDbEntity
  8
0
100
AcDbLine
 10
796.7777070744597
 20
199.1803181390591
 30
0.0
 11
725.0809910744597
 21
199.1803181390591
 31
0.0
  0
ARC
  5
B14
330
2
100
AcDbEntity
  8
0
100
AcDbCircle
 10
716.7222260744597
 20
194.6803181390592
 30
0.0
 40
7.0
100
AcDbArc
 50
0.0
 51
132.6359250000002
  0
CIRCLE
  5
B15
330
2
100
AcDbEntity
  8
0
100
AcDbCircle
 10
716.7222260744597
 20
194.6803181390592
 30
0.0
 40
3.399999999999999
  0
LINE
  5
B16
330
2
100
AcDbEntity
  8
0
100
AcDbLine
 10
724.3858610744597
 20
199.3050131390591
 30
0.0
 11
719.1552090744596
 21
201.2439011390591
 31
0.0
  0
ARC
  5
B17
330
2
100
AcDbEntity
  8
0
100
AcDbCircle
 10
725.0809910744597
 20
201.1803181390591
 30
0.0
 40
2.0
100
AcDbArc
 50
249.6612699999999
 51
270.0
  0
LINE
  5
B18
330
2
100
AcDbEntity
  8
0
100
AcDbLine
 10
806.2777070744598
 20
191.4293111390591
 30
0.0
 11
796.7777070744597
 21
191.4293111390591
 31
0.0
  0
LINE
  5
B19
330
2
100
AcDbEntity
  8
0
100
AcDbLine
 10
806.2777070744598
 20
199.1803181390591
 30
0.0
 11
796.7777070744597
 21
199.1803181390591
 31
0.0
  0
LINE
  5
B24
330
2
100
AcDbEntity
  8
0
100
AcDbLine
 10
806.2777070744598
 20
361.7245797406698
 30
0.0
 11
805.7777070744595
 21
361.7245797406698
 31
0.0
  0
LINE
  5
B25
330
2
100
AcDbEntity
  8
0
100
AcDbLine
 10
725.0243500744597
 20
346.7245797406698
 30
0.0
 11
796.7777070744597
 21
346.7245797406698
 31
0.0
  0
LINE
  5
B26
330
2
100
AcDbEntity
  8
0
100
AcDbLine
 10
723.0153170744596
 20
344.2245797406698
 30
0.0
 11
723.3207370744596
 21
361.7245797406698
 31
0.0
  0
ARC
  5
B27
330
2
100
AcDbEntity
  8
0
100
AcDbCircle
 10
725.0243500744597
 20
344.7245797406698
 30
0.0
 40
2.0
100
AcDbArc
 50
90.0
 51
178.9999999999998
  0
ARC
  5
B28
330
2
100
AcDbEntity
  8
0
100
AcDbCircle
 10
720.7191130744596
 20
359.7245797406698
 30
0.0
 40
2.0
100
AcDbArc
 50
90.0
 51
178.9999999999998
  0
LINE
  5
B29
330
2
100
AcDbEntity
  8
0
100
AcDbLine
 10
806.2777070744598
 20
346.7245797406698
 30
0.0
 11
796.7777070744597
 21
346.7245797406698
 31
0.0
  0
ARC
  5
B2A
330
2
100
AcDbEntity
  8
0
100
AcDbCircle
 10
850.2777070744595
 20
196.1803181390591
 30
0.0
 40
5.0
100
AcDbArc
 50
0.0
 51
90.0
  0
ARC
  5
B2B
330
2
100
AcDbEntity
  8
0
100
AcDbCircle
 10
850.2777070744595
 20
349.7245797406698
 30
0.0
 40
5.0
100
AcDbArc
 50
270.0
 51
0.0
  0
LINE
  5
B2C
330
2
100
AcDbEntity
  8
0
100
AcDbLine
 10
853.0277070744595
 20
408.7245797406698
 30
0.0
 11
806.2777070744598
 21
408.7245797406698
 31
0.0
  0
LINE
  5
B2D
330
2
100
AcDbEntity
  8
0
100
AcDbLine
 10
850.2777070744595
 20
424.7245797406698
 30
0.0
 11
806.2777070744598
 21
424.7245797406698
 31
0.0
  0
LINE
  5
B2E
330
2
100
AcDbEntity
  8
0
100
AcDbLine
 10
801.7777070744596
 20
416.8677377406697
 30
0.0
 11
801.7777070744596
 21
421.3677377406697
 31
0.0
  0
LINE
  5
B2F
330
2
100
AcDbEntity
  8
0
100
AcDbLine
 10
803.2777070744597
 20
416.8677377406697
 30
0.0
 11
803.2777070744597
 21
421.3677377406697
 31
0.0
  0
LINE
  5
B30
330
2
100
AcDbEntity
  8
0
100
AcDbLine
 10
804.7777070744595
 20
416.8677377406697
 30
0.0
 11
804.7777070744595
 21
421.8833627406698
 31
0.0
  0
LINE
  5
B31
330
2
100
AcDbEntity
  8
0
100
AcDbLine
 10
796.7777070744597
 20
409.7245797406698
 30
0.0
 11
796.7777070744597
 21
422.7245797406697
 31
0.0
  0
LINE
  5
B32
330
2
100
AcDbEntity
  8
0
100
AcDbLine
 10
723.0153170744596
 20
425.2245797406698
 30
0.0
 11
723.3207370744596
 21
407.7245797406698
 31
0.0
  0
LINE
  5
B33
330
2
100
AcDbEntity
  8
0
100
AcDbLine
 10
724.7222260744597
 20
422.1038527406697
 30
0.0
 11
724.7222260744597
 21
412.7245797406698
 31
0.0
  0
LINE
  5
B34
330
2
100
AcDbEntity
  8
HIDS
  6
SEKKEI_H
100
AcDbLine
 10
720.9722260744597
 20
412.7245797406698
 30
0.0
 11
720.9722260744597
 21
425.2245797406698
 31
0.0
  0
LINE
  5
B35
330
2
100
AcDbEntity
  8
HIDS
  6
SEKKEI_H
100
AcDbLine
 10
712.4722260744597
 20
412.7245797406698
 30
0.0
 11
712.4722260744597
 21
425.2245797406698
 31
0.0
  0
LINE
  5
B36
330
2
100
AcDbEntity
  8
0
100
AcDbLine
 10
806.2777070744598
 20
407.7245797406698
 30
0.0
 11
805.7777070744595
 21
407.7245797406698
 31
0.0
  0
LINE
  5
B37
330
2
100
AcDbEntity
  8
0
100
AcDbLine
 10
719.1552090744596
 20
384.7245797406698
 30
0.0
 11
718.7194180744596
 21
409.6896677406697
 31
0.0
  0
LINE
  5
B38
330
2
100
AcDbEntity
  8
HIDS
100
AcDbLine
 10
712.7222260744597
 20
376.7245797406697
 30
0.0
 11
720.7222260744597
 21
376.7245797406697
 31
0.0
  0
LINE
  5
B39
330
2
100
AcDbEntity
  8
0
100
AcDbLine
 10
712.8375210744597
 20
378.6101997406697
 30
0.0
 11
713.8143280744595
 21
379.0807197406698
 31
0.0
  0
ARC
  5
B3A
330
2
100
AcDbEntity
  8
0
100
AcDbCircle
 10
716.6349460744596
 20
373.2245797406698
 30
0.0
 40
6.5
100
AcDbArc
 50
90.0
 51
115.717728
  0
LINE
  5
B3B
330
2
100
AcDbEntity
  8
0
100
AcDbLine
 10
712.8375210744597
 20
390.8389597406698
 30
0.0
 11
713.8143280744595
 21
390.3684707406698
 31
0.0
  0
ARC
  5
B3C
330
2
100
AcDbEntity
  8
0
100
AcDbCircle
 10
716.6349460744596
 20
396.2245797406698
 30
0.0
 40
6.5
100
AcDbArc
 50
244.282272
 51
270.0
  0
LINE
  5
B3D
330
2
100
AcDbEntity
  8
HIDS
100
AcDbLine
 10
712.7222260744597
 20
412.7245797406698
 30
0.0
 11
712.7222260744597
 21
392.7245797406698
 31
0.0
  0
LINE
  5
B3E
330
2
100
AcDbEntity
  8
HIDS
100
AcDbLine
 10
720.7222260744597
 20
412.7245797406698
 30
0.0
 11
720.7222260744597
 21
392.7245797406698
 31
0.0
  0
LINE
  5
B3F
330
2
100
AcDbEntity
  8
HIDS
100
AcDbLine
 10
712.7222260744597
 20
392.7245797406698
 30
0.0
 11
720.7222260744597
 21
392.7245797406698
 31
0.0
  0
ARC
  5
B40
330
2
100
AcDbEntity
  8
0
100
AcDbCircle
 10
720.7191130744596
 20
409.7245797406698
 30
0.0
 40
2.0
100
AcDbArc
 50
181.0
 51
270.0
  0
ARC
  5
B4D
330
2
100
AcDbEntity
  8
0
100
AcDbCircle
 10
806.2777070744598
 20
416.8677377406697
 30
0.0
 40
1.5
100
AcDbArc
 50
180.0
 51
270.0
  0
ARC
  5
B4E
330
2
100
AcDbEntity
  8
0
100
AcDbCircle
 10
806.2777070744598
 20
416.8677377406697
 30
0.0
 40
3.0
100
AcDbArc
 50
180.0
 51
270.0
  0
ARC
  5
B4F
330
2
100
AcDbEntity
  8
0
100
AcDbCircle
 10
806.2777070744598
 20
416.8677377406697
 30
0.0
 40
4.5
100
AcDbArc
 50
180.0
 51
270.0
  0
LINE
  5
B50
330
2
100
AcDbEntity
  8
0
100
AcDbLine
 10
726.1705290744596
 20
422.7245797406697
 30
0.0
 11
796.7777070744597
 21
422.7245797406697
 31
0.0
  0
ARC
  5
B51
330
2
100
AcDbEntity
  8
0
100
AcDbCircle
 10
726.1705290744596
 20
420.7245797406698
 30
0.0
 40
2.0
100
AcDbArc
 50
90.0
 51
136.3987579999996
  0
LINE
  5
B52
330
2
100
AcDbEntity
  8
0
100
AcDbLine
 10
806.2777070744598
 20
422.7245797406697
 30
0.0
 11
796.7777070744597
 21
422.7245797406697
 31
0.0
  0
LINE
  5
B53
330
2
100
AcDbEntity
  8
HOJO
100
AcDbLine
 10
803.2777070744597
 20
420.8677377406697
 30
0.0
 11
801.7777070744596
 21
421.3677377406697
 31
0.0
  0
LINE
  5
B54
330
2
100
AcDbEntity
  8
HOJO
100
AcDbLine
 10
804.7777070744595
 20
421.8677377406697
 30
0.0
 11
803.2777070744597
 21
421.3677377406697
 31
0.0
  0
ARC
  5
B55
330
2
100
AcDbEntity
  8
0
100
AcDbCircle
 10
850.2777070744595
 20
419.7246107406697
 30
0.0
 40
5.0
100
AcDbArc
 50
0.0
 51
90.0
  0
LINE
  5
1074
330
2
100
AcDbEntity
  8
HIDS
100
AcDbLine
 10
459.0201439161595
 20
198.6803181390591
 30
0.0
 11
459.0201439161595
 21
190.6803181390591
 31
0.0
  0
LINE
  5
1076
330
2
100
AcDbEntity
  8
HIDS
100
AcDbLine
 10
443.0201439161595
 20
198.6803181390591
 30
0.0
 11
443.0201439161595
 21
190.6803181390591
 31
0.0
  0
LINE
  5
1077
330
2
100
AcDbEntity
  8
0
100
AcDbLine
 10
410.5201439161595
 20
200.9733941390591
 30
0.0
 11
410.5201439161595
 21
121.3872501390591
 31
0.0
  0
LINE
  5
1078
330
2
100
AcDbEntity
  8
0
100
AcDbLine
 10
423.0201439161595
 20
121.1690571390592
 30
0.0
 11
423.0201439161595
 21
201.1915805588122
 31
0.0
  0
LINE
  5
1079
330
2
100
AcDbEntity
  8
0
100
AcDbLine
 10
491.5201439161594
 20
200.9733941390591
 30
0.0
 11
491.5201439161594
 21
121.3872501390591
 31
0.0
  0
LINE
  5
107A
330
2
100
AcDbEntity
  8
CENTER
100
AcDbLine
 10
451.0201439161595
 20
237.0678161390591
 30
0.0
 11
451.0201439161595
 21
113.6321921390591
 31
0.0
  0
TEXT
  5
108F
330
2
100
AcDbEntity
  8
TITLE
100
AcDbText
 10
213.7613313417571
 20
75.30799974698408
 30
0.0
 40
7.0
  1
F2SB-12-10～240-S15WT
 41
0.8
100
AcDbText
  0
TEXT
  5
1090
330
2
100
AcDbEntity
  8
TITLE
100
AcDbText
 10
213.7613313417571
 20
87.30799974698408
 30
0.0
 40
7.0
  1
F2SB-12-10～240-S15T
 41
0.8
100
AcDbText
  0
TEXT
  5
1091
330
2
100
AcDbEntity
  8
TITLE
100
AcDbText
 10
90.00260132853975
 20
15.34275674052429
 30
0.0
 40
7.0
  1
F2SB-12-10～60-T60T
 41
0.8
100
AcDbText
  0
TEXT
  5
1092
330
2
100
AcDbEntity
  8
TITLE
100
AcDbText
 10
90.00260132853975
 20
27.34275674052428
 30
0.0
 40
7.0
  1
F2SB-12-10～120-T40WT
 41
0.8
100
AcDbText
  0
TEXT
  5
1093
330
2
100
AcDbEntity
  8
TITLE
100
AcDbText
 10
90.00260132853975
 20
39.34275674052429
 30
0.0
 40
7.0
  1
F2SB-12-10～120-T40T
 41
0.8
100
AcDbText
  0
TEXT
  5
1094
330
2
100
AcDbEntity
  8
TITLE
100
AcDbText
 10
90.00260132853975
 20
51.34275674052429
 30
0.0
 40
7.0
  1
F2SB-12-10～240-T25WT
 41
0.8
100
AcDbText
  0
TEXT
  5
1095
330
2
100
AcDbEntity
  8
TITLE
100
AcDbText
 10
90.00260132853975
 20
63.34275674052429
 30
0.0
 40
7.0
  1
F2SB-12-10～240-T25T
 41
0.8
100
AcDbText
  0
TEXT
  5
1096
330
2
100
AcDbEntity
  8
TITLE
100
AcDbText
 10
90.00260132853975
 20
75.3427567405243
 30
0.0
 40
7.0
  1
F2SB-12-10～240-T15WT
 41
0.8
100
AcDbText
  0
TEXT
  5
10A1
330
2
100
AcDbEntity
  8
TITLE
100
AcDbText
 10
90.00260132853975
 20
87.3427567405243
 30
0.0
 40
7.0
  1
F2SB-12-10~240-T15T
 41
0.8
100
AcDbText
  0
ARC
  5
10E7
330
2
100
AcDbEntity
  8
PHAS
  6
SEKKEI_P_S
100
AcDbCircle
 10
403.0201439161595
 20
148.2042131390592
 30
0.0
 40
3.0
100
AcDbArc
 50
180.0
 51
254.9999999999988
  0
ARC
  5
10E8
330
2
100
AcDbEntity
  8
PHAS
  6
SEKKEI_P_S
100
AcDbCircle
 10
403.0201439161595
 20
174.1564231390591
 30
0.0
 40
3.0
100
AcDbArc
 50
105.0000000000011
 51
180.0
  0
LINE
  5
10EB
330
2
100
AcDbEntity
  8
CENTER
100
AcDbLine
 10
394.2815269161595
 20
161.1803181390591
 30
0.0
 11
507.7587609161595
 21
161.1803181390591
 31
0.0
  0
LINE
  5
1152
330
2
100
AcDbEntity
  8
PHAS
  6
SEKKEI_P_S
100
AcDbLine
 10
400.0201439161594
 20
174.1564231390591
 30
0.0
 11
400.0201439161594
 21
148.2672931390591
 31
0.0
  0
LINE
  5
1162
330
2
100
AcDbEntity
  8
HIDS
100
AcDbLine
 10
459.0201439161595
 20
190.6803181390591
 30
0.0
 11
491.5201439161594
 21
190.6803181390591
 31
0.0
  0
LINE
  5
1163
330
2
100
AcDbEntity
  8
0
100
AcDbLine
 10
457.9851399161595
 20
176.0949301390591
 30
0.0
 11
491.5201439161594
 21
176.6803181390591
 31
0.0
  0
LINE
  5
1164
330
2
100
AcDbEntity
  8
0
100
AcDbLine
 10
460.3181479161595
 20
172.1357321390591
 30
0.0
 11
491.5201439161594
 21
172.6803181390591
 31
0.0
  0
LINE
  5
1165
330
2
100
AcDbEntity
  8
HIDS
100
AcDbLine
 10
423.0201439161595
 20
191.2803241390592
 30
0.0
 11
491.5201439161594
 21
191.2803241390592
 31
0.0
  0
LINE
  5
1166
330
2
100
AcDbEntity
  8
0
100
AcDbLine
 10
423.0201439161595
 20
131.0803201390592
 30
0.0
 11
491.5201439161594
 21
131.0803201390592
 31
0.0
  0
LINE
  5
1167
330
2
100
AcDbEntity
  8
0
100
AcDbLine
 10
423.0201439161595
 20
124.2803161390591
 30
0.0
 11
491.5201439161594
 21
124.2803161390591
 31
0.0
  0
LINE
  5
1168
330
2
100
AcDbEntity
  8
CENTER
100
AcDbLine
 10
408.0151699161596
 20
127.6803181390592
 30
0.0
 11
495.0639059161595
 21
127.6803181390592
 31
0.0
  0
LINE
  5
1169
330
2
100
AcDbEntity
  8
HOJO
100
AcDbLine
 10
459.0201439161595
 20
123.6803181390591
 30
0.0
 11
491.5201439161594
 21
123.6803181390591
 31
0.0
  0
LINE
  5
116A
330
2
100
AcDbEntity
  8
HOJO
100
AcDbLine
 10
459.0201439161595
 20
131.6803181390592
 30
0.0
 11
491.5201439161594
 21
131.6803181390592
 31
0.0
  0
LINE
  5
116B
330
2
100
AcDbEntity
  8
0
100
AcDbLine
 10
451.0201439161595
 20
120.6803181390591
 30
0.0
 11
491.5201439161594
 21
121.3872501390591
 31
0.0
  0
LINE
  5
116C
330
2
100
AcDbEntity
  8
0
100
AcDbLine
 10
460.3181479161595
 20
150.2249041390592
 30
0.0
 11
491.5201439161594
 21
149.6803181390591
 31
0.0
  0
LINE
  5
116D
330
2
100
AcDbEntity
  8
0
100
AcDbLine
 10
457.9851399161595
 20
146.2657061390591
 30
0.0
 11
491.5201439161594
 21
145.6803181390591
 31
0.0
  0
LWPOLYLINE
  5
116E
330
2
100
AcDbEntity
  8
HOJO
100
AcDbPolyline
 90
       21
 70
     0
 43
0.0
 10
410.5201439161595
 20
135.7983309411062
 10
414.0513939161595
 20
135.5593779411063
 10
417.7701439161594
 20
136.0281279411063
 10
421.5513939161595
 20
135.6218779411063
 10
425.0513939161595
 20
136.1218779411063
 10
429.0826439161596
 20
135.5906279411063
 10
432.6138939161594
 20
136.1531279411063
 10
437.1451439161595
 20
135.6531279411063
 10
441.8326439161595
 20
136.2781279411062
 10
446.5201439161595
 20
135.6843779411063
 10
450.3326439161595
 20
136.3093779411063
 10
455.6451439161596
 20
135.8093779411063
 10
459.5513939161596
 20
136.4656279411063
 10
464.1763939161594
 20
135.6218779411063
 10
468.5826439161594
 20
136.4656279411063
 10
472.6451439161595
 20
135.5906279411063
 10
476.0201439161595
 20
136.4343779411063
 10
480.3013939161594
 20
135.6843779411063
 10
483.9263939161595
 20
136.4031279411063
 10
487.8013939161594
 20
135.6843779411063
 10
491.5201439161594
 20
136.2266979411062
  0
LINE
  5
1170
330
2
100
AcDbEntity
  8
0
100
AcDbLine
 10
458.7819539161595
 20
150.9871111390591
 30
0.0
 11
456.4489459161595
 21
147.0279131390592
 31
0.0
  0
LINE
  5
1171
330
2
100
AcDbEntity
  8
0
100
AcDbLine
 10
441.7221399161594
 20
150.006703139059
 30
0.0
 11
423.0201439161595
 21
149.6803181390591
 31
0.0
  0
LINE
  5
1172
330
2
100
AcDbEntity
  8
0
100
AcDbLine
 10
445.5913419161594
 20
146.809713139059
 30
0.0
 11
443.2583339161594
 21
150.7689111390591
 31
0.0
  0
ARC
  5
1173
330
2
100
AcDbEntity
  8
0
100
AcDbCircle
 10
441.6871359161595
 20
152.006520139059
 30
0.0
 40
2.0
100
AcDbArc
 50
271.0000000000017
 51
0.0
  0
LINE
  5
1175
330
2
100
AcDbEntity
  8
0
100
AcDbLine
 10
446.0201439161594
 20
148.047109139059
 30
0.0
 11
446.0201439161594
 21
174.3135271390589
 31
0.0
  0
LINE
  5
1176
330
2
100
AcDbEntity
  8
0
100
AcDbLine
 10
456.0201439161595
 20
174.0953271390591
 30
0.0
 11
456.0201439161595
 21
148.2653091390591
 31
0.0
  0
LINE
  5
1177
330
2
100
AcDbEntity
  8
0
100
AcDbLine
 10
444.0551479161595
 20
146.0475061390591
 30
0.0
 11
423.0201439161595
 21
145.6803181390591
 31
0.0
  0
LINE
  5
1179
330
2
100
AcDbEntity
  8
0
100
AcDbLine
 10
451.0201439161595
 20
120.6803181390591
 30
0.0
 11
410.5201439161595
 21
121.3872501390591
 31
0.0
  0
LINE
  5
117B
330
2
100
AcDbEntity
  8
HOJO
100
AcDbLine
 10
443.0201439161595
 20
131.6803181390592
 30
0.0
 11
443.0201439161595
 21
123.6803181390591
 31
0.0
  0
LINE
  5
117C
330
2
100
AcDbEntity
  8
HOJO
100
AcDbLine
 10
423.0201439161595
 20
123.6803181390591
 30
0.0
 11
443.0201439161595
 21
123.6803181390591
 31
0.0
  0
LINE
  5
117D
330
2
100
AcDbEntity
  8
0
100
AcDbLine
 10
410.5201439161595
 20
123.4303181390592
 30
0.0
 11
423.0201439161595
 21
123.4303181390592
 31
0.0
  0
LINE
  5
117F
330
2
100
AcDbEntity
  8
HOJO
100
AcDbLine
 10
423.0201439161595
 20
131.6803181390592
 30
0.0
 11
443.0201439161595
 21
131.6803181390592
 31
0.0
  0
LINE
  5
1180
330
2
100
AcDbEntity
  8
0
100
AcDbLine
 10
412.0201439161594
 20
135.6968287818142
 30
0.0
 11
412.0201439161594
 21
141.1803181390591
 31
0.0
  0
LINE
  5
1181
330
2
100
AcDbEntity
  8
0
100
AcDbLine
 10
417.0201439161594
 20
135.9335901259802
 30
0.0
 11
417.0201439161594
 21
142.1803181390591
 31
0.0
  0
LINE
  5
1182
330
2
100
AcDbEntity
  8
0
100
AcDbLine
 10
416.0201439161594
 20
135.807539705812
 30
0.0
 11
416.0201439161594
 21
141.4803061390592
 31
0.0
  0
LINE
  5
1183
330
2
100
AcDbEntity
  8
CENTER
100
AcDbLine
 10
410.0805379161593
 20
137.6803181390592
 30
0.0
 11
418.0651569161595
 21
137.6803181390592
 31
0.0
  0
LINE
  5
1184
330
2
100
AcDbEntity
  8
0
100
AcDbLine
 10
410.5201439161595
 20
131.9303181390592
 30
0.0
 11
423.0201439161595
 21
131.9303181390592
 31
0.0
  0
LINE
  5
1185
330
2
100
AcDbEntity
  8
0
100
AcDbLine
 10
423.0201439161595
 20
149.6803181390591
 30
0.0
 11
410.5201439161595
 21
149.6803181390591
 31
0.0
  0
LINE
  5
1186
330
2
100
AcDbEntity
  8
0
100
AcDbLine
 10
423.0201439161595
 20
145.6803181390591
 30
0.0
 11
410.5201439161595
 21
145.6803181390591
 31
0.0
  0
LINE
  5
1187
330
2
100
AcDbEntity
  8
0
100
AcDbLine
 10
410.5201439161595
 20
142.3505151390591
 30
0.0
 11
417.0201439161594
 21
142.1803181390591
 31
0.0
  0
LINE
  5
1188
330
2
100
AcDbEntity
  8
0
100
AcDbLine
 10
412.0201439161594
 20
141.1803181390591
 30
0.0
 11
416.0201439161594
 21
141.1803181390591
 31
0.0
  0
LINE
  5
1189
330
2
100
AcDbEntity
  8
PHAS
  6
SEKKEI_P_S
100
AcDbLine
 10
402.2436849161596
 20
145.3064321390591
 30
0.0
 11
410.5201439161595
 21
143.0887616303136
 31
0.0
  0
LINE
  5
118A
330
2
100
AcDbEntity
  8
0
100
AcDbLine
 10
416.0201439161594
 20
141.4803061390592
 30
0.0
 11
417.0201439161594
 21
141.4803061390592
 31
0.0
  0
LINE
  5
118C
330
2
100
AcDbEntity
  8
HOJO
100
AcDbLine
 10
459.0201439161595
 20
131.6803181390592
 30
0.0
 11
459.0201439161595
 21
123.6803181390591
 31
0.0
  0
ARC
  5
1190
330
2
100
AcDbEntity
  8
0
100
AcDbCircle
 10
444.0201439161596
 20
148.047109139059
 30
0.0
 40
2.0
100
AcDbArc
 50
271.0000000000017
 51
0.0
  0
ARC
  5
1191
330
2
100
AcDbEntity
  8
0
100
AcDbCircle
 10
458.0201439161594
 20
148.2653091390591
 30
0.0
 40
2.0
100
AcDbArc
 50
180.0
 51
268.9999999999981
  0
LINE
  5
1193
330
2
100
AcDbEntity
  8
0
100
AcDbLine
 10
444.0551479161595
 20
176.313130139059
 30
0.0
 11
423.0201439161595
 21
176.6803181390591
 31
0.0
  0
LINE
  5
1194
330
2
100
AcDbEntity
  8
0
100
AcDbLine
 10
443.2583339161594
 20
171.591725139059
 30
0.0
 11
445.5913419161594
 21
175.550923139059
 31
0.0
  0
ARC
  5
1195
330
2
100
AcDbEntity
  8
0
100
AcDbCircle
 10
441.6871359161595
 20
170.354116139059
 30
0.0
 40
2.0
100
AcDbArc
 50
0.0
 51
88.99999999999822
  0
LINE
  5
1196
330
2
100
AcDbEntity
  8
0
100
AcDbLine
 10
443.6871359161593
 20
170.354116139059
 30
0.0
 11
443.6871359161593
 21
152.006520139059
 31
0.0
  0
LINE
  5
1197
330
2
100
AcDbEntity
  8
HIDS
100
AcDbLine
 10
423.0201439161595
 20
190.6803181390591
 30
0.0
 11
443.0201439161595
 21
190.6803181390591
 31
0.0
  0
LINE
  5
1198
330
2
100
AcDbEntity
  8
0
100
AcDbLine
 10
441.7221399161594
 20
172.3539331390591
 30
0.0
 11
423.0201439161595
 21
172.6803181390591
 31
0.0
  0
LINE
  5
1199
330
2
100
AcDbEntity
  8
0
100
AcDbLine
 10
416.0201439161594
 20
188.4803061390591
 30
0.0
 11
416.0201439161594
 21
180.8803301390591
 31
0.0
  0
LINE
  5
119A
330
2
100
AcDbEntity
  8
0
100
AcDbLine
 10
417.0201439161594
 20
189.1803181390591
 30
0.0
 11
417.0201439161594
 21
180.1803181390591
 31
0.0
  0
LINE
  5
119B
330
2
100
AcDbEntity
  8
0
100
AcDbLine
 10
412.0201439161594
 20
188.1803181390591
 30
0.0
 11
412.0201439161594
 21
181.1803181390591
 31
0.0
  0
LINE
  5
119C
330
2
100
AcDbEntity
  8
0
100
AcDbLine
 10
412.0201439161594
 20
181.1803181390591
 30
0.0
 11
416.0201439161594
 21
181.1803181390591
 31
0.0
  0
LINE
  5
119D
330
2
100
AcDbEntity
  8
0
100
AcDbLine
 10
423.0201439161595
 20
176.6803181390591
 30
0.0
 11
410.5201439161595
 21
176.6803181390591
 31
0.0
  0
LINE
  5
119E
330
2
100
AcDbEntity
  8
0
100
AcDbLine
 10
423.0201439161595
 20
172.6803181390591
 30
0.0
 11
410.5201439161595
 21
172.6803181390591
 31
0.0
  0
LINE
  5
119F
330
2
100
AcDbEntity
  8
0
100
AcDbLine
 10
410.5201439161595
 20
180.0101211390589
 30
0.0
 11
417.0201439161594
 21
180.1803181390591
 31
0.0
  0
LINE
  5
11A0
330
2
100
AcDbEntity
  8
PHAS
  6
SEKKEI_P_S
100
AcDbLine
 10
402.2436849161596
 20
177.0542041390591
 30
0.0
 11
410.5201439161595
 21
179.2718746478048
 31
0.0
  0
LINE
  5
11A1
330
2
100
AcDbEntity
  8
HIDS
  6
SEKKEI_H
100
AcDbLine
 10
410.5201439161595
 20
190.4303181390591
 30
0.0
 11
423.0201439161595
 21
190.4303181390591
 31
0.0
  0
LINE
  5
11A2
330
2
100
AcDbEntity
  8
CENTER
100
AcDbLine
 10
410.0805379161593
 20
184.6803181390591
 30
0.0
 11
418.0651569161595
 21
184.6803181390591
 31
0.0
  0
LINE
  5
11A3
330
2
100
AcDbEntity
  8
0
100
AcDbLine
 10
410.5201439161595
 20
189.350515139059
 30
0.0
 11
417.0201439161594
 21
189.1803181390591
 31
0.0
  0
LINE
  5
11A4
330
2
100
AcDbEntity
  8
0
100
AcDbLine
 10
412.0201439161594
 20
188.1803181390591
 30
0.0
 11
416.0201439161594
 21
188.1803181390591
 31
0.0
  0
LINE
  5
11A5
330
2
100
AcDbEntity
  8
0
100
AcDbLine
 10
416.0201439161594
 20
188.4803061390591
 30
0.0
 11
417.0201439161594
 21
188.4803061390591
 31
0.0
  0
ARC
  5
11A7
330
2
100
AcDbEntity
  8
0
100
AcDbCircle
 10
460.3531519161596
 20
170.135915139059
 30
0.0
 40
2.0
100
AcDbArc
 50
91.00000000000177
 51
180.0
  0
LINE
  5
11A8
330
2
100
AcDbEntity
  8
0
100
AcDbLine
 10
458.7819539161595
 20
171.373525139059
 30
0.0
 11
456.4489459161595
 21
175.3327231390591
 31
0.0
  0
LINE
  5
11A9
330
2
100
AcDbEntity
  8
0
100
AcDbLine
 10
458.3531519161596
 20
170.135915139059
 30
0.0
 11
458.3531519161596
 21
152.224721139059
 31
0.0
  0
ARC
  5
11AA
330
2
100
AcDbEntity
  8
0
100
AcDbCircle
 10
460.3531519161596
 20
152.224721139059
 30
0.0
 40
2.0
100
AcDbArc
 50
180.0
 51
268.9999999999981
  0
ARC
  5
11AB
330
2
100
AcDbEntity
  8
0
100
AcDbCircle
 10
444.0201439161596
 20
174.3135271390589
 30
0.0
 40
2.0
100
AcDbArc
 50
0.0
 51
88.99999999999822
  0
ARC
  5
11AC
330
2
100
AcDbEntity
  8
0
100
AcDbCircle
 10
458.0201439161594
 20
174.0953271390591
 30
0.0
 40
2.0
100
AcDbArc
 50
91.00000000000177
 51
180.0
  0
LINE
  5
11AE
330
2
100
AcDbEntity
  8
PHAS
  6
SEKKEI_P_S
100
AcDbLine
 10
502.0201439161595
 20
174.1564231390591
 30
0.0
 11
502.0201439161595
 21
148.2672931390591
 31
0.0
  0
LINE
  5
11AF
330
2
100
AcDbEntity
  8
PHAS
  6
SEKKEI_P_S
100
AcDbLine
 10
499.7966029161593
 20
145.3064321390591
 30
0.0
 11
491.5201439161594
 21
143.0887616303136
 31
0.0
  0
ARC
  5
11B0
330
2
100
AcDbEntity
  8
PHAS
  6
SEKKEI_P_S
100
AcDbCircle
 10
499.0201439161594
 20
148.2042131390592
 30
0.0
 40
3.0
100
AcDbArc
 50
285.000000000001
 51
0.0
  0
LINE
  5
11B1
330
2
100
AcDbEntity
  8
PHAS
  6
SEKKEI_P_S
100
AcDbLine
 10
499.7966029161593
 20
177.0542041390591
 30
0.0
 11
491.5201439161594
 21
179.2718746478048
 31
0.0
  0
ARC
  5
11B2
330
2
100
AcDbEntity
  8
PHAS
  6
SEKKEI_P_S
100
AcDbCircle
 10
499.0201439161594
 20
174.1564231390591
 30
0.0
 40
3.0
100
AcDbArc
 50
0.0
 51
74.99999999999882
  0
LINE
  5
11B3
330
2
100
AcDbEntity
  8
0
100
AcDbLine
 10
196.4161472391728
 20
307.2762126593949
 30
0.0
 11
236.9161472391728
 21
307.9831446593948
 31
0.0
  0
LINE
  5
11B4
330
2
100
AcDbEntity
  8
0
100
AcDbLine
 10
196.4161472391728
 20
388.2762126593949
 30
0.0
 11
236.9161472391728
 21
387.5692886593948
 31
0.0
  0
LINE
  5
11B5
330
2
100
AcDbEntity
  8
CENTER
100
AcDbLine
 10
139.6775302391727
 20
347.7762126593948
 30
0.0
 11
253.1547642391728
 21
347.7762126593948
 31
0.0
  0
LINE
  5
11B6
330
2
100
AcDbEntity
  8
PHAS
  6
SEKKEI_P_S
100
AcDbLine
 10
245.1926062391726
 20
331.9023266593948
 30
0.0
 11
231.8161412391729
 21
328.3181136593948
 31
0.0
  0
LINE
  5
11B7
330
2
100
AcDbEntity
  8
PHAS
  6
SEKKEI_P_S
100
AcDbLine
 10
245.1926062391726
 20
363.6500986593949
 30
0.0
 11
231.8161412391729
 21
367.2343116593949
 31
0.0
  0
LWPOLYLINE
  5
11BD
330
2
100
AcDbEntity
  8
HOJO
100
AcDbPolyline
 90
       21
 70
     0
 43
0.0
 10
155.9161472391726
 20
373.8362556593949
 10
159.3902682391726
 20
373.7005446593948
 10
162.9840492391728
 20
374.6681036593948
 10
166.2899872391727
 20
373.3657666593949
 10
166.4495332391728
 20
369.5370156593948
 10
169.5603732391728
 20
365.3094306593949
 10
173.2295932391726
 20
363.7938976593949
 10
175.6225682391729
 20
359.0877206593948
 10
180.2489722391726
 20
357.492399659395
 10
187.0290622391726
 20
358.1305366593949
 10
193.3305452391729
 20
357.492399659395
 10
201.3071082391728
 20
358.5293556593949
 10
207.6883642391726
 20
357.0935806593948
 10
213.4314972391726
 20
358.8484176593949
 10
217.8185822391726
 20
357.9710066593948
 10
218.7757662391728
 20
363.4748206593949
 10
225.5558562391728
 20
366.9047526593948
 10
225.7153722391726
 20
371.8502176593949
 10
229.5509742391729
 20
375.1827676593949
 10
233.1989532391726
 20
374.8258956593949
 10
236.9161472391728
 20
375.1976146593948
  0
LWPOLYLINE
  5
11BE
330
2
100
AcDbEntity
  8
HOJO
100
AcDbPolyline
 90
       21
 70
     0
 43
0.0
 10
155.9161472391726
 20
321.7161696593949
 10
159.3902682391726
 20
321.8518736593948
 10
162.9840492391728
 20
320.8843216593948
 10
166.2899872391727
 20
322.1866586593948
 10
166.4495332391728
 20
326.0154096593948
 10
169.5603732391728
 20
330.2429946593948
 10
173.2295932391726
 20
331.7585276593948
 10
175.6225682391729
 20
336.4647046593948
 10
180.2489722391726
 20
338.0600256593948
 10
187.0290622391726
 20
337.421888659395
 10
193.3305452391729
 20
338.0600256593948
 10
201.3071082391728
 20
337.0230696593949
 10
207.6883642391726
 20
338.4588446593948
 10
213.4314972391726
 20
336.7040076593948
 10
217.8185822391726
 20
337.5814186593949
 10
218.7757662391728
 20
332.0776046593948
 10
225.5558562391728
 20
328.6476726593948
 10
225.7153722391726
 20
323.7022076593949
 10
229.5509742391729
 20
320.3696576593948
 10
233.1989532391726
 20
320.7265226593948
 10
236.9161472391728
 20
320.3548026593948
  0
LINE
  5
11C2
330
2
100
AcDbEntity
  8
0
100
AcDbLine
 10
168.4161472391726
 20
387.787473659395
 30
0.0
 11
168.4161472391726
 21
366.8644386593949
 31
0.0
  0
LINE
  5
11C3
330
2
100
AcDbEntity
  8
0
100
AcDbLine
 10
155.9161472391726
 20
387.5692886593948
 30
0.0
 11
155.9161472391726
 21
307.9831446593948
 31
0.0
  0
LINE
  5
11C4
330
2
100
AcDbEntity
  8
CENTER
100
AcDbLine
 10
196.4161472391728
 20
395.3243386593949
 30
0.0
 11
196.4161472391728
 21
300.2280866593948
 31
0.0
  0
LINE
  5
11E0
330
2
100
AcDbEntity
  8
PHAS
  6
SEKKEI_P_S
100
AcDbLine
 10
147.6396882391728
 20
363.6500986593949
 30
0.0
 11
161.0161532391725
 21
367.2343116593949
 31
0.0
  0
LINE
  5
11E1
330
2
100
AcDbEntity
  8
PHAS
  6
SEKKEI_P_S
100
AcDbLine
 10
147.6396882391728
 20
331.9023266593948
 30
0.0
 11
161.0161532391725
 21
328.3181136593948
 31
0.0
  0
LINE
  5
11E2
330
2
100
AcDbEntity
  8
PHAS
  6
SEKKEI_P_S
100
AcDbLine
 10
145.4161472391726
 20
360.7523176593949
 30
0.0
 11
145.4161472391726
 21
334.8631876593949
 31
0.0
  0
ARC
  5
11E3
330
2
100
AcDbEntity
  8
PHAS
  6
SEKKEI_P_S
100
AcDbCircle
 10
148.4161472391726
 20
334.8001076593948
 30
0.0
 40
3.0
100
AcDbArc
 50
180.0
 51
254.9999999999988
  0
ARC
  5
11E4
330
2
100
AcDbEntity
  8
PHAS
  6
SEKKEI_P_S
100
AcDbCircle
 10
148.4161472391726
 20
360.7523176593949
 30
0.0
 40
3.0
100
AcDbArc
 50
105.0000000000011
 51
180.0
  0
LINE
  5
11E5
330
2
100
AcDbEntity
  8
0
100
AcDbLine
 10
231.4160552391728
 20
357.7762126593948
 30
0.0
 11
231.4160552391728
 21
337.7762126593949
 31
0.0
  0
LINE
  5
11E6
330
2
100
AcDbEntity
  8
0
100
AcDbLine
 10
161.4162392391728
 20
357.7762126593948
 30
0.0
 11
161.4162392391728
 21
337.7762126593949
 31
0.0
  0
LINE
  5
11E7
330
2
100
AcDbEntity
  8
0
100
AcDbLine
 10
161.0161532391725
 20
368.6262186593949
 30
0.0
 11
161.0161532391725
 21
326.9262066593948
 31
0.0
  0
LINE
  5
11E8
330
2
100
AcDbEntity
  8
0
100
AcDbLine
 10
158.4161472391728
 20
326.1766336593948
 30
0.0
 11
158.4161472391728
 21
369.3757916593948
 31
0.0
  0
LINE
  5
11E9
330
2
100
AcDbEntity
  8
0
100
AcDbLine
 10
231.8161412391729
 20
368.6262186593949
 30
0.0
 11
231.8161412391729
 21
326.9262066593948
 31
0.0
  0
LINE
  5
11EA
330
2
100
AcDbEntity
  8
0
100
AcDbLine
 10
234.4161472391728
 20
326.1766336593948
 30
0.0
 11
234.4161472391728
 21
369.3757916593948
 31
0.0
  0
LINE
  5
11EB
330
2
100
AcDbEntity
  8
0
100
AcDbLine
 10
196.4161472391728
 20
307.2762126593949
 30
0.0
 11
155.9161472391726
 21
307.9831446593948
 31
0.0
  0
LINE
  5
11EC
330
2
100
AcDbEntity
  8
0
100
AcDbLine
 10
168.4161472391726
 20
307.7649516593948
 30
0.0
 11
168.4161472391726
 21
328.6880016593948
 31
0.0
  0
LINE
  5
11ED
330
2
100
AcDbEntity
  8
0
100
AcDbLine
 10
171.4161472391728
 20
335.2762126593948
 30
0.0
 11
175.0182592391728
 21
335.2762126593948
 31
0.0
  0
LINE
  5
11EE
330
2
100
AcDbEntity
  8
0
100
AcDbLine
 10
163.4161472391728
 20
326.9262066593948
 30
0.0
 11
163.4161472391728
 21
337.7762126593949
 31
0.0
  0
LINE
  5
11EF
330
2
100
AcDbEntity
  8
PHAS
100
AcDbLine
 10
162.2161652391729
 20
328.2762126593949
 30
0.0
 11
163.4161472391728
 21
328.3181136593948
 31
0.0
  0
ARC
  5
11F0
330
2
100
AcDbEntity
  8
PHAS
100
AcDbCircle
 10
162.2161652391729
 20
328.4962136593948
 30
0.0
 40
1.219999999999998
100
AcDbArc
 50
188.3022610000004
 51
349.6111449999996
  0
LINE
  5
11F1
330
2
100
AcDbEntity
  8
0
100
AcDbLine
 10
162.6001992391728
 20
323.253347659395
 30
0.0
 11
159.7320952391726
 21
324.2972396593948
 31
0.0
  0
LINE
  5
11F2
330
2
100
AcDbEntity
  8
0
100
AcDbLine
 10
161.0161532391725
 20
326.9262066593948
 30
0.0
 11
163.4161472391728
 21
326.9262066593948
 31
0.0
  0
LINE
  5
11F3
330
2
100
AcDbEntity
  8
0
100
AcDbLine
 10
158.4161472391728
 20
328.2762126593949
 30
0.0
 11
161.0161532391725
 21
328.2762126593949
 31
0.0
  0
LINE
  5
11F4
330
2
100
AcDbEntity
  8
PHAS
100
AcDbLine
 10
162.2161652391729
 20
328.2762126593949
 30
0.0
 11
161.0161532391725
 21
328.3181136593948
 31
0.0
  0
LINE
  5
11F5
330
2
100
AcDbEntity
  8
0
100
AcDbLine
 10
155.9161472391726
 20
319.6060006593948
 30
0.0
 11
162.4161472391728
 21
319.7762126593949
 31
0.0
  0
ARC
  5
11F6
330
2
100
AcDbEntity
  8
0
100
AcDbCircle
 10
160.4161472391728
 20
326.1766336593948
 30
0.0
 40
2.0
100
AcDbArc
 50
180.0
 51
250.0000000000029
  0
LINE
  5
11F7
330
2
100
AcDbEntity
  8
0
100
AcDbLine
 10
161.4161162391726
 20
320.4762246593948
 30
0.0
 11
162.4161472391728
 21
320.4762246593948
 31
0.0
  0
LINE
  5
11F8
330
2
100
AcDbEntity
  8
0
100
AcDbLine
 10
161.4161162391726
 20
320.4762246593948
 30
0.0
 11
161.4161162391726
 21
321.3064556593948
 31
0.0
  0
LINE
  5
11F9
330
2
100
AcDbEntity
  8
0
100
AcDbLine
 10
157.4161162391726
 20
320.7761976593948
 30
0.0
 11
157.4161162391726
 21
321.7747626593948
 31
0.0
  0
LINE
  5
11FA
330
2
100
AcDbEntity
  8
0
100
AcDbLine
 10
157.4161162391726
 20
320.7761976593948
 30
0.0
 11
161.4161162391726
 21
320.7761816593948
 31
0.0
  0
LINE
  5
11FB
330
2
100
AcDbEntity
  8
0
100
AcDbLine
 10
162.4161472391728
 20
319.7762126593949
 30
0.0
 11
162.4161472391728
 21
321.0372216593949
 31
0.0
  0
LINE
  5
11FC
330
2
100
AcDbEntity
  8
0
100
AcDbLine
 10
163.9161472391728
 20
321.2515086593948
 30
0.0
 11
163.9161472391728
 21
321.3739606593948
 31
0.0
  0
ARC
  5
11FD
330
2
100
AcDbEntity
  8
0
100
AcDbCircle
 10
161.9161472391728
 20
321.3739606593948
 30
0.0
 40
2.0
100
AcDbArc
 50
0.0
 51
69.99999200000162
  0
LINE
  5
11FE
330
2
100
AcDbEntity
  8
0
100
AcDbLine
 10
161.4162392391728
 20
337.7762126593949
 30
0.0
 11
171.4161472391728
 21
337.7762126593949
 31
0.0
  0
LINE
  5
11FF
330
2
100
AcDbEntity
  8
0
100
AcDbLine
 10
164.4161472391726
 20
331.7762126593949
 30
0.0
 11
171.4161472391728
 21
331.7762126593949
 31
0.0
  0
LINE
  5
1200
330
2
100
AcDbEntity
  8
0
100
AcDbLine
 10
164.4161472391726
 20
331.7762126593949
 30
0.0
 11
170.4161472391726
 21
337.7762126593949
 31
0.0
  0
LINE
  5
1201
330
2
100
AcDbEntity
  8
0
100
AcDbLine
 10
170.4161472391726
 20
331.7762126593949
 30
0.0
 11
164.4161472391726
 21
337.7762126593949
 31
0.0
  0
LINE
  5
1202
330
2
100
AcDbEntity
  8
0
100
AcDbLine
 10
164.4161472391726
 20
331.7762126593949
 30
0.0
 11
164.4161472391726
 21
337.7762126593949
 31
0.0
  0
LINE
  5
1203
330
2
100
AcDbEntity
  8
0
100
AcDbLine
 10
164.4161472391726
 20
331.7762126593949
 30
0.0
 11
163.4161472391728
 21
331.1988656593948
 31
0.0
  0
LINE
  5
1204
330
2
100
AcDbEntity
  8
0
100
AcDbLine
 10
171.4161472391728
 20
331.0095046593948
 30
0.0
 11
171.4161472391728
 21
337.7762126593949
 31
0.0
  0
LINE
  5
1205
330
2
100
AcDbEntity
  8
0
100
AcDbLine
 10
170.4161472391726
 20
331.7762126593949
 30
0.0
 11
170.4161472391726
 21
337.7762126593949
 31
0.0
  0
LINE
  5
1206
330
2
100
AcDbEntity
  8
0
100
AcDbLine
 10
189.4510592391728
 20
332.643384659395
 30
0.0
 11
173.5383092391726
 21
332.3656136593948
 31
0.0
  0
LINE
  5
1207
330
2
100
AcDbEntity
  8
0
100
AcDbLine
 10
187.1181432391728
 20
336.6026596593948
 30
0.0
 11
175.5904022391726
 21
336.4014416593949
 31
0.0
  0
ARC
  5
1208
330
2
100
AcDbEntity
  8
0
100
AcDbCircle
 10
189.4161472391726
 20
334.6430796593948
 30
0.0
 40
2.0
100
AcDbArc
 50
271.0000000000017
 51
0.0
  0
ARC
  5
1209
330
2
100
AcDbEntity
  8
0
100
AcDbCircle
 10
187.0832312391726
 20
338.6023536593948
 30
0.0
 40
2.0
100
AcDbArc
 50
271.0000000000017
 51
330.0149539999981
  0
LINE
  5
120A
330
2
100
AcDbEntity
  8
0
100
AcDbLine
 10
190.9872832391728
 20
333.4055156593949
 30
0.0
 11
188.6543672391726
 21
337.3648056593948
 31
0.0
  0
LINE
  5
120B
330
2
100
AcDbEntity
  8
0
100
AcDbLine
 10
191.4161472391726
 20
334.6430796593948
 30
0.0
 11
191.4161472391726
 21
337.8661636593948
 31
0.0
  0
LINE
  5
120C
330
2
100
AcDbEntity
  8
0
100
AcDbLine
 10
203.3812352391726
 20
332.8615706593948
 30
0.0
 11
218.6858922391728
 21
332.5944196593948
 31
0.0
  0
LINE
  5
120D
330
2
100
AcDbEntity
  8
0
100
AcDbLine
 10
205.7141512391726
 20
336.8208446593949
 30
0.0
 11
217.9881382391728
 21
336.606595659395
 31
0.0
  0
ARC
  5
120E
330
2
100
AcDbEntity
  8
0
100
AcDbCircle
 10
205.7490632391728
 20
338.8205396593948
 30
0.0
 40
2.0
100
AcDbArc
 50
215.5904390000004
 51
268.9999999999981
  0
ARC
  5
120F
330
2
100
AcDbEntity
  8
0
100
AcDbCircle
 10
203.4161472391728
 20
334.8612646593948
 30
0.0
 40
2.0
100
AcDbArc
 50
180.0
 51
268.9999999999981
  0
LINE
  5
1210
330
2
100
AcDbEntity
  8
0
100
AcDbLine
 10
204.1779272391728
 20
337.5829906593948
 30
0.0
 11
201.8450112391728
 21
333.6237166593948
 31
0.0
  0
LINE
  5
1211
330
2
100
AcDbEntity
  8
0
100
AcDbLine
 10
201.4161472391728
 20
334.8612646593948
 30
0.0
 11
201.4161472391728
 21
337.0476056593949
 31
0.0
  0
LINE
  5
1212
330
2
100
AcDbEntity
  8
0
100
AcDbLine
 10
229.4161472391726
 20
326.9262066593948
 30
0.0
 11
229.4161472391726
 21
337.7762126593949
 31
0.0
  0
LINE
  5
1213
330
2
100
AcDbEntity
  8
0
100
AcDbLine
 10
234.4161472391728
 20
328.2762126593949
 30
0.0
 11
231.8161412391729
 21
328.2762126593949
 31
0.0
  0
LINE
  5
1214
330
2
100
AcDbEntity
  8
PHAS
100
AcDbLine
 10
230.6161292391728
 20
328.2762126593949
 30
0.0
 11
229.4161472391726
 21
328.3181136593948
 31
0.0
  0
LINE
  5
1215
330
2
100
AcDbEntity
  8
PHAS
100
AcDbLine
 10
230.6161292391728
 20
328.2762126593949
 30
0.0
 11
231.8161412391729
 21
328.3181136593948
 31
0.0
  0
ARC
  5
1216
330
2
100
AcDbEntity
  8
PHAS
100
AcDbCircle
 10
230.6161292391728
 20
328.4962136593948
 30
0.0
 40
1.219999999999998
100
AcDbArc
 50
190.3888549999994
 51
351.6977370000001
  0
ARC
  5
1217
330
2
100
AcDbEntity
  8
0
100
AcDbCircle
 10
232.4161472391728
 20
326.1766336593948
 30
0.0
 40
2.0
100
AcDbArc
 50
289.9999999999969
 51
0.0
  0
LINE
  5
1218
330
2
100
AcDbEntity
  8
0
100
AcDbLine
 10
230.2320042391728
 20
323.2533096593948
 30
0.0
 11
233.1001992391725
 21
324.2972396593948
 31
0.0
  0
ARC
  5
1219
330
2
100
AcDbEntity
  8
0
100
AcDbCircle
 10
230.9160552391728
 20
321.3739226593948
 30
0.0
 40
2.0
100
AcDbArc
 50
110.0000079999982
 51
180.0
  0
LINE
  5
121A
330
2
100
AcDbEntity
  8
0
100
AcDbLine
 10
228.9160552391728
 20
320.9213086593948
 30
0.0
 11
228.9160552391728
 21
321.3739226593948
 31
0.0
  0
LINE
  5
121B
330
2
100
AcDbEntity
  8
0
100
AcDbLine
 10
231.8161412391729
 20
326.9262066593948
 30
0.0
 11
229.4161472391726
 21
326.9262066593948
 31
0.0
  0
LINE
  5
121C
330
2
100
AcDbEntity
  8
0
100
AcDbLine
 10
231.4160552391728
 20
337.7762126593949
 30
0.0
 11
221.4161472391728
 21
337.7762126593949
 31
0.0
  0
LINE
  5
121D
330
2
100
AcDbEntity
  8
0
100
AcDbLine
 10
228.4161472391728
 20
331.7762126593949
 30
0.0
 11
221.4161472391728
 21
331.7762126593949
 31
0.0
  0
LINE
  5
121E
330
2
100
AcDbEntity
  8
0
100
AcDbLine
 10
228.4161472391728
 20
331.7762126593949
 30
0.0
 11
222.4161472391728
 21
337.7762126593949
 31
0.0
  0
LINE
  5
121F
330
2
100
AcDbEntity
  8
0
100
AcDbLine
 10
222.4161472391728
 20
331.7762126593949
 30
0.0
 11
228.4161472391728
 21
337.7762126593949
 31
0.0
  0
LINE
  5
1220
330
2
100
AcDbEntity
  8
0
100
AcDbLine
 10
221.4161472391728
 20
330.7418806593949
 30
0.0
 11
221.4161472391728
 21
337.7762126593949
 31
0.0
  0
LINE
  5
1221
330
2
100
AcDbEntity
  8
0
100
AcDbLine
 10
222.4161472391728
 20
331.7762126593949
 30
0.0
 11
222.4161472391728
 21
337.7762126593949
 31
0.0
  0
LINE
  5
1222
330
2
100
AcDbEntity
  8
0
100
AcDbLine
 10
221.4161472391728
 20
335.2762126593948
 30
0.0
 11
218.2194922391728
 21
335.2762126593948
 31
0.0
  0
LINE
  5
1223
330
2
100
AcDbEntity
  8
0
100
AcDbLine
 10
228.4161472391728
 20
331.7762126593949
 30
0.0
 11
228.4161472391728
 21
337.7762126593949
 31
0.0
  0
LINE
  5
1224
330
2
100
AcDbEntity
  8
0
100
AcDbLine
 10
228.4161472391728
 20
331.7762126593949
 30
0.0
 11
229.4161472391726
 21
331.1988656593948
 31
0.0
  0
LINE
  5
1225
330
2
100
AcDbEntity
  8
0
100
AcDbLine
 10
181.4162392391726
 20
341.2762126593948
 30
0.0
 11
211.4160552391726
 21
341.2762126593948
 31
0.0
  0
LINE
  5
1226
330
2
100
AcDbEntity
  8
0
100
AcDbLine
 10
231.4160552391728
 20
355.5762156593949
 30
0.0
 11
161.4162392391728
 21
355.5762156593949
 31
0.0
  0
LINE
  5
1227
330
2
100
AcDbEntity
  8
0
100
AcDbLine
 10
211.4160552391726
 20
354.2762126593949
 30
0.0
 11
181.4162392391726
 21
354.2762126593949
 31
0.0
  0
ARC
  5
1228
330
2
100
AcDbEntity
  8
0
100
AcDbCircle
 10
189.4161472391726
 20
360.9093456593948
 30
0.0
 40
2.0
100
AcDbArc
 50
0.0
 51
88.99999999999822
  0
LINE
  5
1229
330
2
100
AcDbEntity
  8
0
100
AcDbLine
 10
164.4161472391726
 20
363.7762126593949
 30
0.0
 11
170.4161472391726
 21
357.7762126593948
 31
0.0
  0
LINE
  5
122A
330
2
100
AcDbEntity
  8
0
100
AcDbLine
 10
170.4161472391726
 20
363.7762126593949
 30
0.0
 11
164.4161472391726
 21
357.7762126593948
 31
0.0
  0
LINE
  5
122B
330
2
100
AcDbEntity
  8
0
100
AcDbLine
 10
163.4161472391728
 20
368.6262186593949
 30
0.0
 11
163.4161472391728
 21
357.7762126593948
 31
0.0
  0
LINE
  5
122C
330
2
100
AcDbEntity
  8
0
100
AcDbLine
 10
164.4161472391726
 20
363.7762126593949
 30
0.0
 11
164.4161472391726
 21
357.7762126593948
 31
0.0
  0
LINE
  5
122D
330
2
100
AcDbEntity
  8
0
100
AcDbLine
 10
171.4161472391728
 20
357.7762126593948
 30
0.0
 11
171.4161472391728
 21
364.5429206593949
 31
0.0
  0
LINE
  5
122E
330
2
100
AcDbEntity
  8
0
100
AcDbLine
 10
170.4161472391726
 20
363.7762126593949
 30
0.0
 11
170.4161472391726
 21
357.7762126593948
 31
0.0
  0
LINE
  5
122F
330
2
100
AcDbEntity
  8
0
100
AcDbLine
 10
188.6543672391726
 20
358.1876196593948
 30
0.0
 11
190.9872832391728
 21
362.1469096593949
 31
0.0
  0
LINE
  5
1230
330
2
100
AcDbEntity
  8
0
100
AcDbLine
 10
171.4161472391728
 20
360.2762126593948
 30
0.0
 11
175.0182592391728
 21
360.2762126593948
 31
0.0
  0
LINE
  5
1231
330
2
100
AcDbEntity
  8
0
100
AcDbLine
 10
169.4162392391726
 20
341.7762126593949
 30
0.0
 11
181.4162392391726
 21
341.7762126593949
 31
0.0
  0
LINE
  5
1232
330
2
100
AcDbEntity
  8
0
100
AcDbLine
 10
169.4162392391726
 20
353.4330726593949
 30
0.0
 11
181.4162392391726
 21
353.4330726593949
 31
0.0
  0
LINE
  5
1233
330
2
100
AcDbEntity
  8
0
100
AcDbLine
 10
163.4162392391726
 20
341.7762126593949
 30
0.0
 11
163.4162392391726
 21
353.7762126593948
 31
0.0
  0
LINE
  5
1234
330
2
100
AcDbEntity
  8
0
100
AcDbLine
 10
169.4162392391726
 20
341.5262126593948
 30
0.0
 11
169.4162392391726
 21
354.0262126593948
 31
0.0
  0
LINE
  5
1235
330
2
100
AcDbEntity
  8
0
100
AcDbLine
 10
168.2662452391728
 20
341.5262126593948
 30
0.0
 11
168.2662452391728
 21
354.0262126593948
 31
0.0
  0
LINE
  5
1236
330
2
100
AcDbEntity
  8
0
100
AcDbLine
 10
163.4162392391726
 20
341.7762126593949
 30
0.0
 11
161.4162392391728
 21
340.6215186593949
 31
0.0
  0
LINE
  5
1237
330
2
100
AcDbEntity
  8
0
100
AcDbLine
 10
163.4162392391726
 20
341.7762126593949
 30
0.0
 11
168.2662452391728
 21
341.7762126593949
 31
0.0
  0
LINE
  5
1238
330
2
100
AcDbEntity
  8
0
100
AcDbLine
 10
168.2662452391728
 20
341.5262126593948
 30
0.0
 11
169.4162392391726
 21
341.5262126593948
 31
0.0
  0
LINE
  5
1239
330
2
100
AcDbEntity
  8
0
100
AcDbLine
 10
163.4162392391726
 20
353.7762126593948
 30
0.0
 11
161.4162392391728
 21
354.9309216593949
 31
0.0
  0
LINE
  5
123A
330
2
100
AcDbEntity
  8
0
100
AcDbLine
 10
161.4162392391728
 20
357.7762126593948
 30
0.0
 11
171.4161472391728
 21
357.7762126593948
 31
0.0
  0
LINE
  5
123B
330
2
100
AcDbEntity
  8
0
100
AcDbLine
 10
163.4162392391726
 20
353.4330726593949
 30
0.0
 11
168.2662452391728
 21
353.4330726593949
 31
0.0
  0
LINE
  5
123C
330
2
100
AcDbEntity
  8
0
100
AcDbLine
 10
168.2662452391728
 20
354.0262126593948
 30
0.0
 11
169.4162392391726
 21
354.0262126593948
 31
0.0
  0
LINE
  5
123D
330
2
100
AcDbEntity
  8
0
100
AcDbLine
 10
181.4162392391726
 20
341.2762126593948
 30
0.0
 11
181.4162392391726
 21
354.2762126593949
 31
0.0
  0
LINE
  5
123E
330
2
100
AcDbEntity
  8
0
100
AcDbLine
 10
187.1181432391728
 20
358.949765659395
 30
0.0
 11
175.5904022391726
 21
359.1509836593949
 31
0.0
  0
ARC
  5
123F
330
2
100
AcDbEntity
  8
0
100
AcDbCircle
 10
187.0832312391726
 20
356.950071659395
 30
0.0
 40
2.0
100
AcDbArc
 50
29.9850520000009
 51
88.99999999999822
  0
LINE
  5
1240
330
2
100
AcDbEntity
  8
0
100
AcDbLine
 10
191.4161472391726
 20
357.6862616593949
 30
0.0
 11
191.4161472391726
 21
360.9093456593948
 31
0.0
  0
ARC
  5
1241
330
2
100
AcDbEntity
  8
0
100
AcDbCircle
 10
161.9161472391728
 20
374.1784646593949
 30
0.0
 40
2.0
100
AcDbArc
 50
290.0000079999983
 51
0.0
  0
LINE
  5
1242
330
2
100
AcDbEntity
  8
0
100
AcDbLine
 10
162.6001992391728
 20
372.2990856593948
 30
0.0
 11
159.7320952391726
 21
371.2551856593949
 31
0.0
  0
LINE
  5
1243
330
2
100
AcDbEntity
  8
0
100
AcDbLine
 10
161.0161532391725
 20
368.6262186593949
 30
0.0
 11
163.4161472391728
 21
368.6262186593949
 31
0.0
  0
LINE
  5
1244
330
2
100
AcDbEntity
  8
PHAS
100
AcDbLine
 10
162.2161652391729
 20
367.2762126593949
 30
0.0
 11
163.4161472391728
 21
367.2343116593949
 31
0.0
  0
ARC
  5
1245
330
2
100
AcDbEntity
  8
PHAS
100
AcDbCircle
 10
162.2161652391729
 20
367.0562116593949
 30
0.0
 40
1.219999999999998
100
AcDbArc
 50
10.38885499999955
 51
171.6977389999994
  0
LINE
  5
1246
330
2
100
AcDbEntity
  8
0
100
AcDbLine
 10
158.4161472391728
 20
367.2762126593949
 30
0.0
 11
161.0161532391725
 21
367.2762126593949
 31
0.0
  0
LINE
  5
1247
330
2
100
AcDbEntity
  8
PHAS
100
AcDbLine
 10
162.2161652391729
 20
367.2762126593949
 30
0.0
 11
161.0161532391725
 21
367.2343116593949
 31
0.0
  0
ARC
  5
1248
330
2
100
AcDbEntity
  8
0
100
AcDbCircle
 10
160.4161472391728
 20
369.3757916593948
 30
0.0
 40
2.0
100
AcDbArc
 50
109.999999999997
 51
180.0
  0
LINE
  5
1249
330
2
100
AcDbEntity
  8
0
100
AcDbLine
 10
164.4161472391726
 20
363.7762126593949
 30
0.0
 11
171.4161472391728
 21
363.7762126593949
 31
0.0
  0
LINE
  5
124A
330
2
100
AcDbEntity
  8
0
100
AcDbLine
 10
164.4161472391726
 20
363.7762126593949
 30
0.0
 11
163.4161472391728
 21
364.3535596593949
 31
0.0
  0
LINE
  5
124B
330
2
100
AcDbEntity
  8
0
100
AcDbLine
 10
155.9161472391726
 20
375.946424659395
 30
0.0
 11
162.4161472391728
 21
375.7762126593949
 31
0.0
  0
LINE
  5
124C
330
2
100
AcDbEntity
  8
0
100
AcDbLine
 10
157.4161162391726
 20
374.7762276593949
 30
0.0
 11
157.4161162391726
 21
373.7776626593949
 31
0.0
  0
LINE
  5
124D
330
2
100
AcDbEntity
  8
0
100
AcDbLine
 10
161.4161162391726
 20
375.0762006593948
 30
0.0
 11
162.4161472391728
 21
375.0762006593948
 31
0.0
  0
LINE
  5
124E
330
2
100
AcDbEntity
  8
0
100
AcDbLine
 10
157.4161162391726
 20
374.7762276593949
 30
0.0
 11
161.4161162391726
 21
374.7762436593949
 31
0.0
  0
LINE
  5
124F
330
2
100
AcDbEntity
  8
0
100
AcDbLine
 10
161.4161162391726
 20
375.0762006593948
 30
0.0
 11
161.4161162391726
 21
374.2459696593949
 31
0.0
  0
LINE
  5
1250
330
2
100
AcDbEntity
  8
0
100
AcDbLine
 10
162.4161472391728
 20
375.7762126593949
 30
0.0
 11
162.4161472391728
 21
374.5152106593949
 31
0.0
  0
LINE
  5
1251
330
2
100
AcDbEntity
  8
0
100
AcDbLine
 10
163.9161472391728
 20
374.3009166593949
 30
0.0
 11
163.9161472391728
 21
374.1784646593949
 31
0.0
  0
LINE
  5
1252
330
2
100
AcDbEntity
  8
0
100
AcDbLine
 10
189.4510592391728
 20
362.9090556593949
 30
0.0
 11
173.5383092391726
 21
363.1868116593949
 31
0.0
  0
ARC
  5
1253
330
2
100
AcDbEntity
  8
0
100
AcDbCircle
 10
203.4161472391728
 20
360.6911606593949
 30
0.0
 40
2.0
100
AcDbArc
 50
91.00000000000177
 51
180.0
  0
LINE
  5
1254
330
2
100
AcDbEntity
  8
0
100
AcDbLine
 10
228.4161472391728
 20
363.7762126593949
 30
0.0
 11
222.4161472391728
 21
357.7762126593948
 31
0.0
  0
LINE
  5
1255
330
2
100
AcDbEntity
  8
0
100
AcDbLine
 10
222.4161472391728
 20
363.7762126593949
 30
0.0
 11
228.4161472391728
 21
357.7762126593948
 31
0.0
  0
LINE
  5
1256
330
2
100
AcDbEntity
  8
0
100
AcDbLine
 10
221.4161472391728
 20
357.7762126593948
 30
0.0
 11
221.4161472391728
 21
364.8105446593949
 31
0.0
  0
LINE
  5
1257
330
2
100
AcDbEntity
  8
0
100
AcDbLine
 10
222.4161472391728
 20
363.7762126593949
 30
0.0
 11
222.4161472391728
 21
357.7762126593948
 31
0.0
  0
LINE
  5
1258
330
2
100
AcDbEntity
  8
0
100
AcDbLine
 10
229.4161472391726
 20
368.6262186593949
 30
0.0
 11
229.4161472391726
 21
357.7762126593948
 31
0.0
  0
LINE
  5
1259
330
2
100
AcDbEntity
  8
0
100
AcDbLine
 10
228.4161472391728
 20
363.7762126593949
 30
0.0
 11
228.4161472391728
 21
357.7762126593948
 31
0.0
  0
LINE
  5
125A
330
2
100
AcDbEntity
  8
0
100
AcDbLine
 10
223.4160552391728
 20
353.4330726593949
 30
0.0
 11
211.4160552391726
 21
353.4330726593949
 31
0.0
  0
LINE
  5
125B
330
2
100
AcDbEntity
  8
0
100
AcDbLine
 10
223.4160552391728
 20
341.7762126593949
 30
0.0
 11
211.4160552391726
 21
341.7762126593949
 31
0.0
  0
LINE
  5
125C
330
2
100
AcDbEntity
  8
0
100
AcDbLine
 10
205.7141512391726
 20
358.7315806593949
 30
0.0
 11
217.9881382391728
 21
358.9458296593949
 31
0.0
  0
LINE
  5
125D
330
2
100
AcDbEntity
  8
0
100
AcDbLine
 10
211.4160552391726
 20
341.2762126593948
 30
0.0
 11
211.4160552391726
 21
354.2762126593949
 31
0.0
  0
ARC
  5
125E
330
2
100
AcDbEntity
  8
0
100
AcDbCircle
 10
205.7490632391728
 20
356.7318856593948
 30
0.0
 40
2.0
100
AcDbArc
 50
91.00000000000177
 51
144.4095609999995
  0
LINE
  5
125F
330
2
100
AcDbEntity
  8
0
100
AcDbLine
 10
204.1779272391728
 20
357.9694346593949
 30
0.0
 11
201.8450112391728
 21
361.9287086593948
 31
0.0
  0
LINE
  5
1260
330
2
100
AcDbEntity
  8
0
100
AcDbLine
 10
201.4161472391728
 20
360.6911606593949
 30
0.0
 11
201.4161472391728
 21
358.5048196593949
 31
0.0
  0
LINE
  5
1261
330
2
100
AcDbEntity
  8
0
100
AcDbLine
 10
223.4160552391728
 20
341.5262126593948
 30
0.0
 11
223.4160552391728
 21
354.0262126593948
 31
0.0
  0
LINE
  5
1262
330
2
100
AcDbEntity
  8
0
100
AcDbLine
 10
224.5660492391726
 20
341.5262126593948
 30
0.0
 11
224.5660492391726
 21
354.0262126593948
 31
0.0
  0
LINE
  5
1263
330
2
100
AcDbEntity
  8
0
100
AcDbLine
 10
229.4160552391728
 20
341.7762126593949
 30
0.0
 11
229.4160552391728
 21
353.7762126593948
 31
0.0
  0
LINE
  5
1264
330
2
100
AcDbEntity
  8
0
100
AcDbLine
 10
229.4160552391728
 20
341.7762126593949
 30
0.0
 11
224.5660492391726
 21
341.7762126593949
 31
0.0
  0
LINE
  5
1265
330
2
100
AcDbEntity
  8
0
100
AcDbLine
 10
224.5660492391726
 20
341.5262126593948
 30
0.0
 11
223.4160552391728
 21
341.5262126593948
 31
0.0
  0
LINE
  5
1266
330
2
100
AcDbEntity
  8
0
100
AcDbLine
 10
229.4160552391728
 20
341.7762126593949
 30
0.0
 11
231.4160552391728
 21
340.6215186593949
 31
0.0
  0
LINE
  5
1267
330
2
100
AcDbEntity
  8
0
100
AcDbLine
 10
231.4160552391728
 20
357.7762126593948
 30
0.0
 11
221.4161472391728
 21
357.7762126593948
 31
0.0
  0
LINE
  5
1268
330
2
100
AcDbEntity
  8
0
100
AcDbLine
 10
229.4160552391728
 20
353.4330726593949
 30
0.0
 11
224.5660492391726
 21
353.4330726593949
 31
0.0
  0
LINE
  5
1269
330
2
100
AcDbEntity
  8
0
100
AcDbLine
 10
221.4161472391728
 20
360.2762126593948
 30
0.0
 11
218.2194922391728
 21
360.2762126593948
 31
0.0
  0
LINE
  5
126A
330
2
100
AcDbEntity
  8
0
100
AcDbLine
 10
224.5660492391726
 20
354.0262126593948
 30
0.0
 11
223.4160552391728
 21
354.0262126593948
 31
0.0
  0
LINE
  5
126B
330
2
100
AcDbEntity
  8
0
100
AcDbLine
 10
229.4160552391728
 20
353.7762126593948
 30
0.0
 11
231.4160552391728
 21
354.9309216593949
 31
0.0
  0
LINE
  5
126C
330
2
100
AcDbEntity
  8
0
100
AcDbLine
 10
203.3812352391726
 20
362.6908546593949
 30
0.0
 11
218.6858922391728
 21
362.9580056593949
 31
0.0
  0
ARC
  5
126D
330
2
100
AcDbEntity
  8
0
100
AcDbCircle
 10
230.9160552391728
 20
374.1784956593949
 30
0.0
 40
2.0
100
AcDbArc
 50
180.0
 51
250.0000000000029
  0
LINE
  5
126E
330
2
100
AcDbEntity
  8
0
100
AcDbLine
 10
228.4161472391728
 20
363.7762126593949
 30
0.0
 11
221.4161472391728
 21
363.7762126593949
 31
0.0
  0
LINE
  5
126F
330
2
100
AcDbEntity
  8
0
100
AcDbLine
 10
230.2320042391728
 20
372.2991156593948
 30
0.0
 11
233.1001992391725
 21
371.2551856593949
 31
0.0
  0
LINE
  5
1270
330
2
100
AcDbEntity
  8
0
100
AcDbLine
 10
228.4161472391728
 20
363.7762126593949
 30
0.0
 11
229.4161472391726
 21
364.3535596593949
 31
0.0
  0
LINE
  5
1271
330
2
100
AcDbEntity
  8
0
100
AcDbLine
 10
234.4161472391728
 20
367.2762126593949
 30
0.0
 11
231.8161412391729
 21
367.2762126593949
 31
0.0
  0
LINE
  5
1272
330
2
100
AcDbEntity
  8
0
100
AcDbLine
 10
231.8161412391729
 20
368.6262186593949
 30
0.0
 11
229.4161472391726
 21
368.6262186593949
 31
0.0
  0
LINE
  5
1273
330
2
100
AcDbEntity
  8
PHAS
100
AcDbLine
 10
230.6161292391728
 20
367.2762126593949
 30
0.0
 11
231.8161412391729
 21
367.2343116593949
 31
0.0
  0
LINE
  5
1274
330
2
100
AcDbEntity
  8
PHAS
100
AcDbLine
 10
230.6161292391728
 20
367.2762126593949
 30
0.0
 11
229.4161472391726
 21
367.2343116593949
 31
0.0
  0
ARC
  5
1275
330
2
100
AcDbEntity
  8
PHAS
100
AcDbCircle
 10
230.6161292391728
 20
367.0562116593949
 30
0.0
 40
1.219999999999998
100
AcDbArc
 50
8.302276999999667
 51
169.6111449999996
  0
ARC
  5
1276
330
2
100
AcDbEntity
  8
0
100
AcDbCircle
 10
232.4161472391728
 20
369.3757916593948
 30
0.0
 40
2.0
100
AcDbArc
 50
0.0
 51
70.00000000000297
  0
LINE
  5
1277
330
2
100
AcDbEntity
  8
0
100
AcDbLine
 10
228.9160552391728
 20
374.6311166593949
 30
0.0
 11
228.9160552391728
 21
374.1784956593949
 31
0.0
  0
LINE
  5
1278
330
2
100
AcDbEntity
  8
0
100
AcDbLine
 10
196.4161472391728
 20
388.2762126593949
 30
0.0
 11
155.9161472391726
 21
387.5692886593948
 31
0.0
  0
LINE
  5
1279
330
2
100
AcDbEntity
  8
0
100
AcDbLine
 10
236.9161472391728
 20
387.5692886593948
 30
0.0
 11
236.9161472391728
 21
307.9831446593948
 31
0.0
  0
LINE
  5
1289
330
2
100
AcDbEntity
  8
PHAS
  6
SEKKEI_P_S
100
AcDbLine
 10
247.4161472391728
 20
360.7523176593949
 30
0.0
 11
247.4161472391728
 21
334.8631876593949
 31
0.0
  0
ARC
  5
128A
330
2
100
AcDbEntity
  8
PHAS
  6
SEKKEI_P_S
100
AcDbCircle
 10
244.4161472391728
 20
334.8001076593948
 30
0.0
 40
3.0
100
AcDbArc
 50
285.000000000001
 51
0.0
  0
ARC
  5
128B
330
2
100
AcDbEntity
  8
PHAS
  6
SEKKEI_P_S
100
AcDbCircle
 10
244.4161472391728
 20
360.7523176593949
 30
0.0
 40
3.0
100
AcDbArc
 50
0.0
 51
74.99999999999882
  0
LINE
  5
128C
330
2
100
AcDbEntity
  8
CENTER
100
AcDbLine
 10
408.0151699161596
 20
194.6803181390592
 30
0.0
 11
495.0639059161595
 21
194.6803181390592
 31
0.0
  0
LINE
  5
128D
330
2
100
AcDbEntity
  8
HIDS
100
AcDbLine
 10
459.0201439161595
 20
198.6803181390591
 30
0.0
 11
491.5201439161594
 21
198.6803181390591
 31
0.0
  0
LINE
  5
128E
330
2
100
AcDbEntity
  8
0
100
AcDbLine
 10
451.0201439161595
 20
201.6803181390591
 30
0.0
 11
491.5201439161594
 21
200.9733941390591
 31
0.0
  0
LINE
  5
128F
330
2
100
AcDbEntity
  8
HIDS
100
AcDbLine
 10
423.0201439161595
 20
198.0803121390591
 30
0.0
 11
491.5201439161594
 21
198.0803121390591
 31
0.0
  0
LINE
  5
1291
330
2
100
AcDbEntity
  8
0
100
AcDbLine
 10
451.0201439161595
 20
201.6803181390591
 30
0.0
 11
410.5201439161595
 21
200.9733941390591
 31
0.0
  0
LINE
  5
1292
330
2
100
AcDbEntity
  8
HIDS
100
AcDbLine
 10
423.0201439161595
 20
198.6803181390591
 30
0.0
 11
443.0201439161595
 21
198.6803181390591
 31
0.0
  0
LINE
  5
1293
330
2
100
AcDbEntity
  8
HIDS
  6
SEKKEI_H
100
AcDbLine
 10
410.5201439161595
 20
198.9303181390591
 30
0.0
 11
423.0201439161595
 21
198.9303181390591
 31
0.0
  0
TEXT
  5
16D4
330
2
100
AcDbEntity
  8
TITLE
100
AcDbText
 10
213.7613313417571
 20
63.30799974698408
 30
0.0
 40
7.0
  1
F2SB-12-10～240-S25T
 41
0.8
100
AcDbText
  0
TEXT
  5
16D5
330
2
100
AcDbEntity
  8
TITLE
100
AcDbText
 10
213.7613313417571
 20
39.30799974698407
 30
0.0
 40
7.0
  1
F2SB-12-10～120-S40T
 41
0.8
100
AcDbText
  0
TEXT
  5
16D6
330
2
100
AcDbEntity
  8
TITLE
100
AcDbText
 10
213.7613313417571
 20
51.30799974698408
 30
0.0
 40
7.0
  1
F2SB-12-10～240-S25WT
 41
0.8
100
AcDbText
  0
TEXT
  5
16D7
330
2
100
AcDbEntity
  8
TITLE
100
AcDbText
 10
213.7613313417571
 20
27.30799974698407
 30
0.0
 40
7.0
  1
F2SB-12-10～120-S40WT
 41
0.8
100
AcDbText
  0
LINE
  5
1743
330
2
100
AcDbEntity
  8
CENTER
100
AcDbLine
 10
283.5733632332219
 20
131.0734451390592
 30
0.0
 11
283.5733632332219
 21
191.2871911390591
 31
0.0
  0
LINE
  5
1744
330
2
100
AcDbEntity
  8
CENTER
100
AcDbLine
 10
229.573363233222
 20
135.6589561390592
 30
0.0
 11
229.573363233222
 21
119.7016801390592
 31
0.0
  0
LINE
  5
1745
330
2
100
AcDbEntity
  8
CENTER
100
AcDbLine
 10
237.5520012332219
 20
127.6803181390592
 30
0.0
 11
221.5947252332219
 21
127.6803181390592
 31
0.0
  0
LINE
  5
1746
330
2
100
AcDbEntity
  8
CENTER
100
AcDbLine
 10
221.501021233222
 20
137.6803181390592
 30
0.0
 11
232.6457052332218
 21
137.6803181390592
 31
0.0
  0
LINE
  5
1747
330
2
100
AcDbEntity
  8
CENTER
100
AcDbLine
 10
227.073363233222
 20
132.1079761390592
 30
0.0
 11
227.073363233222
 21
143.2526601390591
 31
0.0
  0
LINE
  5
1748
330
2
100
AcDbEntity
  8
CENTER
100
AcDbLine
 10
315.573363233222
 20
135.6589561390592
 30
0.0
 11
315.573363233222
 21
119.7016801390592
 31
0.0
  0
LINE
  5
1749
330
2
100
AcDbEntity
  8
CENTER
100
AcDbLine
 10
318.0733632332219
 20
132.1079761390592
 30
0.0
 11
318.0733632332219
 21
143.2526601390591
 31
0.0
  0
LINE
  5
174A
330
2
100
AcDbEntity
  8
CENTER
100
AcDbLine
 10
323.552001233222
 20
127.6803181390592
 30
0.0
 11
307.594725233222
 21
127.6803181390592
 31
0.0
  0
LINE
  5
174B
330
2
100
AcDbEntity
  8
CENTER
100
AcDbLine
 10
312.5010212332221
 20
137.6803181390592
 30
0.0
 11
323.645705233222
 21
137.6803181390592
 31
0.0
  0
LINE
  5
174C
330
2
100
AcDbEntity
  8
CENTER
100
AcDbLine
 10
227.073363233222
 20
179.1079761390592
 30
0.0
 11
227.073363233222
 21
190.2526601390591
 31
0.0
  0
LINE
  5
174D
330
2
100
AcDbEntity
  8
CENTER
100
AcDbLine
 10
237.5520012332219
 20
194.6803181390592
 30
0.0
 11
221.5947252332219
 21
194.6803181390592
 31
0.0
  0
LINE
  5
174E
330
2
100
AcDbEntity
  8
CENTER
100
AcDbLine
 10
221.501021233222
 20
184.6803181390591
 30
0.0
 11
232.6457052332218
 21
184.6803181390591
 31
0.0
  0
LINE
  5
174F
330
2
100
AcDbEntity
  8
CENTER
100
AcDbLine
 10
229.573363233222
 20
202.6589561390591
 30
0.0
 11
229.573363233222
 21
186.7016801390591
 31
0.0
  0
LINE
  5
1750
330
2
100
AcDbEntity
  8
CENTER
100
AcDbLine
 10
318.0733632332219
 20
179.1079761390592
 30
0.0
 11
318.0733632332219
 21
190.2526601390591
 31
0.0
  0
LINE
  5
1751
330
2
100
AcDbEntity
  8
CENTER
100
AcDbLine
 10
315.573363233222
 20
202.6589561390591
 30
0.0
 11
315.573363233222
 21
186.7016801390591
 31
0.0
  0
LINE
  5
1752
330
2
100
AcDbEntity
  8
CENTER
100
AcDbLine
 10
323.552001233222
 20
194.6803181390592
 30
0.0
 11
307.594725233222
 21
194.6803181390592
 31
0.0
  0
LINE
  5
1753
330
2
100
AcDbEntity
  8
CENTER
100
AcDbLine
 10
312.5010212332221
 20
184.6803181390591
 30
0.0
 11
323.645705233222
 21
184.6803181390591
 31
0.0
  0
LINE
  5
1754
330
2
100
AcDbEntity
  8
CENTER
100
AcDbLine
 10
662.7222260744596
 20
131.0734451390592
 30
0.0
 11
662.7222260744596
 21
191.2871911390591
 31
0.0
  0
LINE
  5
1755
330
2
100
AcDbEntity
  8
CENTER
100
AcDbLine
 10
630.7222260744596
 20
135.6589561390592
 30
0.0
 11
630.7222260744596
 21
119.7016801390592
 31
0.0
  0
LINE
  5
1756
330
2
100
AcDbEntity
  8
CENTER
100
AcDbLine
 10
638.7008640744595
 20
127.6803181390592
 30
0.0
 11
622.7435880744596
 21
127.6803181390592
 31
0.0
  0
LINE
  5
1757
330
2
100
AcDbEntity
  8
CENTER
100
AcDbLine
 10
716.7222260744597
 20
135.6589561390592
 30
0.0
 11
716.7222260744597
 21
119.7016801390592
 31
0.0
  0
LINE
  5
1758
330
2
100
AcDbEntity
  8
CENTER
100
AcDbLine
 10
724.7008640744597
 20
127.6803181390592
 30
0.0
 11
708.7435880744595
 21
127.6803181390592
 31
0.0
  0
LINE
  5
1759
330
2
100
AcDbEntity
  8
CENTER
100
AcDbLine
 10
630.7222260744596
 20
202.6589561390591
 30
0.0
 11
630.7222260744596
 21
186.7016801390591
 31
0.0
  0
LINE
  5
175A
330
2
100
AcDbEntity
  8
CENTER
100
AcDbLine
 10
638.7008640744595
 20
194.6803181390592
 30
0.0
 11
622.7435880744596
 21
194.6803181390592
 31
0.0
  0
LINE
  5
175B
330
2
100
AcDbEntity
  8
CENTER
100
AcDbLine
 10
716.7222260744597
 20
202.6589561390591
 30
0.0
 11
716.7222260744597
 21
186.7016801390591
 31
0.0
  0
LINE
  5
175C
330
2
100
AcDbEntity
  8
CENTER
100
AcDbLine
 10
724.7008640744597
 20
194.6803181390592
 30
0.0
 11
708.7435880744595
 21
194.6803181390592
 31
0.0
  0
LINE
  5
27BF
330
2
100
AcDbEntity
  8
CENTER
100
AcDbLine
 10
420.976536934951
 20
222.1803161390591
 30
0.0
 11
481.063750897368
 21
222.1803161390591
 31
0.0
  0
LINE
  5
27C1
330
2
100
AcDbEntity
  8
0
100
AcDbLine
 10
426.0201439161595
 20
230.6803161390591
 30
0.0
 11
468.5201289161596
 21
230.6803161390591
 31
0.0
  0
LINE
  5
27C2
330
2
100
AcDbEntity
  8
0
100
AcDbLine
 10
427.0201439161595
 20
231.6803161390591
 30
0.0
 11
471.1822351001335
 21
231.6803161390591
 31
0.0
  0
LINE
  5
27C3
330
2
100
AcDbEntity
  8
0
100
AcDbLine
 10
426.0201439161595
 20
202.6803181390592
 30
0.0
 11
476.0201289161596
 21
202.6803181390592
 31
0.0
  0
LINE
  5
27C4
330
2
100
AcDbEntity
  8
0
100
AcDbLine
 10
426.0201439161595
 20
212.6803181390591
 30
0.0
 11
476.0201289161596
 21
212.6803181390591
 31
0.0
  0
LINE
  5
27EC
330
2
100
AcDbEntity
  8
CENTER
100
AcDbLine
 10
132.574110233222
 20
222.1803161390591
 30
0.0
 11
194.4701691969601
 21
222.1803161390591
 31
0.0
  0
LINE
  5
27ED
330
2
100
AcDbEntity
  8
0
100
AcDbLine
 10
148.017859661793
 20
230.6803161390591
 30
0.0
 11
190.517873233222
 21
230.6803161390591
 31
0.0
  0
LINE
  5
27EE
330
2
100
AcDbEntity
  8
0
100
AcDbLine
 10
140.5178592332219
 20
202.6803181390592
 30
0.0
 11
190.517866233222
 21
202.6803181390592
 31
0.0
  0
LINE
  5
27EF
330
2
100
AcDbEntity
  8
0
100
AcDbLine
 10
138.5178592332219
 20
212.6803181390591
 30
0.0
 11
190.517866233222
 21
212.6803181390591
 31
0.0
  0
LINE
  5
27F0
330
2
100
AcDbEntity
  8
0
100
AcDbLine
 10
142.017859233222
 20
200.6803181390591
 30
0.0
 11
188.517866233222
 21
200.6803181390591
 31
0.0
  0
LINE
  5
27F1
330
2
100
AcDbEntity
  8
0
100
AcDbLine
 10
145.3557750492474
 20
231.6803161390591
 30
0.0
 11
189.517866233222
 21
231.6803161390591
 31
0.0
  0
ARC
  5
27F2
330
2
100
AcDbEntity
  8
0
100
AcDbCircle
 10
139.517874233222
 20
228.6803161390591
 30
0.0
 40
1.0
100
AcDbArc
 50
90.0
 51
180.0
  0
LINE
  5
27F3
330
2
100
AcDbEntity
  8
0
100
AcDbLine
 10
135.017874233222
 20
226.1803161390591
 30
0.0
 11
138.517874233222
 21
227.6803161390591
 31
0.0
  0
LINE
  5
27F4
330
2
100
AcDbEntity
  8
0
100
AcDbLine
 10
138.517874233222
 20
228.6803161390591
 30
0.0
 11
138.5178592332219
 21
212.6803181390591
 31
0.0
  0
LINE
  5
27F5
330
2
100
AcDbEntity
  8
0
100
AcDbLine
 10
135.017859233222
 20
218.1803161390591
 30
0.0
 11
138.5178592332219
 21
216.680316139059
 31
0.0
  0
LINE
  5
27F6
330
2
100
AcDbEntity
  8
0
100
AcDbLine
 10
135.017874233222
 20
226.1803161390591
 30
0.0
 11
135.017874233222
 21
218.1803161390591
 31
0.0
  0
LINE
  5
27F7
330
2
100
AcDbEntity
  8
0
100
AcDbLine
 10
140.5178592332219
 20
230.6803161390591
 30
0.0
 11
140.5178592332219
 21
202.6803181390592
 31
0.0
  0
LINE
  5
27F8
330
2
100
AcDbEntity
  8
CENTER
100
AcDbLine
 10
165.517866233222
 20
195.9866171390591
 30
0.0
 11
165.517866233222
 21
237.0678161390591
 31
0.0
  0
LINE
  5
27FA
330
2
100
AcDbEntity
  8
0
100
AcDbLine
 10
140.5178592332219
 20
202.6803181390592
 30
0.0
 11
142.5178592332219
 21
200.6803181390591
 31
0.0
  0
LINE
  5
27FB
330
2
100
AcDbEntity
  8
0
100
AcDbLine
 10
142.017859233222
 20
200.6803181390591
 30
0.0
 11
142.017859233222
 21
199.1803181390591
 31
0.0
  0
LINE
  5
27FC
330
2
100
AcDbEntity
  8
0
100
AcDbLine
 10
148.017859661793
 20
229.180316139059
 30
0.0
 11
140.517859661793
 21
229.180316139059
 31
0.0
  0
LINE
  5
27FD
330
2
100
AcDbEntity
  8
0
100
AcDbLine
 10
144.3053662336772
 20
230.2633161390591
 30
0.0
 11
143.7303662327669
 21
230.2633161390591
 31
0.0
  0
ARC
  5
27FE
330
2
100
AcDbEntity
  8
0
100
AcDbCircle
 10
144.0178662332221
 20
222.780316139059
 30
0.0
 40
9.0
100
AcDbArc
 50
74.11914999171973
 51
105.8808500082802
  0
LINE
  5
27FF
330
2
100
AcDbEntity
  8
0
100
AcDbLine
 10
141.5178592332219
 20
231.6803161390591
 30
0.0
 11
142.6799574171965
 21
231.6803161390591
 31
0.0
  0
LINE
  5
2800
330
2
100
AcDbEntity
  8
0
100
AcDbLine
 10
139.5178592332219
 20
229.6803161390591
 30
0.0
 11
140.5178592332219
 21
229.6803161390591
 31
0.0
  0
LINE
  5
2801
330
2
100
AcDbEntity
  8
0
100
AcDbLine
 10
140.5178592332219
 20
230.6803161390591
 30
0.0
 11
141.5178592332219
 21
231.6803161390591
 31
0.0
  0
LINE
  5
2802
330
2
100
AcDbEntity
  8
0
100
AcDbLine
 10
141.517859661793
 20
231.6803161390591
 30
0.0
 11
140.5178592332219
 21
230.6803161390591
 31
0.0
  0
ARC
  5
2803
330
2
100
AcDbEntity
  8
0
100
AcDbCircle
 10
141.9108554796291
 20
230.1864288633054
 30
0.0
 40
1.3
100
AcDbArc
 50
105.8808500082802
 51
175.0000000000001
  0
LINE
  5
2804
330
2
100
AcDbEntity
  8
0
100
AcDbLine
 10
140.517866233222
 20
229.180316139059
 30
0.0
 11
140.6158023721099
 21
230.2997313288773
 31
0.0
  0
SPLINE
  5
2805
330
2
100
AcDbEntity
  8
0
100
AcDbSpline
210
0.0
220
0.0
230
1.0
 70
     8
 71
     3
 72
    11
 73
     7
 74
     0
 42
0.0000000001
 43
0.0000000001
 40
0.0
 40
0.0
 40
0.0
 40
0.0
 40
0.4601364636755307
 40
1.04988694485363
 40
1.713742833862792
 40
2.320347933405154
 40
2.320347933405154
 40
2.320347933405154
 40
2.320347933405178
 10
143.7303662327669
 20
230.2633161390591
 30
0.0
 10
143.7079485756591
 20
230.418339578739
 30
0.0
 10
143.6567985204259
 20
230.7720543966564
 30
0.0
 10
143.2209133588924
 20
231.1967820682581
 30
0.0
 10
142.6158626438849
 20
231.415969248224
 30
0.0
 10
142.190678019709
 20
231.3469779486133
 30
0.0
 10
141.988126410058
 20
231.3327576764367
 30
0.0
  0
LINE
  5
2806
330
2
100
AcDbEntity
  8
0
100
AcDbLine
 10
141.988126410058
 20
231.3327576764367
 30
0.0
 11
141.9678662332221
 21
231.5437344218981
 31
0.0
  0
LINE
  5
2807
330
2
100
AcDbEntity
  8
0
100
AcDbLine
 10
148.017859661793
 20
231.180316139059
 30
0.0
 11
146.9628436228421
 21
231.180316139059
 31
0.0
  0
LINE
  5
2808
330
2
100
AcDbEntity
  8
0
100
AcDbLine
 10
148.017859661793
 20
229.180316139059
 30
0.0
 11
148.017859661793
 21
231.180316139059
 31
0.0
  0
LINE
  5
2809
330
2
100
AcDbEntity
  8
0
100
AcDbLine
 10
148.517859661793
 20
231.6803161390591
 30
0.0
 11
148.017859661793
 21
231.180316139059
 31
0.0
  0
SPLINE
  5
280A
330
2
100
AcDbEntity
  8
0
100
AcDbSpline
210
0.0
220
0.0
230
1.0
 70
     8
 71
     3
 72
    11
 73
     7
 74
     0
 42
0.0000000001
 43
0.0000000001
 40
0.0
 40
0.0
 40
0.0
 40
0.0
 40
0.4601364636755307
 40
1.04988694485363
 40
1.713742833862792
 40
2.320347933405154
 40
2.320347933405154
 40
2.320347933405154
 40
2.320347933405178
 10
144.3053662336772
 20
230.2633161390591
 30
0.0
 10
144.327783890785
 20
230.418339578739
 30
0.0
 10
144.3789339460183
 20
230.7720543966564
 30
0.0
 10
144.8148191075518
 20
231.1967820682581
 30
0.0
 10
145.4198698225593
 20
231.415969248224
 30
0.0
 10
145.8450544467351
 20
231.3469779486133
 30
0.0
 10
146.0476060563861
 20
231.3327576764367
 30
0.0
  0
LINE
  5
280B
330
2
100
AcDbEntity
  8
0
100
AcDbLine
 10
146.0476060563861
 20
231.3327576764367
 30
0.0
 11
146.067866233222
 21
231.5437344218981
 31
0.0
  0
ARC
  5
280C
330
2
100
AcDbEntity
  8
0
100
AcDbCircle
 10
146.1248769868149
 20
230.1864288633054
 30
0.0
 40
1.3
100
AcDbArc
 50
4.999999999999743
 51
74.11914999171973
  0
LINE
  5
280D
330
2
100
AcDbEntity
  8
0
100
AcDbLine
 10
147.517866233222
 20
229.180316139059
 30
0.0
 11
147.4199300943341
 21
230.2997313288773
 31
0.0
  0
LINE
  5
280E
330
2
100
AcDbEntity
  8
0
100
AcDbLine
 10
190.517866233222
 20
230.6803161390591
 30
0.0
 11
190.517866233222
 21
202.6803181390592
 31
0.0
  0
LINE
  5
280F
330
2
100
AcDbEntity
  8
0
100
AcDbLine
 10
188.517866233222
 20
200.6803181390591
 30
0.0
 11
190.517866233222
 21
202.6803181390592
 31
0.0
  0
LINE
  5
2810
330
2
100
AcDbEntity
  8
0
100
AcDbLine
 10
188.017866233222
 20
200.6803181390591
 30
0.0
 11
188.017866233222
 21
199.1803181390591
 31
0.0
  0
LINE
  5
2811
330
2
100
AcDbEntity
  8
0
100
AcDbLine
 10
189.517873233222
 20
231.6803161390591
 30
0.0
 11
190.517873233222
 21
230.6803161390591
 31
0.0
  0
LINE
  5
2812
330
2
100
AcDbEntity
  8
0
100
AcDbLine
 10
426.0201439161595
 20
230.6803161390591
 30
0.0
 11
426.0201439161595
 21
202.6803181390592
 31
0.0
  0
LINE
  5
2813
330
2
100
AcDbEntity
  8
0
100
AcDbLine
 10
426.0201439161595
 20
202.6803181390592
 30
0.0
 11
427.4318751096841
 21
201.2685869455345
 31
0.0
  0
LINE
  5
2815
330
2
100
AcDbEntity
  8
0
100
AcDbLine
 10
427.0201439161595
 20
231.6803161390591
 30
0.0
 11
426.0201439161595
 21
230.6803161390591
 31
0.0
  0
LINE
  5
2819
330
2
100
AcDbEntity
  8
0
100
AcDbLine
 10
476.0201289161596
 20
230.6803161390591
 30
0.0
 11
476.0201289161596
 21
202.6803181390592
 31
0.0
  0
LINE
  5
281A
330
2
100
AcDbEntity
  8
0
100
AcDbLine
 10
474.6083979799668
 20
201.2685872028665
 30
0.0
 11
476.0201289161596
 21
202.6803181390592
 31
0.0
  0
LINE
  5
281C
330
2
100
AcDbEntity
  8
0
100
AcDbLine
 10
468.5201289161596
 20
229.180316139059
 30
0.0
 11
476.0201289161596
 21
229.1803161390591
 31
0.0
  0
SPLINE
  5
281D
330
2
100
AcDbEntity
  8
0
100
AcDbSpline
210
0.0
220
0.0
230
1.0
 70
     8
 71
     3
 72
    11
 73
     7
 74
     0
 42
0.0000000001
 43
0.0000000001
 40
0.0
 40
0.0
 40
0.0
 40
0.0
 40
0.4601364636755307
 40
1.04988694485363
 40
1.713742833862792
 40
2.320347933405154
 40
2.320347933405154
 40
2.320347933405154
 40
2.320347933405178
 10
472.2326439157044
 20
230.2633161390591
 30
0.0
 10
472.2102262585967
 20
230.418339578739
 30
0.0
 10
472.1590762033633
 20
230.7720543966564
 30
0.0
 10
471.7231910418298
 20
231.1967820682581
 30
0.0
 10
471.1181403268223
 20
231.4159692482241
 30
0.0
 10
470.6929557026466
 20
231.3469779486133
 30
0.0
 10
470.4904040929955
 20
231.3327576764367
 30
0.0
  0
ARC
  5
281E
330
2
100
AcDbEntity
  8
0
100
AcDbCircle
 10
472.5201439161596
 20
222.780316139059
 30
0.0
 40
9.0
100
AcDbArc
 50
74.11914999171973
 51
105.8808500082802
  0
LINE
  5
281F
330
2
100
AcDbEntity
  8
0
100
AcDbLine
 10
468.5201289161596
 20
231.180316139059
 30
0.0
 11
469.5751665265391
 21
231.180316139059
 31
0.0
  0
LINE
  5
2820
330
2
100
AcDbEntity
  8
0
100
AcDbLine
 10
468.5201289161596
 20
229.180316139059
 30
0.0
 11
468.5201289161596
 21
231.1803161390591
 31
0.0
  0
LINE
  5
2821
330
2
100
AcDbEntity
  8
0
100
AcDbLine
 10
468.0201289161596
 20
231.6803161390591
 30
0.0
 11
468.5201289161596
 21
231.180316139059
 31
0.0
  0
ARC
  5
2822
330
2
100
AcDbEntity
  8
0
100
AcDbCircle
 10
470.4131331625664
 20
230.1864288633054
 30
0.0
 40
1.3
100
AcDbArc
 50
105.8808500082802
 51
175.0000000000001
  0
LINE
  5
2823
330
2
100
AcDbEntity
  8
0
100
AcDbLine
 10
469.0201439161596
 20
229.1803161390591
 30
0.0
 11
469.1180800550474
 21
230.2997313288773
 31
0.0
  0
LINE
  5
2824
330
2
100
AcDbEntity
  8
0
100
AcDbLine
 10
470.4904040929955
 20
231.3327576764367
 30
0.0
 11
470.4701439161595
 21
231.5437344218983
 31
0.0
  0
LINE
  5
2825
330
2
100
AcDbEntity
  8
0
100
AcDbLine
 10
475.0201289161595
 20
231.6803161390591
 30
0.0
 11
476.0201289161596
 21
230.6803161390591
 31
0.0
  0
SPLINE
  5
2826
330
2
100
AcDbEntity
  8
0
100
AcDbSpline
210
0.0
220
0.0
230
1.0
 70
     8
 71
     3
 72
    11
 73
     7
 74
     0
 42
0.0000000001
 43
0.0000000001
 40
0.0
 40
0.0
 40
0.0
 40
0.0
 40
0.4601364636755307
 40
1.04988694485363
 40
1.713742833862792
 40
2.320347933405154
 40
2.320347933405154
 40
2.320347933405154
 40
2.320347933405178
 10
472.8076439166145
 20
230.2633161390591
 30
0.0
 10
472.8300615737223
 20
230.418339578739
 30
0.0
 10
472.8812116289557
 20
230.7720543966564
 30
0.0
 10
473.3170967904893
 20
231.1967820682581
 30
0.0
 10
473.9221475054968
 20
231.4159692482241
 30
0.0
 10
474.3473321296725
 20
231.3469779486133
 30
0.0
 10
474.5498837393236
 20
231.3327576764367
 30
0.0
  0
LINE
  5
2827
330
2
100
AcDbEntity
  8
0
100
AcDbLine
 10
472.8076439166145
 20
230.2633161390591
 30
0.0
 11
472.2326439157044
 21
230.2633161390591
 31
0.0
  0
LINE
  5
2828
330
2
100
AcDbEntity
  8
0
100
AcDbLine
 10
474.5498837393236
 20
231.3327576764367
 30
0.0
 11
474.5701439161595
 21
231.5437344218983
 31
0.0
  0
ARC
  5
2829
330
2
100
AcDbEntity
  8
0
100
AcDbCircle
 10
474.6271546697523
 20
230.1864288633054
 30
0.0
 40
1.3
100
AcDbArc
 50
4.999999999999743
 51
74.11914999171973
  0
LINE
  5
282A
330
2
100
AcDbEntity
  8
0
100
AcDbLine
 10
476.0201439161595
 20
229.1803161390591
 30
0.0
 11
475.9222077772716
 21
230.2997313288773
 31
0.0
  0
LINE
  5
282B
330
2
100
AcDbEntity
  8
0
100
AcDbLine
 10
473.8580527321857
 20
231.6803161390591
 30
0.0
 11
475.0201289161595
 21
231.6803161390591
 31
0.0
  0
LINE
  5
282C
330
2
100
AcDbEntity
  8
0
100
AcDbLine
 10
807.7777070744597
 20
212.6803181390591
 30
0.0
 11
755.7777000744595
 21
212.6803181390591
 31
0.0
  0
LINE
  5
282D
330
2
100
AcDbEntity
  8
CENTER
100
AcDbLine
 10
813.7214560744595
 20
222.1803161390591
 30
0.0
 11
751.8253971107213
 21
222.1803161390591
 31
0.0
  0
LINE
  5
282E
330
2
100
AcDbEntity
  8
0
100
AcDbLine
 10
804.2777070744596
 20
200.6803181390591
 30
0.0
 11
757.7777000744595
 21
200.6803181390591
 31
0.0
  0
LINE
  5
282F
330
2
100
AcDbEntity
  8
0
100
AcDbLine
 10
805.7777070744595
 20
202.6803181390592
 30
0.0
 11
755.7777000744595
 21
202.6803181390592
 31
0.0
  0
LINE
  5
2831
330
2
100
AcDbEntity
  8
0
100
AcDbLine
 10
763.2777005030305
 20
230.6803161390591
 30
0.0
 11
805.7777070744595
 21
230.6803161390591
 31
0.0
  0
LINE
  5
2832
330
2
100
AcDbEntity
  8
0
100
AcDbLine
 10
760.615608890485
 20
231.6803161390591
 30
0.0
 11
804.7777000744595
 21
231.6803161390591
 31
0.0
  0
LINE
  5
2834
330
2
100
AcDbEntity
  8
CENTER
100
AcDbLine
 10
780.7777000744595
 20
195.9866171390591
 30
0.0
 11
780.7777000744595
 21
237.0678161390591
 31
0.0
  0
LINE
  5
2835
330
2
100
AcDbEntity
  8
0
100
AcDbLine
 10
755.7777000744596
 20
230.6803161390591
 30
0.0
 11
755.7777000744595
 21
202.6803181390592
 31
0.0
  0
LINE
  5
2836
330
2
100
AcDbEntity
  8
0
100
AcDbLine
 10
757.7777000744595
 20
200.6803181390591
 30
0.0
 11
755.7777000744595
 21
202.6803181390592
 31
0.0
  0
LINE
  5
2837
330
2
100
AcDbEntity
  8
0
100
AcDbLine
 10
758.2777000744595
 20
200.6803181390591
 30
0.0
 11
758.2777000744595
 21
199.1803181390591
 31
0.0
  0
LINE
  5
2838
330
2
100
AcDbEntity
  8
0
100
AcDbLine
 10
763.2777005030305
 20
229.180316139059
 30
0.0
 11
755.7777005030305
 21
229.180316139059
 31
0.0
  0
LINE
  5
2839
330
2
100
AcDbEntity
  8
0
100
AcDbLine
 10
763.2777005030305
 20
231.180316139059
 30
0.0
 11
762.2226774640799
 21
231.180316139059
 31
0.0
  0
SPLINE
  5
283A
330
2
100
AcDbEntity
  8
0
100
AcDbSpline
210
0.0
220
0.0
230
1.0
 70
     8
 71
     3
 72
    11
 73
     7
 74
     0
 42
0.0000000001
 43
0.0000000001
 40
0.0
 40
0.0
 40
0.0
 40
0.0
 40
0.4601364636755307
 40
1.04988694485363
 40
1.713742833862792
 40
2.320347933405154
 40
2.320347933405154
 40
2.320347933405154
 40
2.320347933405178
 10
758.9902000740046
 20
230.2633161390591
 30
0.0
 10
758.9677824168968
 20
230.418339578739
 30
0.0
 10
758.9166323616633
 20
230.7720543966564
 30
0.0
 10
758.4807472001297
 20
231.1967820682581
 30
0.0
 10
757.8756964851224
 20
231.415969248224
 30
0.0
 10
757.4505118609464
 20
231.3469779486132
 30
0.0
 10
757.2479602512956
 20
231.3327576764367
 30
0.0
  0
ARC
  5
283B
330
2
100
AcDbEntity
  8
0
100
AcDbCircle
 10
759.2777000744596
 20
222.7803161390589
 30
0.0
 40
9.0
100
AcDbArc
 50
74.11914999171973
 51
105.8808500082802
  0
LINE
  5
283C
330
2
100
AcDbEntity
  8
0
100
AcDbLine
 10
756.7777000744596
 20
231.6803161390591
 30
0.0
 11
757.9397912584343
 21
231.6803161390591
 31
0.0
  0
LINE
  5
283D
330
2
100
AcDbEntity
  8
0
100
AcDbLine
 10
755.7777000744596
 20
230.6803161390591
 30
0.0
 11
756.7777000744596
 21
231.6803161390591
 31
0.0
  0
ARC
  5
283E
330
2
100
AcDbEntity
  8
0
100
AcDbCircle
 10
757.1706893208665
 20
230.1864288633054
 30
0.0
 40
1.3
100
AcDbArc
 50
105.8808500082802
 51
175.0000000000001
  0
LINE
  5
283F
330
2
100
AcDbEntity
  8
0
100
AcDbLine
 10
755.7777000744596
 20
229.180316139059
 30
0.0
 11
755.8756362133473
 21
230.2997313288773
 31
0.0
  0
LINE
  5
2840
330
2
100
AcDbEntity
  8
0
100
AcDbLine
 10
757.2479602512956
 20
231.3327576764367
 30
0.0
 11
757.2277000744596
 21
231.5437344218981
 31
0.0
  0
SPLINE
  5
2841
330
2
100
AcDbEntity
  8
0
100
AcDbSpline
210
0.0
220
0.0
230
1.0
 70
     8
 71
     3
 72
    11
 73
     7
 74
     0
 42
0.0000000001
 43
0.0000000001
 40
0.0
 40
0.0
 40
0.0
 40
0.0
 40
0.4601364636755307
 40
1.04988694485363
 40
1.713742833862792
 40
2.320347933405154
 40
2.320347933405154
 40
2.320347933405154
 40
2.320347933405178
 10
759.5652000749145
 20
230.2633161390591
 30
0.0
 10
759.5876177320225
 20
230.418339578739
 30
0.0
 10
759.6387677872557
 20
230.7720543966564
 30
0.0
 10
760.0746529487893
 20
231.1967820682581
 30
0.0
 10
760.6797036637966
 20
231.415969248224
 30
0.0
 10
761.1048882879726
 20
231.3469779486132
 30
0.0
 10
761.3074398976237
 20
231.3327576764367
 30
0.0
  0
LINE
  5
2842
330
2
100
AcDbEntity
  8
0
100
AcDbLine
 10
759.5652000749145
 20
230.2633161390591
 30
0.0
 11
758.9902000740046
 21
230.2633161390591
 31
0.0
  0
LINE
  5
2843
330
2
100
AcDbEntity
  8
0
100
AcDbLine
 10
761.3074398976237
 20
231.3327576764367
 30
0.0
 11
761.3277000744597
 21
231.5437344218981
 31
0.0
  0
ARC
  5
2844
330
2
100
AcDbEntity
  8
0
100
AcDbCircle
 10
761.3847108280523
 20
230.1864288633054
 30
0.0
 40
1.3
100
AcDbArc
 50
4.999999999999743
 51
74.11914999171973
  0
LINE
  5
2845
330
2
100
AcDbEntity
  8
0
100
AcDbLine
 10
762.7777000744595
 20
229.180316139059
 30
0.0
 11
762.6797639355717
 21
230.2997313288773
 31
0.0
  0
LINE
  5
2846
330
2
100
AcDbEntity
  8
0
100
AcDbLine
 10
763.2777005030305
 20
229.180316139059
 30
0.0
 11
763.2777005030305
 21
231.180316139059
 31
0.0
  0
LINE
  5
2847
330
2
100
AcDbEntity
  8
0
100
AcDbLine
 10
763.7777005030305
 20
231.6803161390591
 30
0.0
 11
763.2777005030305
 21
231.180316139059
 31
0.0
  0
LINE
  5
2848
330
2
100
AcDbEntity
  8
0
100
AcDbLine
 10
807.7776920744595
 20
228.6803161390591
 30
0.0
 11
807.7777070744597
 21
212.6803181390591
 31
0.0
  0
LINE
  5
2849
330
2
100
AcDbEntity
  8
0
100
AcDbLine
 10
811.2776920744595
 20
226.1803161390591
 30
0.0
 11
807.7776920744595
 21
227.6803161390591
 31
0.0
  0
LINE
  5
284A
330
2
100
AcDbEntity
  8
0
100
AcDbLine
 10
805.7777070744595
 20
230.6803161390591
 30
0.0
 11
805.7777070744595
 21
202.6803181390592
 31
0.0
  0
LINE
  5
284D
330
2
100
AcDbEntity
  8
0
100
AcDbLine
 10
805.7777070744595
 20
202.6803181390592
 30
0.0
 11
803.7777070744597
 21
200.6803181390591
 31
0.0
  0
LINE
  5
284E
330
2
100
AcDbEntity
  8
0
100
AcDbLine
 10
804.2777070744596
 20
200.6803181390591
 30
0.0
 11
804.2777070744596
 21
199.1803181390591
 31
0.0
  0
LINE
  5
284F
330
2
100
AcDbEntity
  8
0
100
AcDbLine
 10
811.2777070744595
 20
218.1803161390591
 30
0.0
 11
807.7777070744597
 21
216.680316139059
 31
0.0
  0
LINE
  5
2850
330
2
100
AcDbEntity
  8
0
100
AcDbLine
 10
811.2776920744595
 20
226.1803161390591
 30
0.0
 11
811.2776920744595
 21
218.1803161390591
 31
0.0
  0
LINE
  5
2851
330
2
100
AcDbEntity
  8
0
100
AcDbLine
 10
804.7777070744595
 20
231.6803161390591
 30
0.0
 11
805.7777070744595
 21
230.6803161390591
 31
0.0
  0
LINE
  5
2852
330
2
100
AcDbEntity
  8
0
100
AcDbLine
 10
806.7777070744595
 20
229.6803161390591
 30
0.0
 11
805.7777070744595
 21
229.6803161390591
 31
0.0
  0
ARC
  5
2853
330
2
100
AcDbEntity
  8
0
100
AcDbCircle
 10
806.7776920744595
 20
228.6803161390591
 30
0.0
 40
1.0
100
AcDbArc
 50
0.0
 51
90.0
  0
LINE
  5
2854
330
2
100
AcDbEntity
  8
0
100
AcDbLine
 10
803.3777060744595
 20
361.1245887406697
 30
0.0
 11
763.2778070744596
 21
361.1245887406697
 31
0.0
  0
LINE
  5
2855
330
2
100
AcDbEntity
  8
0
100
AcDbLine
 10
803.7777070744594
 20
359.7245797406698
 30
0.0
 11
757.7778070744597
 21
359.7245797406698
 31
0.0
  0
LINE
  5
2856
330
2
100
AcDbEntity
  8
0
100
AcDbLine
 10
803.7777070744594
 20
409.7245797406698
 30
0.0
 11
757.7778070744597
 21
409.7245797406698
 31
0.0
  0
LINE
  5
2857
330
2
100
AcDbEntity
  8
0
100
AcDbLine
 10
758.1776020744595
 20
408.3245857406697
 30
0.0
 11
798.2777070744595
 21
408.3245857406697
 31
0.0
  0
LINE
  5
2858
330
2
100
AcDbEntity
  8
0
100
AcDbLine
 10
757.1776020744595
 20
407.3245857406696
 30
0.0
 11
757.1776020744595
 21
367.2245797406698
 31
0.0
  0
LINE
  5
2859
330
2
100
AcDbEntity
  8
CENTER
100
AcDbLine
 10
780.7777000744595
 20
354.3353537965619
 30
0.0
 11
780.7777000744595
 21
415.4745797406698
 31
0.0
  0
LINE
  5
285A
330
2
100
AcDbEntity
  8
0
100
AcDbLine
 10
755.7778070744595
 20
361.7245797406698
 30
0.0
 11
755.7778070744595
 21
407.7245797406698
 31
0.0
  0
ARC
  5
285B
330
2
100
AcDbEntity
  8
0
100
AcDbCircle
 10
759.2776080744595
 20
363.2245797406698
 30
0.0
 40
4.0
100
AcDbArc
 50
0.0
 51
90.0
  0
LINE
  5
285C
330
2
100
AcDbEntity
  8
0
100
AcDbLine
 10
759.2778070744595
 20
367.2245797406698
 30
0.0
 11
755.7778070744595
 21
367.2245797406698
 31
0.0
  0
ARC
  5
285D
330
2
100
AcDbEntity
  8
0
100
AcDbCircle
 10
757.2479080744592
 20
365.2542797406697
 30
0.0
 40
1.742199999999999
100
AcDbArc
 50
269.9986903345035
 51
0.0013096654997424
  0
ARC
  5
285E
330
2
100
AcDbEntity
  8
0
100
AcDbCircle
 10
757.2479080744592
 20
361.1948797406697
 30
0.0
 40
1.742199999999999
100
AcDbArc
 50
359.9986903345002
 51
90.00130966549649
  0
CIRCLE
  5
285F
330
2
100
AcDbEntity
  8
0
100
AcDbCircle
 10
759.2776080744595
 20
363.2245797406698
 30
0.0
 40
3.500000000000028
  0
LINE
  5
2860
330
2
100
AcDbEntity
  8
0
100
AcDbLine
 10
755.7778070744595
 20
361.7245797406698
 30
0.0
 11
757.7778070744597
 21
359.7245797406698
 31
0.0
  0
LINE
  5
2861
330
2
100
AcDbEntity
  8
0
100
AcDbLine
 10
757.7778070744597
 20
359.7245797406698
 30
0.0
 11
755.7778070744595
 21
361.7245797406698
 31
0.0
  0
ARC
  5
2862
330
2
100
AcDbEntity
  8
0
100
AcDbCircle
 10
759.2776080744595
 20
363.2245797406698
 30
0.0
 40
2.049999999999998
100
AcDbArc
 50
180.0
 51
188.0619600839818
  0
ARC
  5
2863
330
2
100
AcDbEntity
  8
0
100
AcDbCircle
 10
759.2776080744595
 20
363.2245797406698
 30
0.0
 40
2.049999999999998
100
AcDbArc
 50
171.9380399160181
 51
180.0
  0
ARC
  5
2864
330
2
100
AcDbEntity
  8
0
100
AcDbCircle
 10
759.2776080744595
 20
363.2245797406698
 30
0.0
 40
2.049999999999998
100
AcDbArc
 50
81.93803991601837
 51
90.0
  0
ARC
  5
2865
330
2
100
AcDbEntity
  8
0
100
AcDbCircle
 10
759.2776080744595
 20
363.2245797406698
 30
0.0
 40
2.049999999999998
100
AcDbArc
 50
90.0
 51
98.06196008398165
  0
ARC
  5
2866
330
2
100
AcDbEntity
  8
0
100
AcDbCircle
 10
759.2776080744595
 20
363.2245797406698
 30
0.0
 40
2.049999999999998
100
AcDbArc
 50
351.9380399160181
 51
0.0
  0
ARC
  5
2867
330
2
100
AcDbEntity
  8
0
100
AcDbCircle
 10
759.2776080744595
 20
363.2245797406698
 30
0.0
 40
2.049999999999998
100
AcDbArc
 50
270.0
 51
278.0619600839816
  0
ARC
  5
2868
330
2
100
AcDbEntity
  8
0
100
AcDbCircle
 10
759.2776080744595
 20
363.2245797406698
 30
0.0
 40
2.049999999999998
100
AcDbArc
 50
261.9380399160184
 51
270.0
  0
ARC
  5
2869
330
2
100
AcDbEntity
  8
0
100
AcDbCircle
 10
759.2776080744595
 20
363.2245797406698
 30
0.0
 40
2.049999999999998
100
AcDbArc
 50
0.0
 51
8.061960083981876
  0
ARC
  5
286A
330
2
100
AcDbEntity
  8
0
100
AcDbCircle
 10
761.3073080744593
 20
365.2542797406697
 30
0.0
 40
1.742199999999999
100
AcDbArc
 50
179.9986903345001
 51
270.0013096654964
  0
ARC
  5
286B
330
2
100
AcDbEntity
  8
0
100
AcDbCircle
 10
761.3073080744593
 20
361.1948797406697
 30
0.0
 40
1.742199999999999
100
AcDbArc
 50
89.99869033450025
 51
180.0013096654996
  0
LINE
  5
286C
330
2
100
AcDbEntity
  8
0
100
AcDbLine
 10
763.2778070744596
 20
363.2245797406698
 30
0.0
 11
763.2778070744596
 21
359.7245797406698
 31
0.0
  0
LINE
  5
286D
330
2
100
AcDbEntity
  8
0
100
AcDbLine
 10
758.1776020744595
 20
408.3245857406697
 30
0.0
 11
757.1776020744595
 21
407.3245857406696
 31
0.0
  0
LINE
  5
286E
330
2
100
AcDbEntity
  8
0
100
AcDbLine
 10
755.7778070744595
 20
407.7245797406698
 30
0.0
 11
757.7778070744597
 21
409.7245797406698
 31
0.0
  0
LINE
  5
286F
330
2
100
AcDbEntity
  8
0
100
AcDbLine
 10
755.7778070744595
 20
407.7245797406698
 30
0.0
 11
757.7778070744597
 21
409.7245797406698
 31
0.0
  0
LINE
  5
2870
330
2
100
AcDbEntity
  8
0
100
AcDbLine
 10
755.7776080744595
 20
407.7245797406698
 30
0.0
 11
757.7778070744597
 21
409.7245797406698
 31
0.0
  0
LINE
  5
2871
330
2
100
AcDbEntity
  8
0
100
AcDbLine
 10
804.3777130744595
 20
362.1245887406697
 30
0.0
 11
804.3777060744595
 21
402.2245797406696
 31
0.0
  0
LINE
  5
2872
330
2
100
AcDbEntity
  8
0
100
AcDbLine
 10
805.7777070744595
 20
361.7245797406698
 30
0.0
 11
805.7777070744595
 21
407.7245797406698
 31
0.0
  0
LINE
  5
2873
330
2
100
AcDbEntity
  8
0
100
AcDbLine
 10
805.7777070744595
 20
361.7245797406698
 30
0.0
 11
803.7777070744594
 21
359.7245797406698
 31
0.0
  0
LINE
  5
2874
330
2
100
AcDbEntity
  8
0
100
AcDbLine
 10
804.3777130744595
 20
362.1245887406697
 30
0.0
 11
803.3777060744595
 21
361.1245887406697
 31
0.0
  0
LINE
  5
2875
330
2
100
AcDbEntity
  8
0
100
AcDbLine
 10
811.2777070744595
 20
382.7245797406698
 30
0.0
 11
807.7777070744595
 21
379.2245797406698
 31
0.0
  0
LINE
  5
2876
330
2
100
AcDbEntity
  8
0
100
AcDbLine
 10
807.7777070744595
 20
390.2245797406698
 30
0.0
 11
811.2777070744595
 21
386.7245797406697
 31
0.0
  0
LINE
  5
2877
330
2
100
AcDbEntity
  8
0
100
AcDbLine
 10
807.7777070744595
 20
391.2245797406697
 30
0.0
 11
807.7777070744595
 21
378.2245797406698
 31
0.0
  0
LINE
  5
2878
330
2
100
AcDbEntity
  8
0
100
AcDbLine
 10
806.7777070744595
 20
377.2245797406698
 30
0.0
 11
805.7777070744595
 21
377.2245797406698
 31
0.0
  0
ARC
  5
2879
330
2
100
AcDbEntity
  8
0
100
AcDbCircle
 10
806.7776920744595
 20
378.2245797406698
 30
0.0
 40
1.0
100
AcDbArc
 50
270.0
 51
0.0
  0
LINE
  5
287A
330
2
100
AcDbEntity
  8
0
100
AcDbLine
 10
806.7777070744595
 20
392.2245797406698
 30
0.0
 11
805.7777070744595
 21
392.2245797406698
 31
0.0
  0
ARC
  5
287B
330
2
100
AcDbEntity
  8
0
100
AcDbCircle
 10
806.7777070744595
 20
391.2245797406697
 30
0.0
 40
1.0
100
AcDbArc
 50
0.0
 51
90.0
  0
LINE
  5
287C
330
2
100
AcDbEntity
  8
0
100
AcDbLine
 10
811.2777070744595
 20
382.7245797406698
 30
0.0
 11
811.2777070744595
 21
386.7245797406697
 31
0.0
  0
ARC
  5
287D
330
2
100
AcDbEntity
  8
0
100
AcDbCircle
 10
800.2479770744594
 20
408.2542797406697
 30
0.0
 40
1.742199999999999
100
AcDbArc
 50
269.9986903345035
 51
0.0013096654997424
  0
ARC
  5
287E
330
2
100
AcDbEntity
  8
0
100
AcDbCircle
 10
800.2479770744594
 20
404.1948797406696
 30
0.0
 40
1.742199999999999
100
AcDbArc
 50
359.9986903345002
 51
90.00130966549649
  0
ARC
  5
287F
330
2
100
AcDbEntity
  8
0
100
AcDbCircle
 10
802.2776770744595
 20
406.2245797406697
 30
0.0
 40
4.0
100
AcDbArc
 50
180.0
 51
270.0
  0
CIRCLE
  5
2880
330
2
100
AcDbEntity
  8
0
100
AcDbCircle
 10
802.2776770744595
 20
406.2245797406697
 30
0.0
 40
3.500000000000028
  0
LINE
  5
2881
330
2
100
AcDbEntity
  8
0
100
AcDbLine
 10
798.2777070744595
 20
406.2245797406697
 30
0.0
 11
798.2777070744595
 21
409.7243807406696
 31
0.0
  0
ARC
  5
2882
330
2
100
AcDbEntity
  8
0
100
AcDbCircle
 10
802.2776770744595
 20
406.2245797406697
 30
0.0
 40
2.049999999999998
100
AcDbArc
 50
180.0
 51
188.0619600839818
  0
ARC
  5
2883
330
2
100
AcDbEntity
  8
0
100
AcDbCircle
 10
802.2776770744595
 20
406.2245797406697
 30
0.0
 40
2.049999999999998
100
AcDbArc
 50
171.9380399160181
 51
180.0
  0
ARC
  5
2884
330
2
100
AcDbEntity
  8
0
100
AcDbCircle
 10
804.3073770744594
 20
408.2542797406697
 30
0.0
 40
1.742199999999999
100
AcDbArc
 50
179.9986903345001
 51
270.0013096654964
  0
LINE
  5
2885
330
2
100
AcDbEntity
  8
0
100
AcDbLine
 10
802.2776770744595
 20
402.2245797406696
 30
0.0
 11
805.7776770744592
 21
402.2245797406696
 31
0.0
  0
ARC
  5
2886
330
2
100
AcDbEntity
  8
0
100
AcDbCircle
 10
802.2776770744595
 20
406.2245797406697
 30
0.0
 40
2.049999999999998
100
AcDbArc
 50
351.9380399160181
 51
0.0
  0
ARC
  5
2887
330
2
100
AcDbEntity
  8
0
100
AcDbCircle
 10
802.2776770744595
 20
406.2245797406697
 30
0.0
 40
2.049999999999998
100
AcDbArc
 50
270.0
 51
278.0619600839816
  0
ARC
  5
2888
330
2
100
AcDbEntity
  8
0
100
AcDbCircle
 10
802.2776770744595
 20
406.2245797406697
 30
0.0
 40
2.049999999999998
100
AcDbArc
 50
261.9380399160184
 51
270.0
  0
ARC
  5
2889
330
2
100
AcDbEntity
  8
0
100
AcDbCircle
 10
802.2776770744595
 20
406.2245797406697
 30
0.0
 40
2.049999999999998
100
AcDbArc
 50
0.0
 51
8.061960083981876
  0
ARC
  5
288A
330
2
100
AcDbEntity
  8
0
100
AcDbCircle
 10
804.3073770744594
 20
404.1948797406696
 30
0.0
 40
1.742199999999999
100
AcDbArc
 50
89.99869033450025
 51
180.0013096654996
  0
LINE
  5
288B
330
2
100
AcDbEntity
  8
0
100
AcDbLine
 10
805.7777070744595
 20
407.7245797406698
 30
0.0
 11
803.7777070744594
 21
409.7245797406698
 31
0.0
  0
LINE
  5
288C
330
2
100
AcDbEntity
  8
0
100
AcDbLine
 10
805.7777070744595
 20
407.7245797406698
 30
0.0
 11
803.7777070744594
 21
409.7245797406698
 31
0.0
  0
ARC
  5
288D
330
2
100
AcDbEntity
  8
0
100
AcDbCircle
 10
802.2776770744595
 20
406.2245797406697
 30
0.0
 40
2.049999999999998
100
AcDbArc
 50
81.93803991601837
 51
90.0
  0
ARC
  5
288E
330
2
100
AcDbEntity
  8
0
100
AcDbCircle
 10
802.2776770744595
 20
406.2245797406697
 30
0.0
 40
2.049999999999998
100
AcDbArc
 50
90.0
 51
98.06196008398165
  0
LINE
  5
2992
330
2
100
AcDbEntity
  8
0
100
AcDbLine
 10
755.7778070744596
 20
407.7245797406698
 30
0.0
 11
720.7191130744596
 21
407.7245797406698
 31
0.0
  0
LINE
  5
2993
330
2
100
AcDbEntity
  8
0
100
AcDbLine
 10
755.7778070744596
 20
361.7245797406698
 30
0.0
 11
720.7191130744596
 21
361.7245797406698
 31
0.0
  0
LINE
  5
2994
330
2
100
AcDbEntity
  8
0
100
AcDbLine
 10
806.2777070744598
 20
377.2245797406698
 30
0.0
 11
806.2777070744598
 21
344.7245797406698
 31
0.0
  0
ENDSEC
  0
SECTION
  2
OBJECTS
  0
DICTIONARY
  5
7
330
0
100
AcDbDictionary
  3
ACAD_GROUP
350
75
  3
ACAD_LAYOUT
350
61
  3
ACAD_MLINESTYLE
350
76
  3
ACAD_PLOTSETTINGS
350
77
  3
ACAD_PLOTSTYLENAME
350
6
  3
ACADDIM
350
480
  3
ACDBHEADERROUNDTRIPXREC
350
2A66
  3
ACDBVARIABLEDICTIONARY
350
102
  3
DWGPROPS
350
3D2
  0
DICTIONARY
  5
2A41
330
2
100
AcDbDictionary
280
     1
  3
ACAD_LAYOUTSELFREF
360
2A87
  0
DICTIONARY
  5
2A88
330
2A60
100
AcDbDictionary
280
     1
  3
ACAD_LAYOUTSELFREF
360
2A89
  0
DICTIONARY
  5
75
102
{ACAD_REACTORS
330
7
102
}
330
7
100
AcDbDictionary
  0
DICTIONARY
  5
61
102
{ACAD_REACTORS
330
7
102
}
330
7
100
AcDbDictionary
  0
DICTIONARY
  5
76
102
{ACAD_REACTORS
330
7
102
}
330
7
100
AcDbDictionary
  3
STANDARD
350
78
  0
DICTIONARY
  5
77
102
{ACAD_REACTORS
330
7
102
}
330
7
100
AcDbDictionary
  0
ACDBDICTIONARYWDFLT
  5
6
102
{ACAD_REACTORS
330
7
102
}
330
7
100
AcDbDictionary
281
     1
  3
Normal
350
5
100
AcDbDictionaryWithDefault
340
5
  0
XRECORD
  5
480
102
{ACAD_REACTORS
330
7
102
}
330
7
100
AcDbXrecord
 90
   990106
  3

 60
     0
 61
     0
 62
     1
 63
     3
 64
     1
 65
     0
 66
     0
 67
     3
 68
     1
 69
     0
 70
     0
 71
     0
 72
     0
 40
0.0
170
     2
340
0
  0
DICTIONARY
  5
2A66
102
{ACAD_REACTORS
330
7
102
}
330
7
100
AcDbDictionary
  3
CEPSNTYPE
350
2A70
  3
DIMSTYLEDATA
350
2A74
  3
FINGERPRINTGUID
350
2A71
  3
HYPERLINKBASE
350
2A69
  3
INSUNITS
350
2A6F
  3
LAYOUTDICT
350
2A6B
  3
LWETCUNION
350
2A6E
  3
PLOTSETDICT
350
2A6C
  3
PLOTSTYLNAMDICT
350
2A6D
  3
PSVPSCALE
350
2A73
  3
PUCSBASE
350
2A77
  3
PUCSORGBACK
350
2A7D
  3
PUCSORGBOTTOM
350
2A79
  3
PUCSORGFRONT
350
2A7C
  3
PUCSORGLEFT
350
2A7A
  3
PUCSORGRIGHT
350
2A7B
  3
PUCSORGTOP
350
2A78
  3
PUCSORTHOREF
350
2A75
  3
PUCSORTHOVIEW
350
2A76
  3
STYLESHEET
350
2A6A
  3
TSTACKALIGN
350
2A67
  3
TSTACKSIZE
350
2A68
  3
UCSBASE
350
2A80
  3
UCSORGBACK
350
2A86
  3
UCSORGBOTTOM
350
2A82
  3
UCSORGFRONT
350
2A85
  3
UCSORGLEFT
350
2A83
  3
UCSORGRIGHT
350
2A84
  3
UCSORGTOP
350
2A81
  3
UCSORTHOREF
350
2A7E
  3
UCSORTHOVIEW
350
2A7F
  3
VERSIONGUID
350
2A72
  0
DICTIONARY
  5
102
102
{ACAD_REACTORS
330
7
102
}
330
7
100
AcDbDictionary
  3
DIMASSOC
350
103
  0
XRECORD
  5
3D2
102
{ACAD_REACTORS
330
7
102
}
330
7
100
AcDbXrecord
  1
DWGPROPS COOKIE
  2

  3

  4

  6

  7

  8

  9

300
=
301
=
302
=
303
=
304
=
305
=
306
=
307
=
308
=
309
=
 40
0.5353330671296296
 41
2452052.431989363
 42
2453406.550756376
  1

 90
        0
  0
XRECORD
  5
2A87
102
{ACAD_REACTORS
330
2A41
102
}
330
2A41
100
AcDbXrecord
340
2
  0
XRECORD
  5
2A89
102
{ACAD_REACTORS
330
2A88
102
}
330
2A88
100
AcDbXrecord
340
2A60
  0
MLINESTYLE
  5
78
102
{ACAD_REACTORS
330
76
102
}
330
76
100
AcDbMlineStyle
  2
STANDARD
 70
     0
  3

 62
     0
 51
90.0
 52
90.0
 71
     2
 49
0.5
 62
   256
  6
BYLAYER
 49
-0.5
 62
   256
  6
BYLAYER
  0
ACDBPLACEHOLDER
  5
5
102
{ACAD_REACTORS
330
6
102
}
330
6
100
AcDbPlaceHolder
280
     0
  0
XRECORD
  5
2A70
102
{ACAD_REACTORS
330
2A66
102
}
330
2A66
100
AcDbXrecord
 90
        0
  0
XRECORD
  5
2A74
102
{ACAD_REACTORS
330
2A66
102
}
330
2A66
100
AcDbXrecord
1000
DSTYLE
1002
{
1070
   179
 70
     2
1002
}
  0
XRECORD
  5
2A71
102
{ACAD_REACTORS
330
2A66
102
}
330
2A66
100
AcDbXrecord
  1
{6385560B-F4B1-4644-A7C2-A3E32AC3D232}
  0
XRECORD
  5
2A69
102
{ACAD_REACTORS
330
2A66
102
}
330
2A66
100
AcDbXrecord
  1

  0
XRECORD
  5
2A6F
102
{ACAD_REACTORS
330
2A66
102
}
330
2A66
100
AcDbXrecord
 90
        0
  0
XRECORD
  5
2A6B
102
{ACAD_REACTORS
330
2A66
102
}
330
2A66
100
AcDbXrecord
340
61
  0
XRECORD
  5
2A6E
102
{ACAD_REACTORS
330
2A66
102
}
330
2A66
100
AcDbXrecord
 90
    10781
  0
XRECORD
  5
2A6C
102
{ACAD_REACTORS
330
2A66
102
}
330
2A66
100
AcDbXrecord
340
77
  0
XRECORD
  5
2A6D
102
{ACAD_REACTORS
330
2A66
102
}
330
2A66
100
AcDbXrecord
340
6
  0
XRECORD
  5
2A73
102
{ACAD_REACTORS
330
2A66
102
}
330
2A66
100
AcDbXrecord
 40
0.0
  0
XRECORD
  5
2A77
102
{ACAD_REACTORS
330
2A66
102
}
330
2A66
100
AcDbXrecord
340
0
  0
XRECORD
  5
2A7D
102
{ACAD_REACTORS
330
2A66
102
}
330
2A66
100
AcDbXrecord
 10
0.0
 20
0.0
 30
0.0
  0
XRECORD
  5
2A79
102
{ACAD_REACTORS
330
2A66
102
}
330
2A66
100
AcDbXrecord
 10
0.0
 20
0.0
 30
0.0
  0
XRECORD
  5
2A7C
102
{ACAD_REACTORS
330
2A66
102
}
330
2A66
100
AcDbXrecord
 10
0.0
 20
0.0
 30
0.0
  0
XRECORD
  5
2A7A
102
{ACAD_REACTORS
330
2A66
102
}
330
2A66
100
AcDbXrecord
 10
0.0
 20
0.0
 30
0.0
  0
XRECORD
  5
2A7B
102
{ACAD_REACTORS
330
2A66
102
}
330
2A66
100
AcDbXrecord
 10
0.0
 20
0.0
 30
0.0
  0
XRECORD
  5
2A78
102
{ACAD_REACTORS
330
2A66
102
}
330
2A66
100
AcDbXrecord
 10
0.0
 20
0.0
 30
0.0
  0
XRECORD
  5
2A75
102
{ACAD_REACTORS
330
2A66
102
}
330
2A66
100
AcDbXrecord
340
0
  0
XRECORD
  5
2A76
102
{ACAD_REACTORS
330
2A66
102
}
330
2A66
100
AcDbXrecord
 70
     0
  0
XRECORD
  5
2A6A
102
{ACAD_REACTORS
330
2A66
102
}
330
2A66
100
AcDbXrecord
  1
Sekkei.ctb
  0
XRECORD
  5
2A67
102
{ACAD_REACTORS
330
2A66
102
}
330
2A66
100
AcDbXrecord
 90
        1
  0
XRECORD
  5
2A68
102
{ACAD_REACTORS
330
2A66
102
}
330
2A66
100
AcDbXrecord
 90
       70
  0
XRECORD
  5
2A80
102
{ACAD_REACTORS
330
2A66
102
}
330
2A66
100
AcDbXrecord
340
0
  0
XRECORD
  5
2A86
102
{ACAD_REACTORS
330
2A66
102
}
330
2A66
100
AcDbXrecord
 10
0.0
 20
0.0
 30
0.0
  0
XRECORD
  5
2A82
102
{ACAD_REACTORS
330
2A66
102
}
330
2A66
100
AcDbXrecord
 10
0.0
 20
0.0
 30
0.0
  0
XRECORD
  5
2A85
102
{ACAD_REACTORS
330
2A66
102
}
330
2A66
100
AcDbXrecord
 10
0.0
 20
0.0
 30
0.0
  0
XRECORD
  5
2A83
102
{ACAD_REACTORS
330
2A66
102
}
330
2A66
100
AcDbXrecord
 10
0.0
 20
0.0
 30
0.0
  0
XRECORD
  5
2A84
102
{ACAD_REACTORS
330
2A66
102
}
330
2A66
100
AcDbXrecord
 10
0.0
 20
0.0
 30
0.0
  0
XRECORD
  5
2A81
102
{ACAD_REACTORS
330
2A66
102
}
330
2A66
100
AcDbXrecord
 10
0.0
 20
0.0
 30
0.0
  0
XRECORD
  5
2A7E
102
{ACAD_REACTORS
330
2A66
102
}
330
2A66
100
AcDbXrecord
340
0
  0
XRECORD
  5
2A7F
102
{ACAD_REACTORS
330
2A66
102
}
330
2A66
100
AcDbXrecord
 70
     0
  0
XRECORD
  5
2A72
102
{ACAD_REACTORS
330
2A66
102
}
330
2A66
100
AcDbXrecord
  1
{746A6402-965F-43DB-87F2-3446E1E9FD37}
  0
DICTIONARYVAR
  5
103
102
{ACAD_REACTORS
330
102
102
}
330
102
100
DictionaryVariables
280
     0
  1
1
  0
ENDSEC
  0
EOF
