  0
SECTION
  2
HEADER
  9
$CLAYER
  8
1
  9
$LTSCALE
 40
3.0
  0
ENDSEC
  0
SECTION
  2
TABLES
  0
TABLE
  2
LTYPE
 70
     4
  0
LTYPE
  2
CONTINUOUS
  3
solid line
 70
    64
 72
    65
 73
     0
 40
0.0
  0
LTYPE
  2
DASHED
  3
__ __ __ __ __ __ __ __ __ __ __ __ __ __ __
 70
    64
 72
    65
 73
     2
 40
0.75
 49
0.5
 49
-0.25
  0
LTYPE
  2
CENTER
  3
____ _ ____ _ ____ _ ____ _ ____ _ ____ _ ____
 70
    64
 72
    65
 73
     4
 40
2.0
 49
1.25
 49
-0.25
 49
0.25
 49
-0.25
  0
LTYPE
  2
PHANTOM
  3
_____ _ _ _____ _ _ _____ _ _ _____ _ _ ____
 70
    64
 72
    65
 73
     6
 40
2.5
 49
1.25
 49
-0.25
 49
0.25
 49
-0.25
 49
0.25
 49
-0.25
  0
ENDTAB
  0
TABLE
  2
LAYER
 70
     1
  0
LAYER
  2
0
 70
    64
 62
     7
  6
CONTINUOUS
  0
ENDTAB
  0
TABLE
  2
STYLE
 70
     1
  0
STYLE
  2
STANDARD
 70
     0
 40
0.000000
 41
1.000000
 50
0.000000
 71
     0
 42
3.000000
  3
txt
  4
BIGFONT
  0
ENDTAB
  0
ENDSEC
  0
SECTION
  2
BLOCKS
  0
ENDSEC
  0
SECTION
  2
ENTITIES
  0
LINE
  8
0
  6
CENTER
 10
400.000000
 20
196.076248
 11
400.000000
 21
102.451874
  0
LINE
  8
0
  6
CENTER
 10
344.109558
 20
150.000000
 11
456.738617
 21
150.000000
  0
LINE
  8
0
  6
CONTINUOUS
 10
372.000000
 20
190.011261
 11
372.000000
 21
169.088226
  0
LINE
  8
0
  6
CONTINUOUS
 10
440.500000
 20
189.793076
 11
440.500000
 21
110.206932
  0
LINE
  8
0
  6
CONTINUOUS
 10
400.000000
 20
190.500000
 11
440.500000
 21
189.793076
  0
LINE
  8
0
  6
CONTINUOUS
 10
400.000000
 20
190.500000
 11
359.500000
 21
189.793076
  0
LINE
  8
0
  6
CONTINUOUS
 10
400.000000
 20
109.500000
 11
359.500000
 21
110.206932
  0
LINE
  8
0
  6
CONTINUOUS
 10
400.000000
 20
109.500000
 11
440.500000
 21
110.206932
  0
LINE
  8
0
  6
DASHED
 10
377.000000
 20
114.366859
 11
377.000000
 21
118.298264
  0
LINE
  8
0
  6
DASHED
 10
423.000000
 20
114.366859
 11
423.000000
 21
118.298264
  0
LINE
  8
0
  6
DASHED
 10
421.034912
 20
187.632828
 11
400.000000
 21
188.000000
  0
LINE
  8
0
  6
DASHED
 10
378.965088
 20
187.632828
 11
400.000000
 21
188.000000
  0
LINE
  8
0
  6
DASHED
 10
421.034912
 20
112.367165
 11
400.000000
 21
112.000000
  0
LINE
  8
0
  6
DASHED
 10
378.965088
 20
112.367165
 11
400.000000
 21
112.000000
  0
ARC
  8
0
  6
DASHED
 10
400.000000
 20
150.000000
 40
38.000000
 50
-50.643299
 51
50.643299
  0
ARC
  8
0
  6
DASHED
 10
426.000000
 20
181.701736
 40
3.000000
 50
180.000000
 51
230.643295
  0
ARC
  8
0
  6
DASHED
 10
374.000000
 20
181.701736
 40
3.000000
 50
-50.643299
 51
0.000000
  0
ARC
  8
0
  6
DASHED
 10
374.000000
 20
118.298264
 40
3.000000
 50
0.000000
 51
50.643299
  0
ARC
  8
0
  6
DASHED
 10
426.000000
 20
118.298264
 40
3.000000
 50
129.356705
 51
180.000000
  0
ARC
  8
0
  6
DASHED
 10
379.000000
 20
185.633133
 40
2.000000
 50
91.000000
 51
180.000000
  0
ARC
  8
0
  6
DASHED
 10
421.000000
 20
185.633133
 40
2.000000
 50
0.000000
 51
89.000000
  0
ARC
  8
0
  6
DASHED
 10
379.000000
 20
114.366859
 40
2.000000
 50
180.000000
 51
269.000000
  0
ARC
  8
0
  6
DASHED
 10
421.000000
 20
114.366859
 40
2.000000
 50
-89.000000
 51
0.000000
  0
LINE
  8
0
  6
DASHED
 10
377.000000
 20
185.633133
 11
377.000000
 21
181.701736
  0
LINE
  8
0
  6
DASHED
 10
423.000000
 20
185.633133
 11
423.000000
 21
181.701736
  0
ARC
  8
0
  6
DASHED
 10
400.000000
 20
150.000000
 40
38.000000
 50
129.356705
 51
230.643295
  0
LINE
  8
0
  6
CONTINUOUS
 10
406.965088
 20
135.085358
 11
422.269745
 21
134.818207
  0
LINE
  8
0
  6
CONTINUOUS
 10
409.298004
 20
139.044632
 11
421.571991
 21
138.830383
  0
LINE
  8
0
  6
CONTINUOUS
 10
393.034912
 20
134.867172
 11
377.122162
 21
134.589401
  0
LINE
  8
0
  6
CONTINUOUS
 10
390.701996
 20
138.826447
 11
379.174255
 21
138.625229
  0
LINE
  8
0
  6
CONTINUOUS
 10
395.000000
 20
136.866867
 11
395.000000
 21
140.089951
  0
LINE
  8
0
  6
CONTINUOUS
 10
405.000000
 20
162.914948
 11
405.000000
 21
160.728607
  0
LINE
  8
0
  6
CONTINUOUS
 10
406.965088
 20
164.914642
 11
422.269745
 21
165.181793
  0
LINE
  8
0
  6
CONTINUOUS
 10
409.298004
 20
160.955368
 11
421.571991
 21
161.169617
  0
LINE
  8
0
  6
CONTINUOUS
 10
393.034912
 20
165.132843
 11
377.122162
 21
165.410599
  0
LINE
  8
0
  6
CONTINUOUS
 10
390.701996
 20
161.173553
 11
379.174255
 21
161.374771
  0
LINE
  8
0
  6
CONTINUOUS
 10
394.571136
 20
135.629303
 11
392.238220
 21
139.588593
  0
LINE
  8
0
  6
CONTINUOUS
 10
392.238220
 20
160.411407
 11
394.571136
 21
164.370697
  0
LINE
  8
0
  6
CONTINUOUS
 10
407.761780
 20
160.193222
 11
405.428864
 21
164.152496
  0
LINE
  8
0
  6
CONTINUOUS
 10
407.761780
 20
139.806778
 11
405.428864
 21
135.847504
  0
ARC
  8
0
  6
CONTINUOUS
 10
407.000000
 20
137.085052
 40
2.000000
 50
180.000000
 51
269.000000
  0
ARC
  8
0
  6
CONTINUOUS
 10
409.332916
 20
141.044327
 40
2.000000
 50
215.590439
 51
269.000000
  0
ARC
  8
0
  6
CONTINUOUS
 10
409.332916
 20
158.955673
 40
2.000000
 50
91.000000
 51
144.409561
  0
ARC
  8
0
  6
CONTINUOUS
 10
407.000000
 20
162.914948
 40
2.000000
 50
91.000000
 51
180.000000
  0
ARC
  8
0
  6
CONTINUOUS
 10
393.000000
 20
163.133133
 40
2.000000
 50
0.000000
 51
89.000000
  0
ARC
  8
0
  6
CONTINUOUS
 10
390.667084
 20
159.173859
 40
2.000000
 50
29.985052
 51
89.000000
  0
ARC
  8
0
  6
CONTINUOUS
 10
390.667084
 20
140.826141
 40
2.000000
 50
271.000000
 51
330.014954
  0
ARC
  8
0
  6
CONTINUOUS
 10
393.000000
 20
136.866867
 40
2.000000
 50
-89.000000
 51
0.000000
  0
LINE
  8
0
  6
CONTINUOUS
 10
359.500000
 20
189.793076
 11
359.500000
 21
110.206932
  0
LINE
  8
0
  6
CONTINUOUS
 10
425.000000
 20
132.965668
 11
425.000000
 21
140.000000
  0
LINE
  8
0
  6
CONTINUOUS
 10
432.000000
 20
166.000000
 11
425.000000
 21
166.000000
  0
LINE
  8
0
  6
CONTINUOUS
 10
432.000000
 20
134.000000
 11
425.000000
 21
134.000000
  0
LINE
  8
0
  6
CONTINUOUS
 10
432.499908
 20
123.145096
 11
432.499908
 21
123.597710
  0
LINE
  8
0
  6
CONTINUOUS
 10
432.499908
 20
176.854904
 11
432.499908
 21
176.402283
  0
LINE
  8
0
  6
CONTINUOUS
 10
435.399994
 20
129.149994
 11
433.000000
 21
129.149994
  0
LINE
  8
0
  6
CONTINUOUS
 10
432.000000
 20
134.000000
 11
433.000000
 21
133.422653
  0
LINE
  8
0
  6
CONTINUOUS
 10
438.000000
 20
169.500000
 11
435.399994
 21
169.500000
  0
LINE
  8
0
  6
CONTINUOUS
 10
435.399994
 20
170.850006
 11
435.399994
 21
129.149994
  0
LINE
  8
0
  6
CONTINUOUS
 10
435.399994
 20
170.850006
 11
433.000000
 21
170.850006
  0
LINE
  8
0
  6
CONTINUOUS
 10
433.000000
 20
170.850006
 11
433.000000
 21
160.000000
  0
LINE
  8
0
  6
CONTINUOUS
 10
432.000000
 20
166.000000
 11
433.000000
 21
166.577347
  0
LINE
  8
0
  6
CONTINUOUS
 10
433.815857
 20
174.522903
 11
436.684052
 21
173.478973
  0
ARC
  8
0
  6
CONTINUOUS
 10
436.000000
 20
171.599579
 40
2.000000
 50
0.000000
 51
70.000000
  0
ARC
  8
0
  6
CONTINUOUS
 10
436.000000
 20
128.400421
 40
2.000000
 50
-70.000000
 51
0.000000
  0
LINE
  8
0
  6
CONTINUOUS
 10
438.000000
 20
130.500000
 11
435.399994
 21
130.500000
  0
LINE
  8
0
  6
CONTINUOUS
 10
433.815857
 20
125.477097
 11
436.684052
 21
126.521027
  0
ARC
  8
0
  6
CONTINUOUS
 10
434.499908
 20
176.402283
 40
2.000000
 50
180.000000
 51
250.000000
  0
ARC
  8
0
  6
CONTINUOUS
 10
434.499908
 20
123.597710
 40
2.000000
 50
110.000008
 51
180.000000
  0
LINE
  8
0
  6
CONTINUOUS
 10
375.000000
 20
133.233292
 11
375.000000
 21
140.000000
  0
LINE
  8
0
  6
CONTINUOUS
 10
368.000000
 20
166.000000
 11
375.000000
 21
166.000000
  0
LINE
  8
0
  6
CONTINUOUS
 10
368.000000
 20
134.000000
 11
375.000000
 21
134.000000
  0
LINE
  8
0
  6
CONTINUOUS
 10
364.600006
 20
129.149994
 11
367.000000
 21
129.149994
  0
LINE
  8
0
  6
CONTINUOUS
 10
368.000000
 20
134.000000
 11
367.000000
 21
133.422653
  0
LINE
  8
0
  6
CONTINUOUS
 10
362.000000
 20
169.500000
 11
364.600006
 21
169.500000
  0
LINE
  8
0
  6
CONTINUOUS
 10
364.600006
 20
170.850006
 11
364.600006
 21
129.149994
  0
LINE
  8
0
  6
CONTINUOUS
 10
364.600006
 20
170.850006
 11
367.000000
 21
170.850006
  0
LINE
  8
0
  6
CONTINUOUS
 10
367.000000
 20
170.850006
 11
367.000000
 21
160.000000
  0
LINE
  8
0
  6
CONTINUOUS
 10
368.000000
 20
166.000000
 11
367.000000
 21
166.577347
  0
LINE
  8
0
  6
CONTINUOUS
 10
366.184052
 20
174.522873
 11
363.315948
 21
173.478973
  0
ARC
  8
0
  6
CONTINUOUS
 10
364.000000
 20
171.599579
 40
2.000000
 50
-250.000000
 51
-180.000000
  0
ARC
  8
0
  6
CONTINUOUS
 10
364.000000
 20
128.400421
 40
2.000000
 50
-180.000000
 51
-110.000000
  0
LINE
  8
0
  6
CONTINUOUS
 10
362.000000
 20
130.500000
 11
364.600006
 21
130.500000
  0
LINE
  8
0
  6
CONTINUOUS
 10
367.500000
 20
176.524704
 11
367.500000
 21
176.402252
  0
ARC
  8
0
  6
CONTINUOUS
 10
365.500000
 20
176.402252
 40
2.000000
 50
-69.999992
 51
0.000000
  0
LINE
  8
0
  6
CONTINUOUS
 10
375.000000
 20
160.000000
 11
375.000000
 21
166.766708
  0
LINE
  8
0
  6
CONTINUOUS
 10
362.000000
 20
128.400421
 11
362.000000
 21
171.599579
  0
LINE
  8
0
  6
CONTINUOUS
 10
425.000000
 20
160.000000
 11
425.000000
 21
167.034332
  0
LINE
  8
0
  6
CONTINUOUS
 10
438.000000
 20
128.400421
 11
438.000000
 21
171.599579
  0
LINE
  8
0
  6
CONTINUOUS
 10
426.000000
 20
166.000000
 11
426.000000
 21
160.000000
  0
LINE
  8
0
  6
CONTINUOUS
 10
434.999908
 20
157.800003
 11
365.000092
 21
157.800003
  0
LINE
  8
0
  6
CONTINUOUS
 10
432.999908
 20
155.656860
 11
428.149902
 21
155.656860
  0
LINE
  8
0
  6
CONTINUOUS
 10
425.000000
 20
162.500000
 11
421.803345
 21
162.500000
  0
LINE
  8
0
  6
CONTINUOUS
 10
425.000000
 20
137.500000
 11
421.803345
 21
137.500000
  0
LINE
  8
0
  6
CONTINUOUS
 10
434.999908
 20
160.000000
 11
425.000000
 21
160.000000
  0
LINE
  8
0
  6
CONTINUOUS
 10
432.000000
 20
166.000000
 11
426.000000
 21
160.000000
  0
LINE
  8
0
  6
CONTINUOUS
 10
426.000000
 20
166.000000
 11
432.000000
 21
160.000000
  0
LINE
  8
0
  6
CONTINUOUS
 10
426.000000
 20
134.000000
 11
426.000000
 21
140.000000
  0
LINE
  8
0
  6
CONTINUOUS
 10
432.000000
 20
134.000000
 11
426.000000
 21
140.000000
  0
LINE
  8
0
  6
CONTINUOUS
 10
426.000000
 20
134.000000
 11
432.000000
 21
140.000000
  0
LINE
  8
0
  6
CONTINUOUS
 10
434.999908
 20
140.000000
 11
425.000000
 21
140.000000
  0
LINE
  8
0
  6
CONTINUOUS
 10
434.999908
 20
160.000000
 11
434.999908
 21
140.000000
  0
LINE
  8
0
  6
CONTINUOUS
 10
432.000000
 20
166.000000
 11
432.000000
 21
160.000000
  0
LINE
  8
0
  6
CONTINUOUS
 10
432.000000
 20
134.000000
 11
432.000000
 21
140.000000
  0
LINE
  8
0
  6
CONTINUOUS
 10
374.000000
 20
166.000000
 11
374.000000
 21
160.000000
  0
LINE
  8
0
  6
CONTINUOUS
 10
365.000092
 20
160.000000
 11
375.000000
 21
160.000000
  0
LINE
  8
0
  6
CONTINUOUS
 10
368.000000
 20
166.000000
 11
374.000000
 21
160.000000
  0
LINE
  8
0
  6
CONTINUOUS
 10
374.000000
 20
166.000000
 11
368.000000
 21
160.000000
  0
LINE
  8
0
  6
CONTINUOUS
 10
374.000000
 20
134.000000
 11
374.000000
 21
140.000000
  0
LINE
  8
0
  6
CONTINUOUS
 10
368.000000
 20
134.000000
 11
374.000000
 21
140.000000
  0
LINE
  8
0
  6
CONTINUOUS
 10
374.000000
 20
134.000000
 11
368.000000
 21
140.000000
  0
LINE
  8
0
  6
CONTINUOUS
 10
365.000092
 20
140.000000
 11
375.000000
 21
140.000000
  0
LINE
  8
0
  6
CONTINUOUS
 10
368.000000
 20
166.000000
 11
368.000000
 21
160.000000
  0
LINE
  8
0
  6
CONTINUOUS
 10
368.000000
 20
134.000000
 11
368.000000
 21
140.000000
  0
LINE
  8
0
  6
CONTINUOUS
 10
375.000000
 20
162.500000
 11
378.602112
 21
162.500000
  0
LINE
  8
0
  6
CONTINUOUS
 10
375.000000
 20
137.500000
 11
378.602112
 21
137.500000
  0
LINE
  8
0
  6
CONTINUOUS
 10
432.999908
 20
144.000000
 11
428.149902
 21
144.000000
  0
LINE
  8
0
  6
CONTINUOUS
 10
426.999908
 20
143.750000
 11
426.999908
 21
156.250000
  0
LINE
  8
0
  6
CONTINUOUS
 10
414.999908
 20
143.500000
 11
414.999908
 21
156.500000
  0
LINE
  8
0
  6
CONTINUOUS
 10
414.999908
 20
156.500000
 11
385.000092
 21
156.500000
  0
LINE
  8
0
  6
CONTINUOUS
 10
428.149902
 20
143.750000
 11
428.149902
 21
156.250000
  0
LINE
  8
0
  6
CONTINUOUS
 10
428.149902
 20
156.250000
 11
426.999908
 21
156.250000
  0
LINE
  8
0
  6
CONTINUOUS
 10
428.149902
 20
143.750000
 11
426.999908
 21
143.750000
  0
LINE
  8
0
  6
CONTINUOUS
 10
426.999908
 20
144.000000
 11
414.999908
 21
144.000000
  0
LINE
  8
0
  6
CONTINUOUS
 10
426.999908
 20
155.656860
 11
414.999908
 21
155.656860
  0
LINE
  8
0
  6
CONTINUOUS
 10
432.999908
 20
144.000000
 11
432.999908
 21
156.000000
  0
LINE
  8
0
  6
CONTINUOUS
 10
432.999908
 20
144.000000
 11
434.999908
 21
142.845306
  0
LINE
  8
0
  6
CONTINUOUS
 10
432.999908
 20
156.000000
 11
434.999908
 21
157.154709
  0
LINE
  8
0
  6
CONTINUOUS
 10
367.000092
 20
155.656860
 11
371.850098
 21
155.656860
  0
LINE
  8
0
  6
CONTINUOUS
 10
365.000092
 20
160.000000
 11
365.000092
 21
140.000000
  0
LINE
  8
0
  6
CONTINUOUS
 10
367.000092
 20
144.000000
 11
371.850098
 21
144.000000
  0
LINE
  8
0
  6
CONTINUOUS
 10
373.000092
 20
143.750000
 11
373.000092
 21
156.250000
  0
LINE
  8
0
  6
CONTINUOUS
 10
371.850098
 20
143.750000
 11
371.850098
 21
156.250000
  0
LINE
  8
0
  6
CONTINUOUS
 10
371.850098
 20
156.250000
 11
373.000092
 21
156.250000
  0
LINE
  8
0
  6
CONTINUOUS
 10
371.850098
 20
143.750000
 11
373.000092
 21
143.750000
  0
LINE
  8
0
  6
CONTINUOUS
 10
367.000092
 20
144.000000
 11
367.000092
 21
156.000000
  0
LINE
  8
0
  6
CONTINUOUS
 10
367.000092
 20
144.000000
 11
365.000092
 21
142.845306
  0
LINE
  8
0
  6
CONTINUOUS
 10
367.000092
 20
156.000000
 11
365.000092
 21
157.154709
  0
LINE
  8
0
  6
CONTINUOUS
 10
385.000092
 20
143.500000
 11
414.999908
 21
143.500000
  0
LINE
  8
0
  6
CONTINUOUS
 10
385.000092
 20
143.500000
 11
385.000092
 21
156.500000
  0
LINE
  8
0
  6
CONTINUOUS
 10
373.000092
 20
144.000000
 11
385.000092
 21
144.000000
  0
LINE
  8
0
  6
CONTINUOUS
 10
373.000092
 20
155.656860
 11
385.000092
 21
155.656860
  0
LINE
  8
0
  6
CONTINUOUS
 10
364.999969
 20
177.299988
 11
364.999969
 21
176.469757
  0
LINE
  8
0
  6
CONTINUOUS
 10
360.999969
 20
177.000015
 11
364.999969
 21
177.000031
  0
LINE
  8
0
  6
CONTINUOUS
 10
360.999969
 20
177.000015
 11
360.999969
 21
176.001450
  0
LINE
  8
0
  6
CONTINUOUS
 10
364.999969
 20
177.299988
 11
366.000000
 21
177.299988
  0
LINE
  8
0
  6
CONTINUOUS
 10
366.000000
 20
178.000000
 11
366.000000
 21
176.738998
  0
LINE
  8
0
  6
CONTINUOUS
 10
359.500000
 20
178.170212
 11
366.000000
 21
178.000000
  0
LINE
  8
0
  6
CONTINUOUS
 10
364.999969
 20
122.700012
 11
364.999969
 21
123.530243
  0
LINE
  8
0
  6
CONTINUOUS
 10
360.999969
 20
122.999985
 11
364.999969
 21
122.999969
  0
LINE
  8
0
  6
CONTINUOUS
 10
360.999969
 20
122.999985
 11
360.999969
 21
123.998550
  0
LINE
  8
0
  6
CONTINUOUS
 10
364.999969
 20
122.700012
 11
366.000000
 21
122.700012
  0
LINE
  8
0
  6
CONTINUOUS
 10
366.000000
 20
122.000000
 11
366.000000
 21
123.261009
  0
LINE
  8
0
  6
CONTINUOUS
 10
359.500000
 20
121.829788
 11
366.000000
 21
122.000000
  0
LINE
  8
0
  6
CONTINUOUS
 10
367.000000
 20
129.149994
 11
367.000000
 21
140.000000
  0
LINE
  8
0
  6
CONTINUOUS
 10
433.000000
 20
129.149994
 11
433.000000
 21
140.000000
  0
LINE
  8
0
  6
CONTINUOUS
 10
369.873840
 20
175.589554
 11
370.033386
 21
171.760803
  0
LINE
  8
0
  6
CONTINUOUS
 10
370.033386
 20
171.760803
 11
373.144226
 21
167.533218
  0
LINE
  8
0
  6
CONTINUOUS
 10
373.144226
 20
167.533218
 11
376.813446
 21
166.017685
  0
LINE
  8
0
  6
CONTINUOUS
 10
376.813446
 20
166.017685
 11
379.206421
 21
161.311508
  0
LINE
  8
0
  6
CONTINUOUS
 10
379.206421
 20
161.311508
 11
383.832825
 21
159.716187
  0
LINE
  8
0
  6
CONTINUOUS
 10
383.832825
 20
159.716187
 11
390.612915
 21
160.354324
  0
LINE
  8
0
  6
CONTINUOUS
 10
390.612915
 20
160.354324
 11
396.914398
 21
159.716187
  0
LINE
  8
0
  6
CONTINUOUS
 10
396.914398
 20
159.716187
 11
404.890961
 21
160.753143
  0
LINE
  8
0
  6
CONTINUOUS
 10
404.890961
 20
160.753143
 11
411.272217
 21
159.317368
  0
LINE
  8
0
  6
CONTINUOUS
 10
411.272217
 20
159.317368
 11
417.015350
 21
161.072205
  0
LINE
  8
0
  6
CONTINUOUS
 10
417.015350
 20
161.072205
 11
421.402435
 21
160.194794
  0
LINE
  8
0
  6
CONTINUOUS
 10
421.402435
 20
160.194794
 11
422.359619
 21
165.698608
  0
LINE
  8
0
  6
CONTINUOUS
 10
422.359619
 20
165.698608
 11
429.139709
 21
169.128540
  0
LINE
  8
0
  6
CONTINUOUS
 10
429.139709
 20
169.128540
 11
429.299225
 21
174.074005
  0
LINE
  8
0
  6
CONTINUOUS
 10
429.299225
 20
174.074005
 11
433.134827
 21
177.406555
  0
LINE
  8
0
  6
CONTINUOUS
 10
369.873840
 20
124.410446
 11
370.033386
 21
128.239197
  0
LINE
  8
0
  6
CONTINUOUS
 10
370.033386
 20
128.239197
 11
373.144226
 21
132.466782
  0
LINE
  8
0
  6
CONTINUOUS
 10
373.144226
 20
132.466782
 11
376.813446
 21
133.982315
  0
LINE
  8
0
  6
CONTINUOUS
 10
376.813446
 20
133.982315
 11
379.206421
 21
138.688492
  0
LINE
  8
0
  6
CONTINUOUS
 10
379.206421
 20
138.688492
 11
383.832825
 21
140.283813
  0
LINE
  8
0
  6
CONTINUOUS
 10
383.832825
 20
140.283813
 11
390.612915
 21
139.645676
  0
LINE
  8
0
  6
CONTINUOUS
 10
390.612915
 20
139.645676
 11
396.914398
 21
140.283813
  0
LINE
  8
0
  6
CONTINUOUS
 10
396.914398
 20
140.283813
 11
404.890961
 21
139.246857
  0
LINE
  8
0
  6
CONTINUOUS
 10
404.890961
 20
139.246857
 11
411.272217
 21
140.682632
  0
LINE
  8
0
  6
CONTINUOUS
 10
411.272217
 20
140.682632
 11
417.015350
 21
138.927795
  0
LINE
  8
0
  6
CONTINUOUS
 10
417.015350
 20
138.927795
 11
421.402435
 21
139.805206
  0
LINE
  8
0
  6
CONTINUOUS
 10
421.402435
 20
139.805206
 11
422.359619
 21
134.301392
  0
LINE
  8
0
  6
CONTINUOUS
 10
422.359619
 20
134.301392
 11
429.139709
 21
130.871460
  0
LINE
  8
0
  6
CONTINUOUS
 10
429.139709
 20
130.871460
 11
429.299225
 21
125.925995
  0
LINE
  8
0
  6
CONTINUOUS
 10
429.299225
 20
125.925995
 11
433.134827
 21
122.593445
  0
LINE
  8
0
  6
CONTINUOUS
 10
405.000000
 20
137.085052
 11
405.000000
 21
139.271393
  0
LINE
  8
0
  6
CONTINUOUS
 10
395.000000
 20
159.910049
 11
395.000000
 21
163.133133
  0
LINE
  8
0
  6
CONTINUOUS
 10
372.000000
 20
109.988739
 11
372.000000
 21
130.911789
  0
LINE
  8
0
  6
CONTINUOUS
 10
366.567902
 20
123.108109
 11
362.974121
 21
124.075661
  0
LINE
  8
0
  6
CONTINUOUS
 10
362.974121
 20
124.075661
 11
359.500000
 21
123.939957
  0
LINE
  8
0
  6
CONTINUOUS
 10
366.567902
 20
123.108109
 11
369.873840
 21
124.410446
  0
LINE
  8
0
  6
CONTINUOUS
 10
362.974121
 20
175.924332
 11
359.500000
 21
176.060043
  0
LINE
  8
0
  6
CONTINUOUS
 10
366.567902
 20
176.891891
 11
362.974121
 21
175.924332
  0
LINE
  8
0
  6
CONTINUOUS
 10
366.567902
 20
176.891891
 11
369.873840
 21
175.589554
  0
LINE
  8
0
  6
CONTINUOUS
 10
367.500000
 20
123.475296
 11
367.500000
 21
123.597748
  0
ARC
  8
0
  6
CONTINUOUS
 10
365.500000
 20
123.597748
 40
2.000000
 50
0.000000
 51
69.999992
  0
LINE
  8
0
  6
CONTINUOUS
 10
366.184052
 20
125.477135
 11
363.315948
 21
126.521027
  0
LINE
  8
0
  6
PHANTOM
 10
351.223541
 20
134.126114
 11
364.600006
 21
130.541901
  0
LINE
  8
0
  6
PHANTOM
 10
349.000000
 20
162.976105
 11
349.000000
 21
137.086975
  0
ARC
  8
0
  6
PHANTOM
 10
352.000000
 20
137.023895
 40
3.000000
 50
-180.000000
 51
-105.000000
  0
ARC
  8
0
  6
PHANTOM
 10
352.000000
 20
162.976105
 40
3.000000
 50
-255.000000
 51
-180.000000
  0
LINE
  8
0
  6
PHANTOM
 10
351.223541
 20
165.873886
 11
364.600006
 21
169.458099
  0
LINE
  8
0
  6
PHANTOM
 10
365.800018
 20
130.500000
 11
364.600006
 21
130.541901
  0
LINE
  8
0
  6
PHANTOM
 10
365.800018
 20
130.500000
 11
367.000000
 21
130.541901
  0
LINE
  8
0
  6
PHANTOM
 10
365.800018
 20
169.500000
 11
364.600006
 21
169.458099
  0
LINE
  8
0
  6
PHANTOM
 10
365.800018
 20
169.500000
 11
367.000000
 21
169.458099
  0
ARC
  8
0
  6
PHANTOM
 10
365.800018
 20
130.720001
 40
1.220000
 50
-171.697739
 51
-10.388855
  0
ARC
  8
0
  6
PHANTOM
 10
365.800018
 20
169.279999
 40
1.220000
 50
-349.611145
 51
-188.302261
  0
LINE
  8
0
  6
PHANTOM
 10
451.000000
 20
162.976105
 11
451.000000
 21
137.086975
  0
ARC
  8
0
  6
PHANTOM
 10
448.000000
 20
137.023895
 40
3.000000
 50
-75.000000
 51
0.000000
  0
ARC
  8
0
  6
PHANTOM
 10
448.000000
 20
162.976105
 40
3.000000
 50
0.000000
 51
75.000000
  0
LINE
  8
0
  6
PHANTOM
 10
448.776459
 20
134.126114
 11
435.399994
 21
130.541901
  0
LINE
  8
0
  6
PHANTOM
 10
434.199982
 20
130.500000
 11
433.000000
 21
130.541901
  0
LINE
  8
0
  6
PHANTOM
 10
434.199982
 20
130.500000
 11
435.399994
 21
130.541901
  0
ARC
  8
0
  6
PHANTOM
 10
434.199982
 20
130.720001
 40
1.220000
 50
-169.611145
 51
-8.302263
  0
LINE
  8
0
  6
PHANTOM
 10
434.199982
 20
169.500000
 11
435.399994
 21
169.458099
  0
LINE
  8
0
  6
PHANTOM
 10
434.199982
 20
169.500000
 11
433.000000
 21
169.458099
  0
ARC
  8
0
  6
PHANTOM
 10
434.199982
 20
169.279999
 40
1.220000
 50
-351.697723
 51
-190.388855
  0
LINE
  8
0
  6
PHANTOM
 10
448.776459
 20
165.873886
 11
435.399994
 21
169.458099
  0
LINE
  8
0
  6
CENTER
 10
356.995026
 20
116.500000
 11
444.043762
 21
116.500000
  0
LINE
  8
0
  6
CENTER
 10
356.995026
 20
183.500000
 11
444.043762
 21
183.500000
  0
LINE
  8
0
  6
CONTINUOUS
 10
372.000000
 20
186.899994
 11
440.500000
 21
186.899994
  0
LINE
  8
0
  6
CONTINUOUS
 10
372.000000
 20
180.100006
 11
440.500000
 21
180.100006
  0
LINE
  8
0
  6
CONTINUOUS
 10
372.000000
 20
113.099998
 11
440.500000
 21
113.099998
  0
LINE
  8
0
  6
CONTINUOUS
 10
372.000000
 20
119.900002
 11
440.500000
 21
119.900002
  0
LINE
  8
0
  6
DASHED
 10
564.599976
 20
340.996246
 11
564.599976
 21
272.496246
  0
LINE
  8
0
  6
DASHED
 10
571.400024
 20
340.996246
 11
571.400024
 21
272.496246
  0
LINE
  8
0
  6
DASHED
 10
650.599976
 20
340.996246
 11
650.599976
 21
272.496246
  0
LINE
  8
0
  6
DASHED
 10
657.400024
 20
340.996246
 11
657.400024
 21
272.496246
  0
LINE
  8
0
  6
CONTINUOUS
 10
408.000000
 20
120.500000
 11
408.000000
 21
112.500000
  0
LINE
  8
0
  6
CONTINUOUS
 10
392.000000
 20
120.500000
 11
392.000000
 21
112.500000
  0
LINE
  8
0
  6
CONTINUOUS
 10
372.000000
 20
120.500000
 11
392.000000
 21
120.500000
  0
LINE
  8
0
  6
CONTINUOUS
 10
372.000000
 20
112.500000
 11
392.000000
 21
112.500000
  0
LINE
  8
0
  6
CONTINUOUS
 10
408.000000
 20
120.500000
 11
440.500000
 21
120.500000
  0
LINE
  8
0
  6
CONTINUOUS
 10
408.000000
 20
112.500000
 11
440.500000
 21
112.500000
  0
LINE
  8
0
  6
CONTINUOUS
 10
359.500000
 20
120.750000
 11
372.000000
 21
120.750000
  0
LINE
  8
0
  6
CONTINUOUS
 10
359.500000
 20
112.250000
 11
372.000000
 21
112.250000
  0
LINE
  8
0
  6
CONTINUOUS
 10
359.500000
 20
187.750000
 11
372.000000
 21
187.750000
  0
LINE
  8
0
  6
CONTINUOUS
 10
359.500000
 20
179.250000
 11
372.000000
 21
179.250000
  0
LINE
  8
0
  6
CONTINUOUS
 10
372.000000
 20
187.500000
 11
392.000000
 21
187.500000
  0
LINE
  8
0
  6
CONTINUOUS
 10
372.000000
 20
179.500000
 11
392.000000
 21
179.500000
  0
LINE
  8
0
  6
CONTINUOUS
 10
392.000000
 20
187.500000
 11
392.000000
 21
179.500000
  0
LINE
  8
0
  6
CONTINUOUS
 10
408.000000
 20
187.500000
 11
408.000000
 21
179.500000
  0
LINE
  8
0
  6
CONTINUOUS
 10
408.000000
 20
187.500000
 11
440.500000
 21
187.500000
  0
LINE
  8
0
  6
CONTINUOUS
 10
408.000000
 20
179.500000
 11
440.500000
 21
179.500000
  0
LINE
  8
0
  6
CONTINUOUS
 10
359.500000
 20
178.386047
 11
363.031250
 21
178.625000
  0
LINE
  8
0
  6
CONTINUOUS
 10
363.031250
 20
178.625000
 11
366.750000
 21
178.156250
  0
LINE
  8
0
  6
CONTINUOUS
 10
366.750000
 20
178.156250
 11
370.531250
 21
178.562500
  0
LINE
  8
0
  6
CONTINUOUS
 10
370.531250
 20
178.562500
 11
374.031250
 21
178.062500
  0
LINE
  8
0
  6
CONTINUOUS
 10
374.031250
 20
178.062500
 11
378.062500
 21
178.593750
  0
LINE
  8
0
  6
CONTINUOUS
 10
378.062500
 20
178.593750
 11
381.593750
 21
178.031250
  0
LINE
  8
0
  6
CONTINUOUS
 10
381.593750
 20
178.031250
 11
386.125000
 21
178.531250
  0
LINE
  8
0
  6
CONTINUOUS
 10
386.125000
 20
178.531250
 11
390.812500
 21
177.906250
  0
LINE
  8
0
  6
CONTINUOUS
 10
390.812500
 20
177.906250
 11
395.500000
 21
178.500000
  0
LINE
  8
0
  6
CONTINUOUS
 10
395.500000
 20
178.500000
 11
399.312500
 21
177.875000
  0
LINE
  8
0
  6
CONTINUOUS
 10
399.312500
 20
177.875000
 11
404.625000
 21
178.375000
  0
LINE
  8
0
  6
CONTINUOUS
 10
404.625000
 20
178.375000
 11
408.531250
 21
177.718750
  0
LINE
  8
0
  6
CONTINUOUS
 10
408.531250
 20
177.718750
 11
413.156250
 21
178.562500
  0
LINE
  8
0
  6
CONTINUOUS
 10
413.156250
 20
178.562500
 11
417.562500
 21
177.718750
  0
LINE
  8
0
  6
CONTINUOUS
 10
417.562500
 20
177.718750
 11
421.625000
 21
178.593750
  0
LINE
  8
0
  6
CONTINUOUS
 10
421.625000
 20
178.593750
 11
425.000000
 21
177.750000
  0
LINE
  8
0
  6
CONTINUOUS
 10
425.000000
 20
177.750000
 11
429.281250
 21
178.500000
  0
LINE
  8
0
  6
CONTINUOUS
 10
429.281250
 20
178.500000
 11
432.906250
 21
177.781250
  0
LINE
  8
0
  6
CONTINUOUS
 10
432.906250
 20
177.781250
 11
436.781250
 21
178.500000
  0
LINE
  8
0
  6
CONTINUOUS
 10
436.781250
 20
178.500000
 11
440.500000
 21
177.957687
  0
LINE
  8
0
  6
CONTINUOUS
 10
359.500000
 20
121.613953
 11
363.031250
 21
121.375000
  0
LINE
  8
0
  6
CONTINUOUS
 10
363.031250
 20
121.375000
 11
366.750000
 21
121.843750
  0
LINE
  8
0
  6
CONTINUOUS
 10
366.750000
 20
121.843750
 11
370.531250
 21
121.437500
  0
LINE
  8
0
  6
CONTINUOUS
 10
370.531250
 20
121.437500
 11
374.031250
 21
121.937500
  0
LINE
  8
0
  6
CONTINUOUS
 10
374.031250
 20
121.937500
 11
378.062500
 21
121.406250
  0
LINE
  8
0
  6
CONTINUOUS
 10
378.062500
 20
121.406250
 11
381.593750
 21
121.968750
  0
LINE
  8
0
  6
CONTINUOUS
 10
381.593750
 20
121.968750
 11
386.125000
 21
121.468750
  0
LINE
  8
0
  6
CONTINUOUS
 10
386.125000
 20
121.468750
 11
390.812500
 21
122.093750
  0
LINE
  8
0
  6
CONTINUOUS
 10
390.812500
 20
122.093750
 11
395.500000
 21
121.500000
  0
LINE
  8
0
  6
CONTINUOUS
 10
395.500000
 20
121.500000
 11
399.312500
 21
122.125000
  0
LINE
  8
0
  6
CONTINUOUS
 10
399.312500
 20
122.125000
 11
404.625000
 21
121.625000
  0
LINE
  8
0
  6
CONTINUOUS
 10
404.625000
 20
121.625000
 11
408.531250
 21
122.281250
  0
LINE
  8
0
  6
CONTINUOUS
 10
408.531250
 20
122.281250
 11
413.156250
 21
121.437500
  0
LINE
  8
0
  6
CONTINUOUS
 10
413.156250
 20
121.437500
 11
417.562500
 21
122.281250
  0
LINE
  8
0
  6
CONTINUOUS
 10
417.562500
 20
122.281250
 11
421.625000
 21
121.406250
  0
LINE
  8
0
  6
CONTINUOUS
 10
421.625000
 20
121.406250
 11
425.000000
 21
122.250000
  0
LINE
  8
0
  6
CONTINUOUS
 10
425.000000
 20
122.250000
 11
429.281250
 21
121.500000
  0
LINE
  8
0
  6
CONTINUOUS
 10
429.281250
 20
121.500000
 11
432.906250
 21
122.218750
  0
LINE
  8
0
  6
CONTINUOUS
 10
432.906250
 20
122.218750
 11
436.781250
 21
121.500000
  0
LINE
  8
0
  6
CONTINUOUS
 10
436.781250
 20
121.500000
 11
440.500000
 21
122.042320
  0
LINE
  8
0
  6
DASHED
 10
563.750000
 20
340.996246
 11
563.750000
 21
353.496246
  0
LINE
  8
0
  6
DASHED
 10
572.250000
 20
340.996246
 11
572.250000
 21
353.496246
  0
LINE
  8
0
  6
DASHED
 10
564.000000
 20
320.996246
 11
572.000000
 21
320.996246
  0
LINE
  8
0
  6
DASHED
 10
564.000000
 20
304.996246
 11
572.000000
 21
304.996246
  0
LINE
  8
0
  6
DASHED
 10
572.000000
 20
340.996246
 11
572.000000
 21
320.996246
  0
LINE
  8
0
  6
DASHED
 10
564.000000
 20
340.996246
 11
564.000000
 21
320.996246
  0
LINE
  8
0
  6
DASHED
 10
564.000000
 20
272.496246
 11
564.000000
 21
304.996246
  0
LINE
  8
0
  6
DASHED
 10
572.000000
 20
272.496246
 11
572.000000
 21
304.996246
  0
LINE
  8
0
  6
DASHED
 10
649.750000
 20
340.996246
 11
649.750000
 21
353.496246
  0
LINE
  8
0
  6
DASHED
 10
658.250000
 20
340.996246
 11
658.250000
 21
353.496246
  0
LINE
  8
0
  6
DASHED
 10
658.000000
 20
340.996246
 11
658.000000
 21
320.996246
  0
LINE
  8
0
  6
DASHED
 10
650.000000
 20
340.996246
 11
650.000000
 21
320.996246
  0
LINE
  8
0
  6
DASHED
 10
650.000000
 20
320.996246
 11
658.000000
 21
320.996246
  0
LINE
  8
0
  6
DASHED
 10
650.000000
 20
304.996246
 11
658.000000
 21
304.996246
  0
LINE
  8
0
  6
DASHED
 10
650.000000
 20
272.496246
 11
650.000000
 21
304.996246
  0
LINE
  8
0
  6
DASHED
 10
658.000000
 20
272.496246
 11
658.000000
 21
304.996246
  0
LINE
  8
0
  6
CONTINUOUS
 10
433.134827
 20
122.593445
 11
436.782806
 21
122.950310
  0
LINE
  8
0
  6
CONTINUOUS
 10
436.782806
 20
122.950310
 11
440.500000
 21
122.578590
  0
LINE
  8
0
  6
CONTINUOUS
 10
433.134827
 20
177.406555
 11
436.782806
 21
177.049683
  0
LINE
  8
0
  6
CONTINUOUS
 10
436.782806
 20
177.049683
 11
440.500000
 21
177.421402
  0
LINE
  8
0
  6
CONTINUOUS
 10
733.555481
 20
189.500000
 11
733.555481
 21
188.000000
  0
LINE
  8
0
  6
CONTINUOUS
 10
740.555481
 20
189.500000
 11
740.555481
 21
188.000000
  0
LINE
  8
0
  6
CONTINUOUS
 10
740.555481
 20
189.500000
 11
733.555481
 21
189.500000
  0
LINE
  8
0
  6
CONTINUOUS
 10
736.155518
 20
202.500000
 11
736.155518
 21
189.500000
  0
LINE
  8
0
  6
CONTINUOUS
 10
737.955505
 20
203.125000
 11
737.955505
 21
189.500000
  0
LINE
  8
0
  6
CONTINUOUS
 10
739.755493
 20
201.062500
 11
739.755493
 21
189.500000
  0
LINE
  8
0
  6
CONTINUOUS
 10
734.355530
 20
201.875000
 11
734.355530
 21
189.500000
  0
LINE
  8
0
  6
CONTINUOUS
 10
737.955505
 20
203.125000
 11
736.155518
 21
202.500000
  0
LINE
  8
0
  6
CONTINUOUS
 10
739.755493
 20
201.062500
 11
737.955505
 21
201.687500
  0
LINE
  8
0
  6
CONTINUOUS
 10
734.355530
 20
201.875000
 11
736.154480
 21
201.427292
  0
LINE
  8
0
  6
CONTINUOUS
 10
740.555481
 20
306.996246
 11
740.555481
 21
318.996246
  0
LINE
  8
0
  6
CONTINUOUS
 10
733.555481
 20
306.996246
 11
733.555481
 21
318.996246
  0
LINE
  8
0
  6
CONTINUOUS
 10
739.555481
 20
319.996246
 11
734.555481
 21
319.996246
  0
LINE
  8
0
  6
CONTINUOUS
 10
734.555481
 20
305.996246
 11
739.555481
 21
305.996246
  0
ARC
  8
0
  6
CONTINUOUS
 10
734.555481
 20
318.996246
 40
1.000000
 50
90.000000
 51
180.000000
  0
ARC
  8
0
  6
CONTINUOUS
 10
739.555481
 20
318.996246
 40
1.000000
 50
0.000000
 51
90.000000
  0
ARC
  8
0
  6
CONTINUOUS
 10
739.555481
 20
306.996246
 40
1.000000
 50
-90.000000
 51
0.000000
  0
ARC
  8
0
  6
CONTINUOUS
 10
734.555481
 20
306.996246
 40
1.000000
 50
180.000000
 51
270.000000
  0
LINE
  8
0
  6
CONTINUOUS
 10
736.055481
 20
316.496246
 11
736.055481
 21
309.496246
  0
LINE
  8
0
  6
CONTINUOUS
 10
738.055481
 20
316.496246
 11
738.055481
 21
309.496246
  0
ARC
  8
0
  6
CONTINUOUS
 10
737.055481
 20
316.496246
 40
1.000000
 50
0.000000
 51
180.000000
  0
ARC
  8
0
  6
CONTINUOUS
 10
737.055481
 20
309.496246
 40
1.000000
 50
-180.000000
 51
0.000000
  0
LINE
  8
0
  6
CENTER
 10
553.459229
 20
150.000000
 11
798.636108
 21
150.000000
  0
LINE
  8
0
  6
CENTER
 10
600.000000
 20
119.693748
 11
600.000000
 21
180.106873
  0
LINE
  8
0
  6
CONTINUOUS
 10
734.055481
 20
188.000000
 11
662.358765
 21
188.000000
  0
LINE
  8
0
  6
CONTINUOUS
 10
734.055481
 20
112.000000
 11
662.358765
 21
112.000000
  0
LINE
  8
0
  6
CONTINUOUS
 10
734.055481
 20
188.000000
 11
734.055481
 21
112.000000
  0
LINE
  8
0
  6
CENTER
 10
654.000000
 20
106.783089
 11
654.000000
 21
123.231712
  0
LINE
  8
0
  6
CENTER
 10
661.978638
 20
116.500000
 11
646.791138
 21
116.500000
  0
LINE
  8
0
  6
CONTINUOUS
 10
661.000000
 20
183.500000
 11
661.000000
 21
166.328430
  0
LINE
  8
0
  6
CONTINUOUS
 10
654.000000
 20
109.500000
 11
568.000000
 21
109.500000
  0
LINE
  8
0
  6
CENTER
 10
654.000000
 20
193.565582
 11
654.000000
 21
176.768280
  0
LINE
  8
0
  6
CENTER
 10
661.978638
 20
183.500000
 11
646.791138
 21
183.500000
  0
LINE
  8
0
  6
CONTINUOUS
 10
654.000000
 20
190.500000
 11
568.000000
 21
190.500000
  0
LINE
  8
0
  6
CENTER
 10
568.000000
 20
106.783089
 11
568.000000
 21
123.231712
  0
LINE
  8
0
  6
CENTER
 10
559.638367
 20
116.500000
 11
575.208862
 21
116.500000
  0
LINE
  8
0
  6
CONTINUOUS
 10
561.000000
 20
116.500000
 11
561.000000
 21
183.500000
  0
LINE
  8
0
  6
CENTER
 10
568.000000
 20
193.565582
 11
568.000000
 21
176.768280
  0
LINE
  8
0
  6
CENTER
 10
560.021362
 20
183.500000
 11
575.208862
 21
183.500000
  0
ARC
  8
0
  6
CONTINUOUS
 10
568.000000
 20
183.500000
 40
7.000000
 50
47.364067
 51
180.000000
  0
ARC
  8
0
  6
CONTINUOUS
 10
568.000000
 20
116.500000
 40
7.000000
 50
180.000000
 51
312.635925
  0
ARC
  8
0
  6
CONTINUOUS
 10
654.000000
 20
116.500000
 40
7.000000
 50
-132.635925
 51
0.000000
  0
ARC
  8
0
  6
CONTINUOUS
 10
654.000000
 20
183.500000
 40
7.000000
 50
0.000000
 51
132.635925
  0
LINE
  8
0
  6
CONTINUOUS
 10
565.000000
 20
139.328430
 11
565.000000
 21
160.671570
  0
LINE
  8
0
  6
CONTINUOUS
 10
564.414185
 20
137.914215
 11
561.585815
 21
135.085785
  0
ARC
  8
0
  6
CONTINUOUS
 10
563.000000
 20
133.671570
 40
2.000000
 50
135.000000
 51
180.000000
  0
ARC
  8
0
  6
CONTINUOUS
 10
563.000000
 20
139.328430
 40
2.000000
 50
-45.000000
 51
0.000000
  0
LINE
  8
0
  6
CONTINUOUS
 10
564.414185
 20
162.085785
 11
561.585815
 21
164.914215
  0
ARC
  8
0
  6
CONTINUOUS
 10
563.000000
 20
166.328430
 40
2.000000
 50
180.000000
 51
225.000000
  0
ARC
  8
0
  6
CONTINUOUS
 10
563.000000
 20
160.671570
 40
2.000000
 50
0.000000
 51
45.000000
  0
LINE
  8
0
  6
CONTINUOUS
 10
661.663635
 20
111.875305
 11
656.432983
 21
109.936417
  0
ARC
  8
0
  6
CONTINUOUS
 10
662.358765
 20
110.000000
 40
2.000000
 50
90.000000
 51
110.338730
  0
LINE
  8
0
  6
CONTINUOUS
 10
661.663635
 20
188.124695
 11
656.432983
 21
190.063583
  0
ARC
  8
0
  6
CONTINUOUS
 10
662.358765
 20
190.000000
 40
2.000000
 50
249.661270
 51
270.000000
  0
LINE
  8
0
  6
CONTINUOUS
 10
734.055481
 20
119.751038
 11
661.000000
 21
119.751038
  0
LINE
  8
0
  6
CONTINUOUS
 10
734.055481
 20
180.248962
 11
661.000000
 21
180.248962
  0
LINE
  8
0
  6
CONTINUOUS
 10
178.500000
 20
175.690460
 11
178.500000
 21
124.309532
  0
LINE
  8
0
  6
CONTINUOUS
 10
178.500000
 20
175.690460
 11
179.000000
 21
175.690460
  0
LINE
  8
0
  6
CONTINUOUS
 10
657.000000
 20
139.328430
 11
657.000000
 21
160.671570
  0
LINE
  8
0
  6
CONTINUOUS
 10
657.585815
 20
137.914215
 11
660.414185
 21
135.085785
  0
ARC
  8
0
  6
CONTINUOUS
 10
659.000000
 20
133.671570
 40
2.000000
 50
0.000000
 51
45.000000
  0
ARC
  8
0
  6
CONTINUOUS
 10
659.000000
 20
139.328430
 40
2.000000
 50
180.000000
 51
225.000000
  0
LINE
  8
0
  6
CONTINUOUS
 10
657.585815
 20
162.085785
 11
660.414185
 21
164.914215
  0
ARC
  8
0
  6
CONTINUOUS
 10
659.000000
 20
166.328430
 40
2.000000
 50
-45.000000
 51
0.000000
  0
ARC
  8
0
  6
CONTINUOUS
 10
659.000000
 20
160.671570
 40
2.000000
 50
135.000000
 51
180.000000
  0
LINE
  8
0
  6
CONTINUOUS
 10
661.000000
 20
133.671570
 11
661.000000
 21
116.500000
  0
ARC
  8
0
  6
CONTINUOUS
 10
627.000000
 20
138.000000
 40
30.000000
 50
292.331635
 51
300.358307
  0
ARC
  8
0
  6
CONTINUOUS
 10
634.599365
 20
119.500000
 40
10.000000
 50
270.000000
 51
292.331635
  0
ARC
  8
0
  6
CONTINUOUS
 10
627.000000
 20
162.000000
 40
30.000000
 50
59.641697
 51
67.668358
  0
ARC
  8
0
  6
CONTINUOUS
 10
634.599365
 20
180.500000
 40
10.000000
 50
67.668358
 51
90.000000
  0
ARC
  8
0
  6
CONTINUOUS
 10
595.000000
 20
138.000000
 40
30.000000
 50
239.641693
 51
247.668350
  0
ARC
  8
0
  6
CONTINUOUS
 10
587.400635
 20
119.500000
 40
10.000000
 50
247.668350
 51
270.000000
  0
ARC
  8
0
  6
CONTINUOUS
 10
595.000000
 20
162.000000
 40
30.000000
 50
112.331642
 51
120.358299
  0
ARC
  8
0
  6
CONTINUOUS
 10
587.400635
 20
180.500000
 40
10.000000
 50
90.000000
 51
112.331642
  0
LINE
  8
0
  6
CONTINUOUS
 10
570.000000
 20
163.500000
 11
570.000000
 21
136.500000
  0
LINE
  8
0
  6
CONTINUOUS
 10
592.000000
 20
185.500000
 11
630.000000
 21
185.500000
  0
ARC
  8
0
  6
CONTINUOUS
 10
592.000000
 20
163.500000
 40
22.000000
 50
90.000000
 51
110.487312
  0
LINE
  8
0
  6
CONTINUOUS
 10
583.000000
 20
181.739853
 11
583.000000
 21
182.235001
  0
LINE
  8
0
  6
CONTINUOUS
 10
585.000000
 20
181.000000
 11
585.000000
 21
182.864914
  0
LINE
  8
0
  6
CONTINUOUS
 10
574.598633
 20
171.198410
 11
582.518494
 21
180.438263
  0
LINE
  8
0
  6
CONTINUOUS
 10
575.518494
 20
169.198410
 11
584.518494
 21
179.698410
  0
ARC
  8
0
  6
CONTINUOUS
 10
583.000000
 20
181.000000
 40
2.000000
 50
-40.601295
 51
0.000000
  0
ARC
  8
0
  6
CONTINUOUS
 10
581.000000
 20
181.739853
 40
2.000000
 50
-40.601295
 51
0.000000
  0
ARC
  8
0
  6
CONTINUOUS
 10
573.080139
 20
172.500000
 40
2.000000
 50
-90.000000
 51
-40.601295
  0
ARC
  8
0
  6
CONTINUOUS
 10
574.000000
 20
170.500000
 40
2.000000
 50
-90.000000
 51
-40.601295
  0
LINE
  8
0
  6
CONTINUOUS
 10
584.875793
 20
180.306107
 11
582.875793
 21
181.045959
  0
LINE
  8
0
  6
CONTINUOUS
 10
574.835693
 20
168.682968
 11
573.915833
 21
170.682968
  0
LINE
  8
0
  6
CONTINUOUS
 10
574.000000
 20
168.500000
 11
572.226257
 21
168.500000
  0
LINE
  8
0
  6
CONTINUOUS
 10
573.080139
 20
170.500000
 11
572.635071
 21
170.500000
  0
ARC
  8
0
  6
CONTINUOUS
 10
572.226257
 20
166.500000
 40
2.000000
 50
90.000000
 51
171.373077
  0
ARC
  8
0
  6
CONTINUOUS
 10
572.635071
 20
168.500000
 40
2.000000
 50
90.000000
 51
165.522491
  0
ARC
  8
0
  6
CONTINUOUS
 10
587.000000
 20
182.864914
 40
2.000000
 50
104.477509
 51
180.000000
  0
ARC
  8
0
  6
CONTINUOUS
 10
585.000000
 20
182.235001
 40
2.000000
 50
110.487312
 51
180.000000
  0
ARC
  8
0
  6
CONTINUOUS
 10
592.000000
 20
163.500000
 40
22.000000
 50
165.522491
 51
180.000000
  0
ARC
  8
0
  6
CONTINUOUS
 10
630.000000
 20
163.500000
 40
22.000000
 50
69.512688
 51
90.000000
  0
LINE
  8
0
  6
CONTINUOUS
 10
639.000000
 20
181.739853
 11
639.000000
 21
182.235001
  0
LINE
  8
0
  6
CONTINUOUS
 10
637.000000
 20
181.000000
 11
637.000000
 21
182.864914
  0
LINE
  8
0
  6
CONTINUOUS
 10
647.401367
 20
171.198410
 11
639.481506
 21
180.438263
  0
LINE
  8
0
  6
CONTINUOUS
 10
646.481506
 20
169.198410
 11
637.481506
 21
179.698410
  0
ARC
  8
0
  6
CONTINUOUS
 10
639.000000
 20
181.000000
 40
2.000000
 50
180.000000
 51
220.601288
  0
ARC
  8
0
  6
CONTINUOUS
 10
641.000000
 20
181.739853
 40
2.000000
 50
180.000000
 51
220.601288
  0
ARC
  8
0
  6
CONTINUOUS
 10
648.919861
 20
172.500000
 40
2.000000
 50
220.601288
 51
270.000000
  0
ARC
  8
0
  6
CONTINUOUS
 10
648.000000
 20
170.500000
 40
2.000000
 50
220.601288
 51
270.000000
  0
LINE
  8
0
  6
CONTINUOUS
 10
637.124207
 20
180.306107
 11
639.124207
 21
181.045959
  0
LINE
  8
0
  6
CONTINUOUS
 10
647.164307
 20
168.682968
 11
648.084167
 21
170.682968
  0
LINE
  8
0
  6
CONTINUOUS
 10
648.000000
 20
168.500000
 11
649.773743
 21
168.500000
  0
LINE
  8
0
  6
CONTINUOUS
 10
648.919861
 20
170.500000
 11
649.364929
 21
170.500000
  0
ARC
  8
0
  6
CONTINUOUS
 10
649.773743
 20
166.500000
 40
2.000000
 50
8.626927
 51
90.000000
  0
ARC
  8
0
  6
CONTINUOUS
 10
649.364929
 20
168.500000
 40
2.000000
 50
14.477512
 51
90.000000
  0
ARC
  8
0
  6
CONTINUOUS
 10
635.000000
 20
182.864914
 40
2.000000
 50
0.000000
 51
75.522491
  0
ARC
  8
0
  6
CONTINUOUS
 10
637.000000
 20
182.235001
 40
2.000000
 50
0.000000
 51
69.512688
  0
ARC
  8
0
  6
CONTINUOUS
 10
630.000000
 20
163.500000
 40
22.000000
 50
0.000000
 51
14.477512
  0
LINE
  8
0
  6
CONTINUOUS
 10
652.000000
 20
163.500000
 11
652.000000
 21
136.500000
  0
LINE
  8
0
  6
CONTINUOUS
 10
592.000000
 20
114.500000
 11
630.000000
 21
114.500000
  0
ARC
  8
0
  6
CONTINUOUS
 10
592.000000
 20
136.500000
 40
22.000000
 50
-110.487312
 51
-90.000000
  0
LINE
  8
0
  6
CONTINUOUS
 10
583.000000
 20
118.260155
 11
583.000000
 21
117.765007
  0
LINE
  8
0
  6
CONTINUOUS
 10
585.000000
 20
119.000000
 11
585.000000
 21
117.135086
  0
LINE
  8
0
  6
CONTINUOUS
 10
574.598633
 20
128.801590
 11
582.518494
 21
119.561737
  0
LINE
  8
0
  6
CONTINUOUS
 10
575.518494
 20
130.801590
 11
584.518494
 21
120.301582
  0
ARC
  8
0
  6
CONTINUOUS
 10
583.000000
 20
119.000000
 40
2.000000
 50
0.000000
 51
40.601295
  0
ARC
  8
0
  6
CONTINUOUS
 10
581.000000
 20
118.260155
 40
2.000000
 50
0.000000
 51
40.601295
  0
ARC
  8
0
  6
CONTINUOUS
 10
573.080139
 20
127.500000
 40
2.000000
 50
40.601295
 51
90.000000
  0
ARC
  8
0
  6
CONTINUOUS
 10
574.000000
 20
129.500000
 40
2.000000
 50
40.601295
 51
90.000000
  0
LINE
  8
0
  6
CONTINUOUS
 10
584.875793
 20
119.693893
 11
582.875793
 21
118.954041
  0
LINE
  8
0
  6
CONTINUOUS
 10
574.835693
 20
131.317032
 11
573.915833
 21
129.317032
  0
LINE
  8
0
  6
CONTINUOUS
 10
574.000000
 20
131.500000
 11
572.226257
 21
131.500000
  0
LINE
  8
0
  6
CONTINUOUS
 10
573.080139
 20
129.500000
 11
572.635071
 21
129.500000
  0
ARC
  8
0
  6
CONTINUOUS
 10
572.226257
 20
133.500000
 40
2.000000
 50
-171.373077
 51
-90.000000
  0
ARC
  8
0
  6
CONTINUOUS
 10
572.635071
 20
131.500000
 40
2.000000
 50
-165.522491
 51
-90.000000
  0
ARC
  8
0
  6
CONTINUOUS
 10
587.000000
 20
117.135086
 40
2.000000
 50
180.000000
 51
255.522491
  0
ARC
  8
0
  6
CONTINUOUS
 10
585.000000
 20
117.765007
 40
2.000000
 50
180.000000
 51
249.512680
  0
ARC
  8
0
  6
CONTINUOUS
 10
630.000000
 20
136.500000
 40
22.000000
 50
270.000000
 51
290.487305
  0
LINE
  8
0
  6
CONTINUOUS
 10
639.000000
 20
118.260155
 11
639.000000
 21
117.765007
  0
LINE
  8
0
  6
CONTINUOUS
 10
637.000000
 20
119.000000
 11
637.000000
 21
117.135086
  0
LINE
  8
0
  6
CONTINUOUS
 10
647.401367
 20
128.801590
 11
639.481506
 21
119.561737
  0
LINE
  8
0
  6
CONTINUOUS
 10
646.481506
 20
130.801590
 11
637.481506
 21
120.301582
  0
ARC
  8
0
  6
CONTINUOUS
 10
639.000000
 20
119.000000
 40
2.000000
 50
139.398712
 51
180.000000
  0
ARC
  8
0
  6
CONTINUOUS
 10
641.000000
 20
118.260155
 40
2.000000
 50
139.398712
 51
180.000000
  0
ARC
  8
0
  6
CONTINUOUS
 10
648.919861
 20
127.500000
 40
2.000000
 50
90.000000
 51
139.398712
  0
ARC
  8
0
  6
CONTINUOUS
 10
648.000000
 20
129.500000
 40
2.000000
 50
90.000000
 51
139.398712
  0
LINE
  8
0
  6
CONTINUOUS
 10
637.124207
 20
119.693893
 11
639.124207
 21
118.954041
  0
LINE
  8
0
  6
CONTINUOUS
 10
647.164307
 20
131.317032
 11
648.084167
 21
129.317032
  0
LINE
  8
0
  6
CONTINUOUS
 10
648.000000
 20
131.500000
 11
649.773743
 21
131.500000
  0
LINE
  8
0
  6
CONTINUOUS
 10
648.919861
 20
129.500000
 11
649.364929
 21
129.500000
  0
ARC
  8
0
  6
CONTINUOUS
 10
649.773743
 20
133.500000
 40
2.000000
 50
270.000000
 51
351.373077
  0
ARC
  8
0
  6
CONTINUOUS
 10
649.364929
 20
131.500000
 40
2.000000
 50
270.000000
 51
345.522491
  0
ARC
  8
0
  6
CONTINUOUS
 10
635.000000
 20
117.135086
 40
2.000000
 50
-75.522491
 51
0.000000
  0
ARC
  8
0
  6
CONTINUOUS
 10
637.000000
 20
117.765007
 40
2.000000
 50
-69.512688
 51
0.000000
  0
ARC
  8
0
  6
CONTINUOUS
 10
592.000000
 20
136.500000
 40
22.000000
 50
180.000000
 51
194.477509
  0
ARC
  8
0
  6
CONTINUOUS
 10
630.000000
 20
136.500000
 40
22.000000
 50
-14.477512
 51
0.000000
  0
LINE
  8
0
  6
CENTER
 10
557.378418
 20
312.996246
 11
798.636108
 21
312.996246
  0
LINE
  8
0
  6
CENTER
 10
600.000000
 20
359.943604
 11
600.000000
 21
263.501099
  0
LINE
  8
0
  6
CONTINUOUS
 10
662.302124
 20
274.996246
 11
734.055481
 21
274.996246
  0
LINE
  8
0
  6
CONTINUOUS
 10
663.448303
 20
350.996246
 11
734.055481
 21
350.996246
  0
LINE
  8
0
  6
CONTINUOUS
 10
734.055481
 20
274.996246
 11
734.055481
 21
306.130219
  0
LINE
  8
0
  6
CENTER
 10
654.000000
 20
269.137329
 11
654.000000
 21
356.812347
  0
LINE
  8
0
  6
CENTER
 10
568.000000
 20
269.137329
 11
568.000000
 21
356.812347
  0
LINE
  8
0
  6
CONTINUOUS
 10
743.555481
 20
335.996246
 11
657.996887
 21
335.996246
  0
LINE
  8
0
  6
CONTINUOUS
 10
743.555481
 20
289.996246
 11
657.996887
 21
289.996246
  0
LINE
  8
0
  6
CONTINUOUS
 10
561.000000
 20
312.996246
 11
561.706909
 21
353.496246
  0
LINE
  8
0
  6
CONTINUOUS
 10
561.000000
 20
312.996246
 11
561.706909
 21
272.496246
  0
LINE
  8
0
  6
CONTINUOUS
 10
660.293091
 20
272.496246
 11
561.706909
 21
272.496246
  0
LINE
  8
0
  6
CONTINUOUS
 10
662.000000
 20
340.996246
 11
561.488770
 21
340.996246
  0
LINE
  8
0
  6
CONTINUOUS
 10
662.000000
 20
350.375519
 11
662.000000
 21
340.996246
  0
ARC
  8
0
  6
CONTINUOUS
 10
663.448303
 20
348.996246
 40
2.000000
 50
90.000000
 51
136.398758
  0
ARC
  8
0
  6
CONTINUOUS
 10
662.302124
 20
272.996246
 40
2.000000
 50
90.000000
 51
179.000000
  0
LINE
  8
0
  6
CONTINUOUS
 10
662.000000
 20
335.996246
 11
662.000000
 21
289.996246
  0
LINE
  8
0
  6
CONTINUOUS
 10
660.293091
 20
353.496246
 11
660.598511
 21
335.996246
  0
LINE
  8
0
  6
CONTINUOUS
 10
660.293091
 20
272.496246
 11
660.598511
 21
289.996246
  0
LINE
  8
0
  6
CONTINUOUS
 10
656.432983
 20
312.996246
 11
655.997192
 21
337.961334
  0
LINE
  8
0
  6
CONTINUOUS
 10
656.432983
 20
312.996246
 11
655.997192
 21
288.031158
  0
ARC
  8
0
  6
CONTINUOUS
 10
657.996887
 20
337.996246
 40
2.000000
 50
-179.000000
 51
-90.000000
  0
ARC
  8
0
  6
CONTINUOUS
 10
657.996887
 20
287.996246
 40
2.000000
 50
90.000000
 51
179.000000
  0
LINE
  8
0
  6
CONTINUOUS
 10
585.632507
 20
353.496246
 11
585.632507
 21
317.996246
  0
LINE
  8
0
  6
CONTINUOUS
 10
576.658020
 20
353.496246
 11
576.658020
 21
320.200256
  0
LINE
  8
0
  6
CONTINUOUS
 10
576.658020
 20
305.792236
 11
576.658020
 21
272.496246
  0
LINE
  8
0
  6
CONTINUOUS
 10
585.632507
 20
317.996246
 11
568.087280
 21
317.996246
  0
ARC
  8
0
  6
CONTINUOUS
 10
576.658020
 20
309.200256
 40
11.000000
 50
68.924667
 51
115.717728
  0
ARC
  8
0
  6
CONTINUOUS
 10
568.087280
 20
324.496246
 40
6.500000
 50
-90.000000
 51
-64.282272
  0
LINE
  8
0
  6
CONTINUOUS
 10
583.295105
 20
318.431030
 11
580.613586
 21
319.464447
  0
LINE
  8
0
  6
CONTINUOUS
 10
571.884705
 20
319.110626
 11
570.907898
 21
318.640137
  0
ARC
  8
0
  6
CONTINUOUS
 10
585.632507
 20
324.496246
 40
6.500000
 50
-111.075333
 51
-90.000000
  0
LINE
  8
0
  6
CONTINUOUS
 10
585.632507
 20
307.996246
 11
568.087280
 21
307.996246
  0
ARC
  8
0
  6
CONTINUOUS
 10
576.658020
 20
316.792236
 40
11.000000
 50
244.282272
 51
291.075317
  0
ARC
  8
0
  6
CONTINUOUS
 10
568.087280
 20
301.496246
 40
6.500000
 50
64.282272
 51
90.000000
  0
LINE
  8
0
  6
CONTINUOUS
 10
583.295105
 20
307.561462
 11
580.613586
 21
306.528046
  0
LINE
  8
0
  6
CONTINUOUS
 10
571.884705
 20
306.881866
 11
570.907898
 21
307.352386
  0
ARC
  8
0
  6
CONTINUOUS
 10
585.632507
 20
301.496246
 40
6.500000
 50
90.000000
 51
111.075333
  0
LINE
  8
0
  6
CONTINUOUS
 10
585.632507
 20
307.996246
 11
585.632507
 21
272.496246
  0
LINE
  8
0
  6
CONTINUOUS
 10
636.367493
 20
317.996246
 11
653.912720
 21
317.996246
  0
ARC
  8
0
  6
CONTINUOUS
 10
645.341980
 20
309.200256
 40
11.000000
 50
64.282272
 51
111.075333
  0
ARC
  8
0
  6
CONTINUOUS
 10
653.912720
 20
324.496246
 40
6.500000
 50
244.282272
 51
270.000000
  0
LINE
  8
0
  6
CONTINUOUS
 10
638.704834
 20
318.431030
 11
641.386414
 21
319.464447
  0
LINE
  8
0
  6
CONTINUOUS
 10
650.115295
 20
319.110626
 11
651.092102
 21
318.640137
  0
ARC
  8
0
  6
CONTINUOUS
 10
636.367493
 20
324.496246
 40
6.500000
 50
270.000000
 51
291.075317
  0
LINE
  8
0
  6
CONTINUOUS
 10
636.367493
 20
307.996246
 11
653.912720
 21
307.996246
  0
ARC
  8
0
  6
CONTINUOUS
 10
645.341980
 20
316.792236
 40
11.000000
 50
-111.075333
 51
-64.282272
  0
ARC
  8
0
  6
CONTINUOUS
 10
653.912720
 20
301.496246
 40
6.500000
 50
90.000000
 51
115.717728
  0
LINE
  8
0
  6
CONTINUOUS
 10
638.704834
 20
307.561462
 11
641.386414
 21
306.528046
  0
LINE
  8
0
  6
CONTINUOUS
 10
650.115295
 20
306.881866
 11
651.092102
 21
307.352386
  0
ARC
  8
0
  6
CONTINUOUS
 10
636.367493
 20
301.496246
 40
6.500000
 50
68.924667
 51
90.000000
  0
LINE
  8
0
  6
CONTINUOUS
 10
636.367493
 20
307.996246
 11
636.367493
 21
272.496246
  0
LINE
  8
0
  6
CONTINUOUS
 10
645.341980
 20
305.792236
 11
645.341980
 21
272.496246
  0
LINE
  8
0
  6
CONTINUOUS
 10
636.367493
 20
353.496246
 11
636.367493
 21
317.996246
  0
LINE
  8
0
  6
CONTINUOUS
 10
645.341980
 20
353.496246
 11
645.341980
 21
320.200256
  0
ARC
  8
0
  6
CONTINUOUS
 10
576.805359
 20
106.936256
 40
6.000000
 50
59.641697
 51
132.635925
  0
ARC
  8
0
  6
CONTINUOUS
 10
576.805359
 20
193.063736
 40
6.000000
 50
227.364075
 51
300.358307
  0
ARC
  8
0
  6
CONTINUOUS
 10
645.194641
 20
193.063736
 40
6.000000
 50
239.641693
 51
312.635925
  0
ARC
  8
0
  6
CONTINUOUS
 10
645.194641
 20
106.936256
 40
6.000000
 50
47.364067
 51
120.358299
  0
LINE
  8
0
  6
CONTINUOUS
 10
178.500000
 20
124.309532
 11
179.000000
 21
124.309532
  0
LINE
  8
0
  6
CONTINUOUS
 10
743.555481
 20
112.000000
 11
734.055481
 21
112.000000
  0
LINE
  8
0
  6
CONTINUOUS
 10
743.555481
 20
188.000000
 11
734.055481
 21
188.000000
  0
LINE
  8
0
  6
CONTINUOUS
 10
743.555481
 20
110.000000
 11
743.555481
 21
190.000000
  0
LINE
  8
0
  6
CONTINUOUS
 10
743.555481
 20
119.750999
 11
734.055481
 21
119.750999
  0
LINE
  8
0
  6
CONTINUOUS
 10
743.555481
 20
180.248993
 11
734.055481
 21
180.248993
  0
LINE
  8
0
  6
CONTINUOUS
 10
792.555481
 20
185.000000
 11
792.555481
 21
115.000000
  0
LINE
  8
0
  6
CONTINUOUS
 10
787.555481
 20
110.000000
 11
743.555481
 21
110.000000
  0
LINE
  8
0
  6
CONTINUOUS
 10
787.555481
 20
190.000000
 11
743.555481
 21
190.000000
  0
ARC
  8
0
  6
CONTINUOUS
 10
787.555481
 20
115.000000
 40
5.000000
 50
-90.000000
 51
0.000000
  0
ARC
  8
0
  6
CONTINUOUS
 10
787.555481
 20
185.000000
 40
5.000000
 50
0.000000
 51
90.000000
  0
LINE
  8
0
  6
CONTINUOUS
 10
789.805481
 20
124.000000
 11
743.555481
 21
124.000000
  0
LINE
  8
0
  6
CONTINUOUS
 10
789.805481
 20
174.000000
 11
743.555481
 21
174.000000
  0
LINE
  8
0
  6
CONTINUOUS
 10
106.444496
 20
189.500000
 11
106.444496
 21
188.000000
  0
LINE
  8
0
  6
CONTINUOUS
 10
99.444496
 20
189.500000
 11
99.444496
 21
188.000000
  0
LINE
  8
0
  6
CONTINUOUS
 10
99.444496
 20
189.500000
 11
106.444496
 21
189.500000
  0
LINE
  8
0
  6
CONTINUOUS
 10
103.844498
 20
202.500000
 11
103.844498
 21
189.500000
  0
LINE
  8
0
  6
CONTINUOUS
 10
102.044495
 20
203.125000
 11
102.044495
 21
189.500000
  0
LINE
  8
0
  6
CONTINUOUS
 10
100.244499
 20
201.062500
 11
100.244499
 21
189.500000
  0
LINE
  8
0
  6
CONTINUOUS
 10
105.644493
 20
201.875000
 11
105.644493
 21
189.500000
  0
LINE
  8
0
  6
CONTINUOUS
 10
102.044495
 20
203.125000
 11
103.844498
 21
202.500000
  0
LINE
  8
0
  6
CONTINUOUS
 10
100.244499
 20
201.062500
 11
102.044495
 21
201.687500
  0
LINE
  8
0
  6
CONTINUOUS
 10
105.644493
 20
201.875000
 11
103.845505
 21
201.427292
  0
LINE
  8
0
  6
CENTER
 10
286.540771
 20
150.000000
 11
41.363884
 21
150.000000
  0
LINE
  8
0
  6
CENTER
 10
240.000000
 20
118.421249
 11
240.000000
 21
180.106873
  0
LINE
  8
0
  6
CONTINUOUS
 10
105.944496
 20
188.000000
 11
177.641251
 21
188.000000
  0
LINE
  8
0
  6
CONTINUOUS
 10
105.944496
 20
112.000000
 11
177.641251
 21
112.000000
  0
LINE
  8
0
  6
CONTINUOUS
 10
105.944496
 20
188.000000
 11
105.944496
 21
112.000000
  0
LINE
  8
0
  6
CENTER
 10
186.000000
 20
106.783089
 11
186.000000
 21
123.231712
  0
LINE
  8
0
  6
CENTER
 10
178.021347
 20
116.500000
 11
193.208847
 21
116.500000
  0
LINE
  8
0
  6
CONTINUOUS
 10
179.000000
 20
183.500000
 11
179.000000
 21
166.328430
  0
LINE
  8
0
  6
CONTINUOUS
 10
186.000000
 20
109.500000
 11
272.000000
 21
109.500000
  0
LINE
  8
0
  6
CENTER
 10
186.000000
 20
193.565582
 11
186.000000
 21
176.768280
  0
LINE
  8
0
  6
CENTER
 10
178.021347
 20
183.500000
 11
193.208847
 21
183.500000
  0
LINE
  8
0
  6
CONTINUOUS
 10
186.000000
 20
190.500000
 11
272.000000
 21
190.500000
  0
LINE
  8
0
  6
CENTER
 10
272.000000
 20
106.783089
 11
272.000000
 21
123.231712
  0
LINE
  8
0
  6
CENTER
 10
280.361633
 20
116.500000
 11
264.791138
 21
116.500000
  0
LINE
  8
0
  6
CONTINUOUS
 10
279.000000
 20
116.500000
 11
279.000000
 21
183.500000
  0
LINE
  8
0
  6
CENTER
 10
272.000000
 20
193.565582
 11
272.000000
 21
176.768280
  0
LINE
  8
0
  6
CENTER
 10
279.978638
 20
183.500000
 11
264.791138
 21
183.500000
  0
ARC
  8
0
  6
CONTINUOUS
 10
272.000000
 20
183.500000
 40
7.000000
 50
0.000000
 51
132.635925
  0
ARC
  8
0
  6
CONTINUOUS
 10
272.000000
 20
116.500000
 40
7.000000
 50
-132.635925
 51
0.000000
  0
ARC
  8
0
  6
CONTINUOUS
 10
186.000000
 20
116.500000
 40
7.000000
 50
180.000000
 51
312.635925
  0
ARC
  8
0
  6
CONTINUOUS
 10
186.000000
 20
183.500000
 40
7.000000
 50
47.364067
 51
180.000000
  0
LINE
  8
0
  6
CONTINUOUS
 10
275.000000
 20
139.328430
 11
275.000000
 21
160.671570
  0
LINE
  8
0
  6
CONTINUOUS
 10
275.585785
 20
137.914215
 11
278.414215
 21
135.085785
  0
ARC
  8
0
  6
CONTINUOUS
 10
277.000000
 20
133.671570
 40
2.000000
 50
0.000000
 51
45.000000
  0
ARC
  8
0
  6
CONTINUOUS
 10
277.000000
 20
139.328430
 40
2.000000
 50
180.000000
 51
225.000000
  0
LINE
  8
0
  6
CONTINUOUS
 10
275.585785
 20
162.085785
 11
278.414215
 21
164.914215
  0
ARC
  8
0
  6
CONTINUOUS
 10
277.000000
 20
166.328430
 40
2.000000
 50
-45.000000
 51
0.000000
  0
ARC
  8
0
  6
CONTINUOUS
 10
277.000000
 20
160.671570
 40
2.000000
 50
135.000000
 51
180.000000
  0
LINE
  8
0
  6
CONTINUOUS
 10
178.336380
 20
111.875305
 11
183.567017
 21
109.936417
  0
ARC
  8
0
  6
CONTINUOUS
 10
177.641251
 20
110.000000
 40
2.000000
 50
69.661270
 51
90.000000
  0
LINE
  8
0
  6
CONTINUOUS
 10
178.336380
 20
188.124695
 11
183.567017
 21
190.063583
  0
ARC
  8
0
  6
CONTINUOUS
 10
177.641251
 20
190.000000
 40
2.000000
 50
-90.000000
 51
-69.661270
  0
LINE
  8
0
  6
CONTINUOUS
 10
105.944496
 20
119.751038
 11
179.000000
 21
119.751038
  0
LINE
  8
0
  6
CONTINUOUS
 10
105.944496
 20
180.248962
 11
179.000000
 21
180.248962
  0
LINE
  8
0
  6
CONTINUOUS
 10
183.000000
 20
139.328430
 11
183.000000
 21
160.671570
  0
LINE
  8
0
  6
CONTINUOUS
 10
182.414215
 20
137.914215
 11
179.585785
 21
135.085785
  0
ARC
  8
0
  6
CONTINUOUS
 10
181.000000
 20
133.671570
 40
2.000000
 50
135.000000
 51
180.000000
  0
ARC
  8
0
  6
CONTINUOUS
 10
181.000000
 20
139.328430
 40
2.000000
 50
-45.000000
 51
0.000000
  0
LINE
  8
0
  6
CONTINUOUS
 10
182.414215
 20
162.085785
 11
179.585785
 21
164.914215
  0
ARC
  8
0
  6
CONTINUOUS
 10
181.000000
 20
166.328430
 40
2.000000
 50
180.000000
 51
225.000000
  0
ARC
  8
0
  6
CONTINUOUS
 10
181.000000
 20
160.671570
 40
2.000000
 50
0.000000
 51
45.000000
  0
LINE
  8
0
  6
CONTINUOUS
 10
179.000000
 20
133.671570
 11
179.000000
 21
116.500000
  0
ARC
  8
0
  6
CONTINUOUS
 10
213.000000
 20
138.000000
 40
30.000000
 50
-120.358299
 51
-112.331642
  0
ARC
  8
0
  6
CONTINUOUS
 10
205.400665
 20
119.500000
 40
10.000000
 50
-112.331642
 51
-90.000000
  0
ARC
  8
0
  6
CONTINUOUS
 10
213.000000
 20
162.000000
 40
30.000000
 50
112.331642
 51
120.358299
  0
ARC
  8
0
  6
CONTINUOUS
 10
205.400665
 20
180.500000
 40
10.000000
 50
90.000000
 51
112.331642
  0
ARC
  8
0
  6
CONTINUOUS
 10
245.000000
 20
138.000000
 40
30.000000
 50
-67.668358
 51
-59.641697
  0
ARC
  8
0
  6
CONTINUOUS
 10
252.599335
 20
119.500000
 40
10.000000
 50
-90.000000
 51
-67.668358
  0
ARC
  8
0
  6
CONTINUOUS
 10
245.000000
 20
162.000000
 40
30.000000
 50
59.641697
 51
67.668358
  0
ARC
  8
0
  6
CONTINUOUS
 10
252.599335
 20
180.500000
 40
10.000000
 50
67.668358
 51
90.000000
  0
LINE
  8
0
  6
CONTINUOUS
 10
270.000000
 20
163.500000
 11
270.000000
 21
136.500000
  0
LINE
  8
0
  6
CONTINUOUS
 10
248.000000
 20
185.500000
 11
210.000000
 21
185.500000
  0
ARC
  8
0
  6
CONTINUOUS
 10
248.000000
 20
163.500000
 40
22.000000
 50
69.512688
 51
90.000000
  0
LINE
  8
0
  6
CONTINUOUS
 10
257.000000
 20
181.739853
 11
257.000000
 21
182.235001
  0
LINE
  8
0
  6
CONTINUOUS
 10
255.000000
 20
181.000000
 11
255.000000
 21
182.864914
  0
LINE
  8
0
  6
CONTINUOUS
 10
265.401367
 20
171.198410
 11
257.481476
 21
180.438263
  0
LINE
  8
0
  6
CONTINUOUS
 10
264.481476
 20
169.198410
 11
255.481491
 21
179.698410
  0
ARC
  8
0
  6
CONTINUOUS
 10
257.000000
 20
181.000000
 40
2.000000
 50
180.000000
 51
220.601288
  0
ARC
  8
0
  6
CONTINUOUS
 10
259.000000
 20
181.739853
 40
2.000000
 50
180.000000
 51
220.601288
  0
ARC
  8
0
  6
CONTINUOUS
 10
266.919861
 20
172.500000
 40
2.000000
 50
220.601288
 51
270.000000
  0
ARC
  8
0
  6
CONTINUOUS
 10
266.000000
 20
170.500000
 40
2.000000
 50
220.601288
 51
270.000000
  0
LINE
  8
0
  6
CONTINUOUS
 10
255.124237
 20
180.306107
 11
257.124237
 21
181.045959
  0
LINE
  8
0
  6
CONTINUOUS
 10
265.164276
 20
168.682968
 11
266.084167
 21
170.682968
  0
LINE
  8
0
  6
CONTINUOUS
 10
266.000000
 20
168.500000
 11
267.773712
 21
168.500000
  0
LINE
  8
0
  6
CONTINUOUS
 10
266.919861
 20
170.500000
 11
267.364929
 21
170.500000
  0
ARC
  8
0
  6
CONTINUOUS
 10
267.773712
 20
166.500000
 40
2.000000
 50
8.626927
 51
90.000000
  0
ARC
  8
0
  6
CONTINUOUS
 10
267.364929
 20
168.500000
 40
2.000000
 50
14.477512
 51
90.000000
  0
ARC
  8
0
  6
CONTINUOUS
 10
253.000000
 20
182.864914
 40
2.000000
 50
0.000000
 51
75.522491
  0
ARC
  8
0
  6
CONTINUOUS
 10
255.000000
 20
182.235001
 40
2.000000
 50
0.000000
 51
69.512688
  0
ARC
  8
0
  6
CONTINUOUS
 10
248.000000
 20
163.500000
 40
22.000000
 50
0.000000
 51
14.477512
  0
ARC
  8
0
  6
CONTINUOUS
 10
210.000000
 20
163.500000
 40
22.000000
 50
90.000000
 51
110.487312
  0
LINE
  8
0
  6
CONTINUOUS
 10
201.000000
 20
181.739853
 11
201.000000
 21
182.235001
  0
LINE
  8
0
  6
CONTINUOUS
 10
203.000000
 20
181.000000
 11
203.000000
 21
182.864914
  0
LINE
  8
0
  6
CONTINUOUS
 10
192.598648
 20
171.198410
 11
200.518509
 21
180.438263
  0
LINE
  8
0
  6
CONTINUOUS
 10
193.518509
 20
169.198410
 11
202.518509
 21
179.698410
  0
ARC
  8
0
  6
CONTINUOUS
 10
201.000000
 20
181.000000
 40
2.000000
 50
-40.601295
 51
0.000000
  0
ARC
  8
0
  6
CONTINUOUS
 10
199.000000
 20
181.739853
 40
2.000000
 50
-40.601295
 51
0.000000
  0
ARC
  8
0
  6
CONTINUOUS
 10
191.080124
 20
172.500000
 40
2.000000
 50
-90.000000
 51
-40.601295
  0
ARC
  8
0
  6
CONTINUOUS
 10
192.000000
 20
170.500000
 40
2.000000
 50
-90.000000
 51
-40.601295
  0
LINE
  8
0
  6
CONTINUOUS
 10
202.875763
 20
180.306107
 11
200.875763
 21
181.045959
  0
LINE
  8
0
  6
CONTINUOUS
 10
192.835709
 20
168.682968
 11
191.915848
 21
170.682968
  0
LINE
  8
0
  6
CONTINUOUS
 10
192.000000
 20
168.500000
 11
190.226273
 21
168.500000
  0
LINE
  8
0
  6
CONTINUOUS
 10
191.080124
 20
170.500000
 11
190.635086
 21
170.500000
  0
ARC
  8
0
  6
CONTINUOUS
 10
190.226273
 20
166.500000
 40
2.000000
 50
90.000000
 51
171.373077
  0
ARC
  8
0
  6
CONTINUOUS
 10
190.635086
 20
168.500000
 40
2.000000
 50
90.000000
 51
165.522491
  0
ARC
  8
0
  6
CONTINUOUS
 10
205.000000
 20
182.864914
 40
2.000000
 50
104.477509
 51
180.000000
  0
ARC
  8
0
  6
CONTINUOUS
 10
203.000000
 20
182.235001
 40
2.000000
 50
110.487312
 51
180.000000
  0
ARC
  8
0
  6
CONTINUOUS
 10
210.000000
 20
163.500000
 40
22.000000
 50
165.522491
 51
180.000000
  0
LINE
  8
0
  6
CONTINUOUS
 10
188.000000
 20
163.500000
 11
188.000000
 21
136.500000
  0
LINE
  8
0
  6
CONTINUOUS
 10
248.000000
 20
114.500000
 11
210.000000
 21
114.500000
  0
ARC
  8
0
  6
CONTINUOUS
 10
248.000000
 20
136.500000
 40
22.000000
 50
270.000000
 51
290.487305
  0
LINE
  8
0
  6
CONTINUOUS
 10
257.000000
 20
118.260155
 11
257.000000
 21
117.765007
  0
LINE
  8
0
  6
CONTINUOUS
 10
255.000000
 20
119.000000
 11
255.000000
 21
117.135086
  0
LINE
  8
0
  6
CONTINUOUS
 10
265.401367
 20
128.801590
 11
257.481476
 21
119.561737
  0
LINE
  8
0
  6
CONTINUOUS
 10
264.481476
 20
130.801590
 11
255.481491
 21
120.301582
  0
ARC
  8
0
  6
CONTINUOUS
 10
257.000000
 20
119.000000
 40
2.000000
 50
139.398712
 51
180.000000
  0
ARC
  8
0
  6
CONTINUOUS
 10
259.000000
 20
118.260155
 40
2.000000
 50
139.398712
 51
180.000000
  0
ARC
  8
0
  6
CONTINUOUS
 10
266.919861
 20
127.500000
 40
2.000000
 50
90.000000
 51
139.398712
  0
ARC
  8
0
  6
CONTINUOUS
 10
266.000000
 20
129.500000
 40
2.000000
 50
90.000000
 51
139.398712
  0
LINE
  8
0
  6
CONTINUOUS
 10
255.124237
 20
119.693893
 11
257.124237
 21
118.954041
  0
LINE
  8
0
  6
CONTINUOUS
 10
265.164276
 20
131.317032
 11
266.084167
 21
129.317032
  0
LINE
  8
0
  6
CONTINUOUS
 10
266.000000
 20
131.500000
 11
267.773712
 21
131.500000
  0
LINE
  8
0
  6
CONTINUOUS
 10
266.919861
 20
129.500000
 11
267.364929
 21
129.500000
  0
ARC
  8
0
  6
CONTINUOUS
 10
267.773712
 20
133.500000
 40
2.000000
 50
270.000000
 51
351.373077
  0
ARC
  8
0
  6
CONTINUOUS
 10
267.364929
 20
131.500000
 40
2.000000
 50
270.000000
 51
345.522491
  0
ARC
  8
0
  6
CONTINUOUS
 10
253.000000
 20
117.135086
 40
2.000000
 50
-75.522491
 51
0.000000
  0
ARC
  8
0
  6
CONTINUOUS
 10
255.000000
 20
117.765007
 40
2.000000
 50
-69.512688
 51
0.000000
  0
ARC
  8
0
  6
CONTINUOUS
 10
210.000000
 20
136.500000
 40
22.000000
 50
-110.487312
 51
-90.000000
  0
LINE
  8
0
  6
CONTINUOUS
 10
201.000000
 20
118.260155
 11
201.000000
 21
117.765007
  0
LINE
  8
0
  6
CONTINUOUS
 10
203.000000
 20
119.000000
 11
203.000000
 21
117.135086
  0
LINE
  8
0
  6
CONTINUOUS
 10
192.598648
 20
128.801590
 11
200.518509
 21
119.561737
  0
LINE
  8
0
  6
CONTINUOUS
 10
193.518509
 20
130.801590
 11
202.518509
 21
120.301582
  0
ARC
  8
0
  6
CONTINUOUS
 10
201.000000
 20
119.000000
 40
2.000000
 50
0.000000
 51
40.601295
  0
ARC
  8
0
  6
CONTINUOUS
 10
199.000000
 20
118.260155
 40
2.000000
 50
0.000000
 51
40.601295
  0
ARC
  8
0
  6
CONTINUOUS
 10
191.080124
 20
127.500000
 40
2.000000
 50
40.601295
 51
90.000000
  0
ARC
  8
0
  6
CONTINUOUS
 10
192.000000
 20
129.500000
 40
2.000000
 50
40.601295
 51
90.000000
  0
LINE
  8
0
  6
CONTINUOUS
 10
202.875763
 20
119.693893
 11
200.875763
 21
118.954041
  0
LINE
  8
0
  6
CONTINUOUS
 10
192.835709
 20
131.317032
 11
191.915848
 21
129.317032
  0
LINE
  8
0
  6
CONTINUOUS
 10
192.000000
 20
131.500000
 11
190.226273
 21
131.500000
  0
LINE
  8
0
  6
CONTINUOUS
 10
191.080124
 20
129.500000
 11
190.635086
 21
129.500000
  0
ARC
  8
0
  6
CONTINUOUS
 10
190.226273
 20
133.500000
 40
2.000000
 50
-171.373077
 51
-90.000000
  0
ARC
  8
0
  6
CONTINUOUS
 10
190.635086
 20
131.500000
 40
2.000000
 50
-165.522491
 51
-90.000000
  0
ARC
  8
0
  6
CONTINUOUS
 10
205.000000
 20
117.135086
 40
2.000000
 50
180.000000
 51
255.522491
  0
ARC
  8
0
  6
CONTINUOUS
 10
203.000000
 20
117.765007
 40
2.000000
 50
180.000000
 51
249.512680
  0
ARC
  8
0
  6
CONTINUOUS
 10
248.000000
 20
136.500000
 40
22.000000
 50
-14.477512
 51
0.000000
  0
ARC
  8
0
  6
CONTINUOUS
 10
210.000000
 20
136.500000
 40
22.000000
 50
180.000000
 51
194.477509
  0
ARC
  8
0
  6
CONTINUOUS
 10
263.194611
 20
106.936256
 40
6.000000
 50
47.364067
 51
120.358299
  0
ARC
  8
0
  6
CONTINUOUS
 10
263.194611
 20
193.063736
 40
6.000000
 50
-120.358299
 51
-47.364067
  0
ARC
  8
0
  6
CONTINUOUS
 10
194.805389
 20
193.063736
 40
6.000000
 50
-132.635925
 51
-59.641697
  0
ARC
  8
0
  6
CONTINUOUS
 10
194.805389
 20
106.936256
 40
6.000000
 50
59.641697
 51
132.635925
  0
LINE
  8
0
  6
CONTINUOUS
 10
96.444496
 20
112.000000
 11
105.944496
 21
112.000000
  0
LINE
  8
0
  6
CONTINUOUS
 10
96.444496
 20
188.000000
 11
105.944496
 21
188.000000
  0
LINE
  8
0
  6
CONTINUOUS
 10
96.444496
 20
110.000000
 11
96.444496
 21
190.000000
  0
LINE
  8
0
  6
CONTINUOUS
 10
96.444496
 20
119.750999
 11
105.944496
 21
119.750999
  0
LINE
  8
0
  6
CONTINUOUS
 10
96.444496
 20
180.248993
 11
105.944496
 21
180.248993
  0
LINE
  8
0
  6
CONTINUOUS
 10
47.444508
 20
185.000000
 11
47.444508
 21
115.000000
  0
LINE
  8
0
  6
CONTINUOUS
 10
52.444508
 20
110.000000
 11
96.444496
 21
110.000000
  0
LINE
  8
0
  6
CONTINUOUS
 10
52.444508
 20
190.000000
 11
96.444496
 21
190.000000
  0
ARC
  8
0
  6
CONTINUOUS
 10
52.444515
 20
115.000000
 40
5.000000
 50
180.000000
 51
270.000000
  0
ARC
  8
0
  6
CONTINUOUS
 10
52.444508
 20
185.000000
 40
5.000000
 50
90.000000
 51
180.000000
  0
LINE
  8
0
  6
CONTINUOUS
 10
50.194508
 20
124.000000
 11
96.444496
 21
124.000000
  0
LINE
  8
0
  6
CONTINUOUS
 10
50.194508
 20
174.000000
 11
96.444496
 21
174.000000
  0
CIRCLE
  8
0
  6
CONTINUOUS
 10
274.500000
 20
126.500000
 40
3.800000
  0
CIRCLE
  8
0
  6
CONTINUOUS
 10
274.500000
 20
126.500000
 40
3.500000
  0
LINE
  8
0
  6
CONTINUOUS
 10
273.000000
 20
127.433990
 11
273.000000
 21
125.566040
  0
LINE
  8
0
  6
CONTINUOUS
 10
276.000000
 20
127.433990
 11
276.000000
 21
125.566040
  0
LINE
  8
0
  6
CONTINUOUS
 10
274.500000
 20
124.700012
 11
273.000000
 21
125.566040
  0
LINE
  8
0
  6
CONTINUOUS
 10
274.500000
 20
124.700012
 11
276.000000
 21
125.566040
  0
LINE
  8
0
  6
CONTINUOUS
 10
274.500000
 20
128.300018
 11
276.000000
 21
127.433990
  0
LINE
  8
0
  6
CONTINUOUS
 10
274.500000
 20
128.300018
 11
273.000000
 21
127.433990
  0
LINE
  8
0
  6
CENTER
 10
268.948608
 20
126.500000
 11
279.353638
 21
126.500000
  0
LINE
  8
0
  6
CENTER
 10
274.500000
 20
132.043594
 11
274.500000
 21
120.927658
  0
ARC
  8
0
  6
CONTINUOUS
 10
277.000000
 20
120.000000
 40
2.000000
 50
0.000000
 51
90.000000
  0
LINE
  8
0
  6
CONTINUOUS
 10
277.000000
 20
122.000000
 11
274.500000
 21
122.000000
  0
ARC
  8
0
  6
CONTINUOUS
 10
277.000000
 20
133.000000
 40
2.000000
 50
-90.000000
 51
0.000000
  0
LINE
  8
0
  6
CONTINUOUS
 10
277.000000
 20
131.000000
 11
274.500000
 21
131.000000
  0
ARC
  8
0
  6
CONTINUOUS
 10
274.500000
 20
126.500000
 40
4.500000
 50
90.000000
 51
270.000000
  0
CIRCLE
  8
0
  6
CONTINUOUS
 10
274.500000
 20
173.500000
 40
3.800000
  0
CIRCLE
  8
0
  6
CONTINUOUS
 10
274.500000
 20
173.500000
 40
3.500000
  0
LINE
  8
0
  6
CONTINUOUS
 10
273.000000
 20
172.566010
 11
273.000000
 21
174.433960
  0
LINE
  8
0
  6
CONTINUOUS
 10
276.000000
 20
172.566010
 11
276.000000
 21
174.433960
  0
LINE
  8
0
  6
CONTINUOUS
 10
274.500000
 20
175.299988
 11
273.000000
 21
174.433960
  0
LINE
  8
0
  6
CONTINUOUS
 10
274.500000
 20
175.299988
 11
276.000000
 21
174.433960
  0
LINE
  8
0
  6
CONTINUOUS
 10
274.500000
 20
171.699982
 11
276.000000
 21
172.566010
  0
LINE
  8
0
  6
CONTINUOUS
 10
274.500000
 20
171.699982
 11
273.000000
 21
172.566010
  0
LINE
  8
0
  6
CENTER
 10
274.500000
 20
167.956406
 11
274.500000
 21
179.072342
  0
LINE
  8
0
  6
CONTINUOUS
 10
277.000000
 20
178.000000
 11
274.500000
 21
178.000000
  0
LINE
  8
0
  6
CONTINUOUS
 10
277.000000
 20
169.000000
 11
274.500000
 21
169.000000
  0
ARC
  8
0
  6
CONTINUOUS
 10
274.500000
 20
173.500000
 40
4.500000
 50
-270.000000
 51
-90.000000
  0
LINE
  8
0
  6
CENTER
 10
268.948608
 20
173.500000
 11
279.353638
 21
173.500000
  0
ARC
  8
0
  6
CONTINUOUS
 10
277.000000
 20
180.000000
 40
2.000000
 50
-90.000000
 51
0.000000
  0
ARC
  8
0
  6
CONTINUOUS
 10
277.000000
 20
167.000000
 40
2.000000
 50
0.000000
 51
90.000000
  0
CIRCLE
  8
0
  6
CONTINUOUS
 10
183.500000
 20
173.500000
 40
3.800000
  0
CIRCLE
  8
0
  6
CONTINUOUS
 10
183.500000
 20
173.500000
 40
3.500000
  0
LINE
  8
0
  6
CONTINUOUS
 10
185.000000
 20
172.566010
 11
185.000000
 21
174.433960
  0
LINE
  8
0
  6
CONTINUOUS
 10
182.000000
 20
172.566010
 11
182.000000
 21
174.433960
  0
LINE
  8
0
  6
CONTINUOUS
 10
183.500000
 20
175.299988
 11
185.000000
 21
174.433960
  0
LINE
  8
0
  6
CONTINUOUS
 10
183.500000
 20
175.299988
 11
182.000000
 21
174.433960
  0
LINE
  8
0
  6
CONTINUOUS
 10
183.500000
 20
171.699982
 11
182.000000
 21
172.566010
  0
LINE
  8
0
  6
CONTINUOUS
 10
183.500000
 20
171.699982
 11
185.000000
 21
172.566010
  0
LINE
  8
0
  6
CONTINUOUS
 10
181.000000
 20
178.000000
 11
183.500000
 21
178.000000
  0
LINE
  8
0
  6
CONTINUOUS
 10
181.000000
 20
169.000000
 11
183.500000
 21
169.000000
  0
ARC
  8
0
  6
CONTINUOUS
 10
183.500000
 20
173.500000
 40
4.500000
 50
-90.000000
 51
90.000000
  0
ARC
  8
0
  6
CONTINUOUS
 10
181.000000
 20
167.000000
 40
2.000000
 50
90.000000
 51
180.000000
  0
LINE
  8
0
  6
CENTER
 10
183.500000
 20
167.956406
 11
183.500000
 21
179.072342
  0
LINE
  8
0
  6
CENTER
 10
189.051392
 20
173.500000
 11
178.646347
 21
173.500000
  0
ARC
  8
0
  6
CONTINUOUS
 10
181.000000
 20
180.000000
 40
2.000000
 50
180.000000
 51
270.000000
  0
ARC
  8
0
  6
CONTINUOUS
 10
183.500000
 20
126.500000
 40
4.500000
 50
-90.000000
 51
90.000000
  0
LINE
  8
0
  6
CONTINUOUS
 10
181.000000
 20
122.000000
 11
183.500000
 21
122.000000
  0
ARC
  8
0
  6
CONTINUOUS
 10
181.000000
 20
120.000000
 40
2.000000
 50
90.000000
 51
180.000000
  0
CIRCLE
  8
0
  6
CONTINUOUS
 10
183.500000
 20
126.500000
 40
3.800000
  0
CIRCLE
  8
0
  6
CONTINUOUS
 10
183.500000
 20
126.500000
 40
3.500000
  0
LINE
  8
0
  6
CONTINUOUS
 10
183.500000
 20
124.700012
 11
182.000000
 21
125.566040
  0
LINE
  8
0
  6
CONTINUOUS
 10
182.000000
 20
127.433990
 11
182.000000
 21
125.566040
  0
LINE
  8
0
  6
CENTER
 10
189.051392
 20
126.500000
 11
178.646347
 21
126.500000
  0
LINE
  8
0
  6
CENTER
 10
183.500000
 20
132.043594
 11
183.500000
 21
120.927658
  0
LINE
  8
0
  6
CONTINUOUS
 10
183.500000
 20
128.300018
 11
182.000000
 21
127.433990
  0
LINE
  8
0
  6
CONTINUOUS
 10
183.500000
 20
128.300018
 11
185.000000
 21
127.433990
  0
LINE
  8
0
  6
CONTINUOUS
 10
185.000000
 20
127.433990
 11
185.000000
 21
125.566040
  0
LINE
  8
0
  6
CONTINUOUS
 10
183.500000
 20
124.700012
 11
185.000000
 21
125.566040
  0
LINE
  8
0
  6
CONTINUOUS
 10
181.000000
 20
131.000000
 11
183.500000
 21
131.000000
  0
ARC
  8
0
  6
CONTINUOUS
 10
181.000000
 20
133.000000
 40
2.000000
 50
180.000000
 51
270.000000
  0
CIRCLE
  8
0
  6
CONTINUOUS
 10
600.000000
 20
150.000000
 40
19.500000
  0
CIRCLE
  8
0
  6
CONTINUOUS
 10
600.000000
 20
150.000000
 40
16.000000
  0
CIRCLE
  8
0
  6
CONTINUOUS
 10
600.000000
 20
150.000000
 40
23.000000
  0
CIRCLE
  8
0
  6
CONTINUOUS
 10
600.000000
 20
150.000000
 40
25.002001
  0
LINE
  8
0
  6
CONTINUOUS
 10
598.000000
 20
157.800003
 11
602.000000
 21
157.800003
  0
LINE
  8
0
  6
CONTINUOUS
 10
598.000000
 20
157.800003
 11
598.000000
 21
155.656860
  0
LINE
  8
0
  6
CONTINUOUS
 10
602.000000
 20
157.800003
 11
602.000000
 21
155.656860
  0
CIRCLE
  8
0
  6
CONTINUOUS
 10
600.000000
 20
150.000000
 40
10.000000
  0
ARC
  8
0
  6
CONTINUOUS
 10
600.000000
 20
150.000000
 40
6.000000
 50
-250.528778
 51
70.528778
  0
CIRCLE
  8
0
  6
CONTINUOUS
 10
240.000000
 20
150.000000
 40
19.500000
  0
CIRCLE
  8
0
  6
CONTINUOUS
 10
240.000000
 20
150.000000
 40
16.000000
  0
CIRCLE
  8
0
  6
CONTINUOUS
 10
240.000000
 20
150.000000
 40
23.000000
  0
CIRCLE
  8
0
  6
CONTINUOUS
 10
240.000000
 20
150.000000
 40
25.002001
  0
LINE
  8
0
  6
CONTINUOUS
 10
238.000000
 20
157.800003
 11
242.000000
 21
157.800003
  0
LINE
  8
0
  6
CONTINUOUS
 10
238.000000
 20
157.800003
 11
238.000000
 21
155.656860
  0
LINE
  8
0
  6
CONTINUOUS
 10
242.000000
 20
157.800003
 11
242.000000
 21
155.656860
  0
CIRCLE
  8
0
  6
CONTINUOUS
 10
240.000000
 20
150.000000
 40
10.000000
  0
ARC
  8
0
  6
CONTINUOUS
 10
240.000000
 20
150.000000
 40
6.000000
 50
-250.528778
 51
70.528778
  0
LINE
  8
0
  6
CONTINUOUS
 10
561.706909
 20
353.496246
 11
660.293091
 21
353.496246
  0
LINE
  8
0
  6
CONTINUOUS
 10
743.555481
 20
350.996246
 11
734.055481
 21
350.996246
  0
LINE
  8
0
  6
CONTINUOUS
 10
743.555481
 20
274.996246
 11
734.055481
 21
274.996246
  0
LINE
  8
0
  6
CONTINUOUS
 10
743.555481
 20
352.996246
 11
743.555481
 21
272.996246
  0
LINE
  8
0
  6
CONTINUOUS
 10
792.555481
 20
347.996246
 11
792.555481
 21
277.996246
  0
LINE
  8
0
  6
CONTINUOUS
 10
787.555481
 20
352.996246
 11
743.555481
 21
352.996246
  0
LINE
  8
0
  6
CONTINUOUS
 10
787.555481
 20
272.996246
 11
743.555481
 21
272.996246
  0
ARC
  8
0
  6
CONTINUOUS
 10
787.555481
 20
277.996246
 40
5.000000
 50
-90.000000
 51
0.000000
  0
ARC
  8
0
  6
CONTINUOUS
 10
787.555481
 20
347.996277
 40
5.000000
 50
0.000000
 51
90.000000
  0
LINE
  8
0
  6
CONTINUOUS
 10
790.305481
 20
336.996246
 11
743.555481
 21
336.996246
  0
LINE
  8
0
  6
CONTINUOUS
 10
790.305481
 20
288.996246
 11
743.555481
 21
288.996246
  0
LINE
  8
0
  6
CONTINUOUS
 10
734.055481
 20
319.862274
 11
734.055481
 21
350.996246
  0
LINE
  8
0
  6
DASHED
 10
360.000000
 20
127.000000
 11
360.000000
 21
171.568542
  0
LINE
  8
0
  6
DASHED
 10
440.000000
 20
173.000000
 11
440.000000
 21
128.431458
  0
LINE
  8
0
  6
DASHED
 10
423.000000
 20
190.000000
 11
378.431458
 21
190.000000
  0
LINE
  8
0
  6
DASHED
 10
377.000000
 20
110.000000
 11
421.568542
 21
110.000000
  0
LINE
  8
0
  6
DASHED
 10
374.895935
 20
188.535538
 11
361.464478
 21
175.104080
  0
ARC
  8
0
  6
DASHED
 10
365.000000
 20
171.568542
 40
5.000000
 50
135.000000
 51
180.000000
  0
ARC
  8
0
  6
DASHED
 10
378.431458
 20
185.000000
 40
5.000000
 50
90.000000
 51
135.000000
  0
LINE
  8
0
  6
DASHED
 10
438.535522
 20
124.895927
 11
425.104065
 21
111.464462
  0
ARC
  8
0
  6
DASHED
 10
421.568542
 20
115.000000
 40
5.000000
 50
270.000000
 51
315.000000
  0
ARC
  8
0
  6
DASHED
 10
435.000000
 20
128.431458
 40
5.000000
 50
-45.000000
 51
0.000000
  0
LINE
  8
0
  6
DASHED
 10
363.000000
 20
124.000000
 11
366.603027
 21
124.000000
  0
LINE
  8
0
  6
DASHED
 10
374.000000
 20
113.000000
 11
374.000000
 21
116.603027
  0
ARC
  8
0
  6
DASHED
 10
363.000000
 20
127.000000
 40
3.000000
 50
180.000000
 51
270.000000
  0
ARC
  8
0
  6
DASHED
 10
377.000000
 20
113.000000
 40
3.000000
 50
180.000000
 51
270.000000
  0
LINE
  8
0
  6
DASHED
 10
426.000000
 20
187.000000
 11
426.000000
 21
183.396973
  0
LINE
  8
0
  6
DASHED
 10
437.000000
 20
176.000000
 11
433.396973
 21
176.000000
  0
ARC
  8
0
  6
DASHED
 10
423.000000
 20
187.000000
 40
3.000000
 50
0.000000
 51
90.000000
  0
ARC
  8
0
  6
DASHED
 10
437.000000
 20
173.000000
 40
3.000000
 50
0.000000
 51
90.000000
  0
LINE
  8
0
  6
DASHED
 10
366.603027
 20
124.000000
 11
374.000000
 21
116.603027
  0
LINE
  8
0
  6
DASHED
 10
426.000000
 20
183.396973
 11
433.396973
 21
176.000000
  0
CIRCLE
  8
0
  6
CONTINUOUS
 10
186.000000
 20
183.500000
 40
3.400000
  0
CIRCLE
  8
0
  6
CONTINUOUS
 10
186.000000
 20
183.500000
 40
4.250000
  0
CIRCLE
  8
0
  6
CONTINUOUS
 10
186.000000
 20
183.500000
 40
4.000000
  0
CIRCLE
  8
0
  6
CONTINUOUS
 10
186.000000
 20
116.500000
 40
3.400000
  0
CIRCLE
  8
0
  6
CONTINUOUS
 10
186.000000
 20
116.500000
 40
4.250000
  0
CIRCLE
  8
0
  6
CONTINUOUS
 10
186.000000
 20
116.500000
 40
4.000000
  0
CIRCLE
  8
0
  6
CONTINUOUS
 10
272.000000
 20
116.500000
 40
3.400000
  0
CIRCLE
  8
0
  6
CONTINUOUS
 10
272.000000
 20
116.500000
 40
4.250000
  0
CIRCLE
  8
0
  6
CONTINUOUS
 10
272.000000
 20
116.500000
 40
4.000000
  0
CIRCLE
  8
0
  6
CONTINUOUS
 10
272.000000
 20
183.500000
 40
3.400000
  0
CIRCLE
  8
0
  6
CONTINUOUS
 10
272.000000
 20
183.500000
 40
4.250000
  0
CIRCLE
  8
0
  6
CONTINUOUS
 10
272.000000
 20
183.500000
 40
4.000000
  0
CIRCLE
  8
0
  6
CONTINUOUS
 10
568.000000
 20
116.500000
 40
3.400000
  0
CIRCLE
  8
0
  6
CONTINUOUS
 10
568.000000
 20
116.500000
 40
4.000000
  0
CIRCLE
  8
0
  6
CONTINUOUS
 10
654.000000
 20
116.500000
 40
3.400000
  0
CIRCLE
  8
0
  6
CONTINUOUS
 10
654.000000
 20
116.500000
 40
4.000000
  0
CIRCLE
  8
0
  6
CONTINUOUS
 10
654.000000
 20
183.500000
 40
3.400000
  0
CIRCLE
  8
0
  6
CONTINUOUS
 10
654.000000
 20
183.500000
 40
4.000000
  0
CIRCLE
  8
0
  6
CONTINUOUS
 10
568.000000
 20
183.500000
 40
3.400000
  0
CIRCLE
  8
0
  6
CONTINUOUS
 10
568.000000
 20
183.500000
 40
4.000000
  0
TEXT
  8
0
 10
40.000000
 20
78.000000
 40
4.000000
 41
1.000000
  1
F2SM-12-10~120-S40
 50
0.000000
  0
ENDSEC
  0
EOF
