  0
SECTION
  2
HEADER
  9
$ACADVER
  1
AC1014
  9
$ACADMAINTVER
 70
     9
  9
$DWGCODEPAGE
  3
ANSI_932
  9
$INSBASE
 10
0.0
 20
0.0
 30
0.0
  9
$EXTMIN
 10
35.77860278906496
 20
39.66581656667676
 30
0.0
  9
$EXTMAX
 10
828.2582277177532
 20
423.0908279168645
 30
0.0
  9
$LIMMIN
 10
0.0
 20
0.0
  9
$LIMMAX
 10
297.0
 20
210.0
  9
$ORTHOMODE
 70
     1
  9
$REGENMODE
 70
     1
  9
$FILLMODE
 70
     1
  9
$QTEXTMODE
 70
     0
  9
$MIRRTEXT
 70
     0
  9
$DRAGMODE
 70
     2
  9
$LTSCALE
 40
3.0
  9
$OSMODE
 70
    37
  9
$ATTMODE
 70
     1
  9
$TEXTSIZE
 40
2.0
  9
$TRACEWID
 40
1.0
  9
$TEXTSTYLE
  7
STANDARD
  9
$CLAYER
  8
0
  9
$CELTYPE
  6
BYLAYER
  9
$CECOLOR
 62
   256
  9
$CELTSCALE
 40
1.0
  9
$DELOBJ
 70
     1
  9
$DISPSILH
 70
     0
  9
$DIMSCALE
 40
3.0
  9
$DIMASZ
 40
1.8
  9
$DIMEXO
 40
0.625
  9
$DIMDLI
 40
3.75
  9
$DIMRND
 40
0.0
  9
$DIMDLE
 40
0.0
  9
$DIMEXE
 40
0.8
  9
$DIMTP
 40
0.0
  9
$DIMTM
 40
0.0
  9
$DIMTXT
 40
1.8
  9
$DIMCEN
 40
2.5
  9
$DIMTSZ
 40
0.0
  9
$DIMTOL
 70
     0
  9
$DIMLIM
 70
     0
  9
$DIMTIH
 70
     0
  9
$DIMTOH
 70
     0
  9
$DIMSE1
 70
     0
  9
$DIMSE2
 70
     0
  9
$DIMTAD
 70
     1
  9
$DIMZIN
 70
     8
  9
$DIMBLK
  1

  9
$DIMASO
 70
     1
  9
$DIMSHO
 70
     1
  9
$DIMPOST
  1

  9
$DIMAPOST
  1

  9
$DIMALT
 70
     0
  9
$DIMALTD
 70
     4
  9
$DIMALTF
 40
0.0394
  9
$DIMLFAC
 40
1.0
  9
$DIMTOFL
 70
     1
  9
$DIMTVP
 40
0.0
  9
$DIMTIX
 70
     0
  9
$DIMSOXD
 70
     0
  9
$DIMSAH
 70
     0
  9
$DIMBLK1
  1

  9
$DIMBLK2
  1

  9
$DIMSTYLE
  2
STANDARD
  9
$DIMCLRD
 70
     0
  9
$DIMCLRE
 70
     0
  9
$DIMCLRT
 70
     0
  9
$DIMTFAC
 40
1.0
  9
$DIMGAP
 40
0.75
  9
$DIMJUST
 70
     0
  9
$DIMSD1
 70
     0
  9
$DIMSD2
 70
     0
  9
$DIMTOLJ
 70
     1
  9
$DIMTZIN
 70
     0
  9
$DIMALTZ
 70
     0
  9
$DIMALTTZ
 70
     0
  9
$DIMFIT
 70
     3
  9
$DIMUPT
 70
     0
  9
$DIMUNIT
 70
     8
  9
$DIMDEC
 70
     2
  9
$DIMTDEC
 70
     2
  9
$DIMALTU
 70
     8
  9
$DIMALTTD
 70
     4
  9
$DIMTXSTY
  7
STANDARD
  9
$DIMAUNIT
 70
     0
  9
$LUNITS
 70
     2
  9
$LUPREC
 70
     3
  9
$SKETCHINC
 40
1.0
  9
$FILLETRAD
 40
10.0
  9
$AUNITS
 70
     0
  9
$AUPREC
 70
     2
  9
$MENU
  1
.
  9
$ELEVATION
 40
0.0
  9
$PELEVATION
 40
0.0
  9
$THICKNESS
 40
0.0
  9
$LIMCHECK
 70
     0
  9
$BLIPMODE
 70
     0
  9
$CHAMFERA
 40
0.0
  9
$CHAMFERB
 40
0.0
  9
$CHAMFERC
 40
20.0
  9
$CHAMFERD
 40
0.0
  9
$SKPOLY
 70
     0
  9
$TDCREATE
 40
2453557.745358970
  9
$TDUPDATE
 40
2453615.571638449
  9
$TDINDWG
 40
0.3046155093
  9
$TDUSRTIMER
 40
0.3046153356
  9
$USRTIMER
 70
     1
  9
$ANGBASE
 50
0.0
  9
$ANGDIR
 70
     0
  9
$PDMODE
 70
     0
  9
$PDSIZE
 40
-10.0
  9
$PLINEWID
 40
0.0
  9
$COORDS
 70
     2
  9
$SPLFRAME
 70
     0
  9
$SPLINETYPE
 70
     6
  9
$SPLINESEGS
 70
     8
  9
$ATTDIA
 70
     0
  9
$ATTREQ
 70
     1
  9
$HANDLING
 70
-16383
  9
$HANDSEED
  5
24B2
  9
$SURFTAB1
 70
     6
  9
$SURFTAB2
 70
     6
  9
$SURFTYPE
 70
     6
  9
$SURFU
 70
     6
  9
$SURFV
 70
     6
  9
$UCSNAME
  2

  9
$UCSORG
 10
0.0
 20
0.0
 30
0.0
  9
$UCSXDIR
 10
1.0
 20
0.0
 30
0.0
  9
$UCSYDIR
 10
0.0
 20
1.0
 30
0.0
  9
$PUCSNAME
  2

  9
$PUCSORG
 10
0.0
 20
0.0
 30
0.0
  9
$PUCSXDIR
 10
1.0
 20
0.0
 30
0.0
  9
$PUCSYDIR
 10
0.0
 20
1.0
 30
0.0
  9
$USERI1
 70
     0
  9
$USERI2
 70
     0
  9
$USERI3
 70
     0
  9
$USERI4
 70
     0
  9
$USERI5
 70
     0
  9
$USERR1
 40
0.0
  9
$USERR2
 40
0.0
  9
$USERR3
 40
0.0
  9
$USERR4
 40
0.0
  9
$USERR5
 40
0.0
  9
$WORLDVIEW
 70
     1
  9
$SHADEDGE
 70
     3
  9
$SHADEDIF
 70
    70
  9
$TILEMODE
 70
     1
  9
$MAXACTVP
 70
    48
  9
$PINSBASE
 10
0.0
 20
0.0
 30
0.0
  9
$PLIMCHECK
 70
     0
  9
$PEXTMIN
 10
0.0
 20
0.0
 30
0.0
  9
$PEXTMAX
 10
0.0
 20
0.0
 30
0.0
  9
$PLIMMIN
 10
0.0
 20
0.0
  9
$PLIMMAX
 10
12.0
 20
9.0
  9
$UNITMODE
 70
     0
  9
$VISRETAIN
 70
     1
  9
$PLINEGEN
 70
     0
  9
$PSLTSCALE
 70
     1
  9
$TREEDEPTH
 70
  3020
  9
$PICKSTYLE
 70
     1
  9
$CMLSTYLE
  2
STANDARD
  9
$CMLJUST
 70
     0
  9
$CMLSCALE
 40
1.0
  9
$PROXYGRAPHICS
 70
     1
  9
$MEASUREMENT
 70
     0
  0
ENDSEC
  0
SECTION
  2
CLASSES
  0
CLASS
  1
DICTIONARYVAR
  2
AcDbDictionaryVar
  3
AutoCAD 2000
 90
        0
280
     0
281
     0
  0
CLASS
  1
ACDBDICTIONARYWDFLT
  2
AcDbDictionaryWithDefault
  3
AutoCAD 2000
 90
        0
280
     0
281
     0
  0
CLASS
  1
ACDBPLACEHOLDER
  2
AcDbPlaceHolder
  3
AutoCAD 2000
 90
        0
280
     0
281
     0
  0
CLASS
  1
LAYOUT
  2
AcDbLayout
  3
AutoCAD 2000
 90
        0
280
     0
281
     0
  0
CLASS
  1
LONG_TRANSACTION
  2
AcDbLongTransaction
  3
AutoCAD 2000
 90
        0
280
     0
281
     0
  0
CLASS
  1
LWPOLYLINE
  2
AcDbPolyline
  3
AutoCAD 2000
 90
        0
280
     0
281
     1
  0
CLASS
  1
HATCH
  2
AcDbHatch
  3
AutoCAD 2000
 90
        0
280
     0
281
     1
  0
CLASS
  1
XRECORD
  2
AcDbXrecord
  3
AutoCAD 2000
 90
        0
280
     0
281
     0
  0
ENDSEC
  0
SECTION
  2
TABLES
  0
TABLE
  2
VPORT
  5
6E
330
0
100
AcDbSymbolTable
 70
     2
  0
VPORT
  5
248C
330
6E
100
AcDbSymbolTableRecord
100
AcDbViewportTableRecord
  2
*ACTIVE
 70
     0
 10
0.0
 20
0.0
 11
1.0
 21
1.0
 12
440.9130390486762
 22
248.275860540859
 13
0.0
 23
0.0
 14
10.0
 24
10.0
 15
10.0
 25
10.0
 16
0.0
 26
0.0
 36
1.0
 17
0.0
 27
0.0
 37
0.0
 40
519.7204496417864
 41
1.566970091027308
 42
50.0
 43
0.0
 44
0.0
 50
0.0
 51
0.0
 71
     0
 72
   100
 73
     1
 74
     3
 75
     0
 76
     0
 77
     0
 78
     0
  0
ENDTAB
  0
TABLE
  2
LTYPE
  5
69
330
0
100
AcDbSymbolTable
 70
     6
  0
LTYPE
  5
6A
330
69
100
AcDbSymbolTableRecord
100
AcDbLinetypeTableRecord
  2
BYBLOCK
 70
     0
  3

 72
    65
 73
     0
 40
0.0
  0
LTYPE
  5
6B
330
69
100
AcDbSymbolTableRecord
100
AcDbLinetypeTableRecord
  2
BYLAYER
 70
     0
  3

 72
    65
 73
     0
 40
0.0
  0
LTYPE
  5
8
330
69
100
AcDbSymbolTableRecord
100
AcDbLinetypeTableRecord
  2
CONTINUOUS
 70
     0
  3
Solid line
 72
    65
 73
     0
 40
0.0
  0
LTYPE
  5
27C
330
69
100
AcDbSymbolTableRecord
100
AcDbLinetypeTableRecord
  2
SEKKEI_A2_
 70
     0
  3
center(A2)  ____ _ ____ _ ____ _ ____ _ ____ _ 
 72
    65
 73
     4
 40
14.28749999999999
 49
9.525
 74
     0
 49
-1.587499999999999
 74
     0
 49
1.587499999999999
 74
     0
 49
-1.587499999999999
 74
     0
  0
LTYPE
  5
2B4
330
69
100
AcDbSymbolTableRecord
100
AcDbLinetypeTableRecord
  2
HIDDEN2
 70
     0
  3
Hidden (.5x) _ _ _ _ _ _ _ _ _ _ _ _ _ _ _ _ _
 72
    65
 73
     2
 40
4.762499999999999
 49
3.174999999999999
 74
     0
 49
-1.587499999999999
 74
     0
  0
LTYPE
  5
477
330
69
100
AcDbSymbolTableRecord
100
AcDbLinetypeTableRecord
  2
SEKKEI-P_A4_
 70
     0
  3
Phantom(A4)  ____ _ _ ____ _ _ ____ _ _ _____
 72
    65
 73
     6
 40
15.0
 49
7.5
 74
     0
 49
-1.5
 74
     0
 49
1.5
 74
     0
 49
-1.5
 74
     0
 49
1.5
 74
     0
 49
-1.5
 74
     0
  0
LTYPE
  5
48F
330
69
100
AcDbSymbolTableRecord
100
AcDbLinetypeTableRecord
  2
SEKKEI_H
 70
     0
  3
Hidden-S _ _ _ _ _ _ _ _ _ _ _ _ _ _ _ _ _
 72
    65
 73
     2
 40
2.381249999999999
 49
1.587499999999999
 74
     0
 49
-0.79375
 74
     0
  0
LTYPE
  5
494
330
69
100
AcDbSymbolTableRecord
100
AcDbLinetypeTableRecord
  2
SEKKEI_P_S
 70
     0
  3
Phantom_S   __ _ _ __ _ _ __ _ _ ___
 72
    65
 73
     6
 40
7.5
 49
3.75
 74
     0
 49
-0.75
 74
     0
 49
0.75
 74
     0
 49
-0.75
 74
     0
 49
0.75
 74
     0
 49
-0.75
 74
     0
  0
ENDTAB
  0
TABLE
  2
LAYER
  5
66
330
0
100
AcDbSymbolTable
 70
    10
  0
LAYER
  5
5E
330
66
100
AcDbSymbolTableRecord
100
AcDbLayerTableRecord
  2
0
 70
     0
 62
     7
  6
CONTINUOUS
  0
LAYER
  5
3E
330
66
100
AcDbSymbolTableRecord
100
AcDbLayerTableRecord
  2
CENTER
 70
     0
 62
     3
  6
SEKKEI_A2_
  0
LAYER
  5
2B5
330
66
100
AcDbSymbolTableRecord
100
AcDbLayerTableRecord
  2
HIDS
 70
     0
 62
     1
  6
HIDDEN2
  0
LAYER
  5
2BA
330
66
100
AcDbSymbolTableRecord
100
AcDbLayerTableRecord
  2
HOJO
 70
     0
 62
     4
  6
CONTINUOUS
  0
LAYER
  5
3FA
330
66
100
AcDbSymbolTableRecord
100
AcDbLayerTableRecord
  2
TITLE
 70
     0
 62
     4
  6
CONTINUOUS
  0
LAYER
  5
478
330
66
100
AcDbSymbolTableRecord
100
AcDbLayerTableRecord
  2
PHAS
 70
     0
 62
     2
  6
SEKKEI-P_A4_
  0
ENDTAB
  0
TABLE
  2
STYLE
  5
67
330
0
100
AcDbSymbolTable
 70
     1
  0
STYLE
  5
16
330
67
100
AcDbSymbolTableRecord
100
AcDbTextStyleTableRecord
  2
STANDARD
 70
     0
 40
0.0
 41
1.0
 50
0.0
 71
     0
 42
2.0
  3
simplex.shx
  4
extfont.shx
  0
ENDTAB
  0
TABLE
  2
VIEW
  5
6C
330
0
100
AcDbSymbolTable
 70
     0
  0
ENDTAB
  0
TABLE
  2
UCS
  5
6D
330
0
100
AcDbSymbolTable
 70
     0
  0
ENDTAB
  0
TABLE
  2
APPID
  5
70
330
0
100
AcDbSymbolTable
 70
     1
  0
APPID
  5
71
330
70
100
AcDbSymbolTableRecord
100
AcDbRegAppTableRecord
  2
ACAD
 70
     0
  0
ENDTAB
  0
TABLE
  2
DIMSTYLE
  5
72
330
0
100
AcDbSymbolTable
 70
     1
  0
DIMSTYLE
105
73
102
{ACAD_REACTORS
330
1041
330
1054
330
10BC
330
112B
330
1286
102
}
330
72
100
AcDbSymbolTableRecord
100
AcDbDimStyleTableRecord
  2
STANDARD
 70
     0
  3

  4

  5

  6

  7

 40
3.0
 41
1.8
 42
0.625
 43
3.75
 44
0.8
 45
0.0
 46
0.0
 47
0.0
 48
0.0
140
1.8
141
2.5
142
0.0
143
0.0394
144
1.0
145
0.0
146
1.0
147
0.75
 71
     0
 72
     0
 73
     0
 74
     0
 75
     0
 76
     0
 77
     1
 78
     8
170
     0
171
     4
172
     1
173
     0
174
     0
175
     0
176
     0
177
     0
178
     0
270
     8
271
     2
272
     2
273
     8
274
     4
340
16
275
     0
280
     0
281
     0
282
     0
283
     1
284
     0
285
     0
286
     0
287
     3
288
     0
  0
ENDTAB
  0
TABLE
  2
BLOCK_RECORD
  5
1
330
0
100
AcDbSymbolTable
 70
    54
  0
BLOCK_RECORD
  5
2
102
{ACAD_XDICTIONARY
360
24AE
102
}
330
1
100
AcDbSymbolTableRecord
100
AcDbBlockTableRecord
  2
*MODEL_SPACE
  0
BLOCK_RECORD
  5
2487
102
{ACAD_XDICTIONARY
360
24B0
102
}
330
1
100
AcDbSymbolTableRecord
100
AcDbBlockTableRecord
  2
*PAPER_SPACE
  0
ENDTAB
  0
ENDSEC
  0
SECTION
  2
BLOCKS
  0
BLOCK
  5
5D
330
2
100
AcDbEntity
  8
0
100
AcDbBlockBegin
  2
*MODEL_SPACE
 70
     0
 10
0.0
 20
0.0
 30
0.0
  3
*MODEL_SPACE
  1

  0
ENDBLK
  5
5F
330
2
100
AcDbEntity
  8
0
100
AcDbBlockEnd
  0
BLOCK
  5
2489
330
2487
100
AcDbEntity
 67
     1
  8
0
100
AcDbBlockBegin
  2
*PAPER_SPACE
 70
     0
 10
0.0
 20
0.0
 30
0.0
  3
*PAPER_SPACE
  1

  0
ENDBLK
  5
248A
330
2487
100
AcDbEntity
 67
     1
  8
0
100
AcDbBlockEnd
  0
ENDSEC
  0
SECTION
  2
ENTITIES
  0
LINE
  5
7FC
330
2
100
AcDbEntity
  8
HIDS
100
AcDbLine
 10
381.3475393156591
 20
112.5033779652117
 30
0.0
 11
425.916081315659
 21
112.5033779652117
 31
0.0
  0
LINE
  5
7FD
330
2
100
AcDbEntity
  8
HIDS
100
AcDbLine
 10
427.3475393156591
 20
192.5033779652117
 30
0.0
 11
382.7789973156591
 21
192.5033779652117
 31
0.0
  0
LINE
  5
80B
330
2
100
AcDbEntity
  8
HIDS
100
AcDbLine
 10
383.312627315659
 20
114.8705429652117
 30
0.0
 11
404.347539315659
 21
114.5033779652117
 31
0.0
  0
LINE
  5
80C
330
2
100
AcDbEntity
  8
HIDS
100
AcDbLine
 10
383.312627315659
 20
190.1362059652117
 30
0.0
 11
404.347539315659
 21
190.5033779652116
 31
0.0
  0
CIRCLE
  5
810
330
2
100
AcDbEntity
  8
HOJO
100
AcDbCircle
 10
268.8546247572992
 20
186.0033779652117
 30
0.0
 40
4.0
  0
CIRCLE
  5
811
330
2
100
AcDbEntity
  8
0
100
AcDbCircle
 10
268.8546247572992
 20
186.0033779652117
 30
0.0
 40
4.25
  0
CIRCLE
  5
812
330
2
100
AcDbEntity
  8
HOJO
100
AcDbCircle
 10
182.8546247572992
 20
186.0033779652117
 30
0.0
 40
4.0
  0
CIRCLE
  5
813
330
2
100
AcDbEntity
  8
0
100
AcDbCircle
 10
182.8546247572992
 20
186.0033779652117
 30
0.0
 40
4.25
  0
LINE
  5
814
330
2
100
AcDbEntity
  8
HIDS
100
AcDbLine
 10
379.2434743156591
 20
191.0389159652116
 30
0.0
 11
365.8120173156591
 21
177.6074579652117
 31
0.0
  0
ARC
  5
815
330
2
100
AcDbEntity
  8
0
100
AcDbCircle
 10
177.8546247572992
 20
182.5033779652117
 30
0.0
 40
2.0
100
AcDbArc
 50
180.0
 51
270.0
  0
ARC
  5
816
330
2
100
AcDbEntity
  8
0
100
AcDbCircle
 10
273.8546247572992
 20
182.5033779652117
 30
0.0
 40
2.0
100
AcDbArc
 50
270.0
 51
0.0
  0
LINE
  5
817
330
2
100
AcDbEntity
  8
0
100
AcDbLine
 10
44.29913275729927
 20
187.5033779652117
 30
0.0
 11
44.29913275729927
 21
117.5033779652117
 31
0.0
  0
LINE
  5
818
330
2
100
AcDbEntity
  8
0
100
AcDbLine
 10
93.2991207572993
 20
112.5033779652117
 30
0.0
 11
93.2991207572993
 21
192.5033779652117
 31
0.0
  0
ARC
  5
819
330
2
100
AcDbEntity
  8
0
100
AcDbCircle
 10
197.8546247572992
 20
183.5033779652117
 30
0.0
 40
2.0
100
AcDbArc
 50
319.3987049999997
 51
0.0
  0
LINE
  5
81A
330
2
100
AcDbEntity
  8
0
100
AcDbLine
 10
189.4532727572992
 20
173.7017879652116
 30
0.0
 11
197.3731337572992
 21
182.9416409652117
 31
0.0
  0
ARC
  5
81B
330
2
100
AcDbEntity
  8
0
100
AcDbCircle
 10
253.8546247572992
 20
183.5033779652117
 30
0.0
 40
2.0
100
AcDbArc
 50
180.0
 51
220.6012879999999
  0
LINE
  5
81C
330
2
100
AcDbEntity
  8
0
100
AcDbLine
 10
262.2559917572991
 20
173.7017879652116
 30
0.0
 11
254.3361007572991
 21
182.9416409652117
 31
0.0
  0
LINE
  5
81E
330
2
100
AcDbEntity
  8
0
100
AcDbLine
 10
275.8546247572992
 20
119.0033779652117
 30
0.0
 11
275.8546247572992
 21
186.0033779652117
 31
0.0
  0
LINE
  5
820
330
2
100
AcDbEntity
  8
0
100
AcDbLine
 10
175.8546247572992
 20
186.0033779652117
 30
0.0
 11
175.8546247572992
 21
168.8318079652117
 31
0.0
  0
LINE
  5
821
330
2
100
AcDbEntity
  8
0
100
AcDbLine
 10
102.7991207572993
 20
190.5033779652116
 30
0.0
 11
102.7991207572993
 21
114.5033779652117
 31
0.0
  0
ARC
  5
825
330
2
100
AcDbEntity
  8
HIDS
100
AcDbCircle
 10
378.347539315659
 20
184.2051139652117
 30
0.0
 40
3.0
100
AcDbArc
 50
309.3567009999997
 51
0.0
  0
LINE
  5
827
330
2
100
AcDbEntity
  8
0
100
AcDbLine
 10
102.7991207572993
 20
122.2544159652117
 30
0.0
 11
175.8546247572992
 21
122.2544159652117
 31
0.0
  0
LINE
  5
828
330
2
100
AcDbEntity
  8
0
100
AcDbLine
 10
102.7991207572993
 20
114.5033779652117
 30
0.0
 11
174.4958757572992
 21
114.5033779652117
 31
0.0
  0
LINE
  5
829
330
2
100
AcDbEntity
  8
CENTER
100
AcDbLine
 10
283.3953957572991
 20
152.5033779652117
 30
0.0
 11
35.77860278906496
 21
152.5033779652117
 31
0.0
  0
LINE
  5
82B
330
2
100
AcDbEntity
  8
0
100
AcDbLine
 10
49.29913275729927
 20
112.5033779652117
 30
0.0
 11
93.2991207572993
 21
112.5033779652117
 31
0.0
  0
ARC
  5
82C
330
2
100
AcDbEntity
  8
0
100
AcDbCircle
 10
49.29913975729926
 20
117.5033779652117
 30
0.0
 40
5.0
100
AcDbArc
 50
180.0
 51
270.0
  0
LINE
  5
82D
330
2
100
AcDbEntity
  8
0
100
AcDbLine
 10
93.2991207572993
 20
122.2543769652116
 30
0.0
 11
102.7991207572993
 21
122.2543769652116
 31
0.0
  0
LINE
  5
82E
330
2
100
AcDbEntity
  8
0
100
AcDbLine
 10
93.2991207572993
 20
114.5033779652117
 30
0.0
 11
102.7991207572993
 21
114.5033779652117
 31
0.0
  0
LINE
  5
82F
330
2
100
AcDbEntity
  8
0
100
AcDbLine
 10
47.04913275729928
 20
176.5033779652117
 30
0.0
 11
93.2991207572993
 21
176.5033779652117
 31
0.0
  0
LINE
  5
830
330
2
100
AcDbEntity
  8
0
100
AcDbLine
 10
47.04913275729928
 20
126.5033779652117
 30
0.0
 11
93.2991207572993
 21
126.5033779652117
 31
0.0
  0
CIRCLE
  5
831
330
2
100
AcDbEntity
  8
HOJO
100
AcDbCircle
 10
268.8546247572992
 20
119.0033779652117
 30
0.0
 40
4.0
  0
CIRCLE
  5
832
330
2
100
AcDbEntity
  8
0
100
AcDbCircle
 10
268.8546247572992
 20
119.0033779652117
 30
0.0
 40
4.25
  0
CIRCLE
  5
833
330
2
100
AcDbEntity
  8
0
100
AcDbCircle
 10
268.8546247572992
 20
119.0033779652117
 30
0.0
 40
3.399999999999999
  0
LINE
  5
835
330
2
100
AcDbEntity
  8
0
100
AcDbLine
 10
273.8546247572992
 20
171.5033779652117
 30
0.0
 11
271.3546247572992
 21
171.5033779652117
 31
0.0
  0
LINE
  5
836
330
2
100
AcDbEntity
  8
0
100
AcDbLine
 10
273.8546247572992
 20
180.5033779652117
 30
0.0
 11
271.3546247572992
 21
180.5033779652117
 31
0.0
  0
LINE
  5
837
330
2
100
AcDbEntity
  8
0
100
AcDbLine
 10
271.3546247572992
 20
174.2033599652117
 30
0.0
 11
272.8546247572992
 21
175.0693879652117
 31
0.0
  0
LINE
  5
838
330
2
100
AcDbEntity
  8
0
100
AcDbLine
 10
271.3546247572992
 20
177.8033659652116
 30
0.0
 11
272.8546247572992
 21
176.9373379652117
 31
0.0
  0
CIRCLE
  5
839
330
2
100
AcDbEntity
  8
0
100
AcDbCircle
 10
271.3546247572992
 20
176.0033779652117
 30
0.0
 40
3.5
  0
CIRCLE
  5
83A
330
2
100
AcDbEntity
  8
0
100
AcDbCircle
 10
271.3546247572992
 20
176.0033779652117
 30
0.0
 40
3.799999999999999
  0
LINE
  5
83B
330
2
100
AcDbEntity
  8
0
100
AcDbLine
 10
273.8546247572992
 20
133.5033779652117
 30
0.0
 11
271.3546247572992
 21
133.5033779652117
 31
0.0
  0
LINE
  5
83C
330
2
100
AcDbEntity
  8
0
100
AcDbLine
 10
273.8546247572992
 20
124.5033779652117
 30
0.0
 11
271.3546247572992
 21
124.5033779652117
 31
0.0
  0
LINE
  5
83E
330
2
100
AcDbEntity
  8
0
100
AcDbLine
 10
271.3546247572992
 20
130.8033959652117
 30
0.0
 11
272.8546247572992
 21
129.9373679652117
 31
0.0
  0
LINE
  5
83F
330
2
100
AcDbEntity
  8
0
100
AcDbLine
 10
271.3546247572992
 20
127.2033899652117
 30
0.0
 11
272.8546247572992
 21
128.0694179652116
 31
0.0
  0
CIRCLE
  5
840
330
2
100
AcDbEntity
  8
0
100
AcDbCircle
 10
271.3546247572992
 20
129.0033779652117
 30
0.0
 40
3.5
  0
CIRCLE
  5
841
330
2
100
AcDbEntity
  8
0
100
AcDbCircle
 10
271.3546247572992
 20
129.0033779652117
 30
0.0
 40
3.799999999999999
  0
ARC
  5
842
330
2
100
AcDbEntity
  8
0
100
AcDbCircle
 10
268.8546247572992
 20
119.0033779652117
 30
0.0
 40
7.0
100
AcDbArc
 50
227.3640749999997
 51
0.0
  0
CIRCLE
  5
845
330
2
100
AcDbEntity
  8
0
100
AcDbCircle
 10
180.3546247572992
 20
129.0033779652117
 30
0.0
 40
3.5
  0
CIRCLE
  5
846
330
2
100
AcDbEntity
  8
0
100
AcDbCircle
 10
180.3546247572992
 20
129.0033779652117
 30
0.0
 40
3.799999999999999
  0
ARC
  5
847
330
2
100
AcDbEntity
  8
0
100
AcDbCircle
 10
180.3546247572992
 20
129.0033779652117
 30
0.0
 40
4.5
100
AcDbArc
 50
270.0
 51
90.0
  0
ARC
  5
848
330
2
100
AcDbEntity
  8
0
100
AcDbCircle
 10
271.3546247572992
 20
129.0033779652117
 30
0.0
 40
4.5
100
AcDbArc
 50
90.0
 51
270.0
  0
LINE
  5
84A
330
2
100
AcDbEntity
  8
0
100
AcDbLine
 10
190.3731337572992
 20
133.3049679652117
 30
0.0
 11
199.3731337572992
 21
122.8049599652117
 31
0.0
  0
LINE
  5
84B
330
2
100
AcDbEntity
  8
0
100
AcDbLine
 10
189.4532727572992
 20
131.3049679652117
 30
0.0
 11
197.3731337572992
 21
122.0651149652117
 31
0.0
  0
LINE
  5
84C
330
2
100
AcDbEntity
  8
0
100
AcDbLine
 10
261.3361007572991
 20
133.3049679652117
 30
0.0
 11
252.3361157572992
 21
122.8049599652117
 31
0.0
  0
LINE
  5
84D
330
2
100
AcDbEntity
  8
0
100
AcDbLine
 10
262.2559917572991
 20
131.3049679652117
 30
0.0
 11
254.3361007572991
 21
122.0651149652117
 31
0.0
  0
LINE
  5
84E
330
2
100
AcDbEntity
  8
0
100
AcDbLine
 10
175.8546247572992
 20
136.1749479652116
 30
0.0
 11
175.8546247572992
 21
119.0033779652117
 31
0.0
  0
LINE
  5
84F
330
2
100
AcDbEntity
  8
0
100
AcDbLine
 10
244.8546247572992
 20
117.0033779652117
 30
0.0
 11
206.8546247572992
 21
117.0033779652117
 31
0.0
  0
LINE
  5
850
330
2
100
AcDbEntity
  8
0
100
AcDbLine
 10
182.8546247572992
 20
112.0033779652117
 30
0.0
 11
268.8546247572992
 21
112.0033779652117
 31
0.0
  0
ARC
  5
851
330
2
100
AcDbEntity
  8
0
100
AcDbCircle
 10
177.8546247572992
 20
122.5033779652117
 30
0.0
 40
2.0
100
AcDbArc
 50
90.0
 51
180.0
  0
LINE
  5
852
330
2
100
AcDbEntity
  8
0
100
AcDbLine
 10
175.1910047572992
 20
114.3786829652117
 30
0.0
 11
180.4216417572991
 21
112.4397949652117
 31
0.0
  0
ARC
  5
853
330
2
100
AcDbEntity
  8
0
100
AcDbCircle
 10
182.8546247572992
 20
119.0033779652117
 30
0.0
 40
7.0
100
AcDbArc
 50
180.0
 51
312.6359250000002
  0
ARC
  5
855
330
2
100
AcDbEntity
  8
0
100
AcDbCircle
 10
174.4958757572992
 20
112.5033779652117
 30
0.0
 40
2.0
100
AcDbArc
 50
69.66126999999999
 51
90.0
  0
ARC
  5
856
330
2
100
AcDbEntity
  8
0
100
AcDbCircle
 10
202.2552897572992
 20
122.0033779652117
 30
0.0
 40
10.0
100
AcDbArc
 50
247.6683580000006
 51
270.0
  0
ARC
  5
858
330
2
100
AcDbEntity
  8
0
100
AcDbCircle
 10
191.6600137572992
 20
109.4396339652117
 30
0.0
 40
6.0
100
AcDbArc
 50
59.64169700000056
 51
132.6359250000002
  0
CIRCLE
  5
859
330
2
100
AcDbEntity
  8
HOJO
100
AcDbCircle
 10
182.8546247572992
 20
119.0033779652117
 30
0.0
 40
4.0
  0
CIRCLE
  5
85A
330
2
100
AcDbEntity
  8
0
100
AcDbCircle
 10
182.8546247572992
 20
119.0033779652117
 30
0.0
 40
4.25
  0
CIRCLE
  5
85B
330
2
100
AcDbEntity
  8
0
100
AcDbCircle
 10
182.8546247572992
 20
119.0033779652117
 30
0.0
 40
3.399999999999999
  0
LINE
  5
85C
330
2
100
AcDbEntity
  8
0
100
AcDbLine
 10
177.8546247572992
 20
124.5033779652117
 30
0.0
 11
180.3546247572992
 21
124.5033779652117
 31
0.0
  0
ARC
  5
85D
330
2
100
AcDbEntity
  8
0
100
AcDbCircle
 10
199.8546247572992
 20
120.2683849652117
 30
0.0
 40
2.0
100
AcDbArc
 50
180.0
 51
249.5126799999996
  0
ARC
  5
85E
330
2
100
AcDbEntity
  8
0
100
AcDbCircle
 10
201.8546247572992
 20
119.6384639652117
 30
0.0
 40
2.0
100
AcDbArc
 50
180.0
 51
255.5224910000005
  0
ARC
  5
85F
330
2
100
AcDbEntity
  8
0
100
AcDbCircle
 10
206.8546247572992
 20
139.0033779652117
 30
0.0
 40
22.0
100
AcDbArc
 50
249.5126879999996
 51
270.0
  0
ARC
  5
860
330
2
100
AcDbEntity
  8
0
100
AcDbCircle
 10
209.8546247572992
 20
140.5033779652117
 30
0.0
 40
30.0
100
AcDbArc
 50
239.6417009999999
 51
247.6683580000006
  0
LINE
  5
861
330
2
100
AcDbEntity
  8
0
100
AcDbLine
 10
199.7303877572992
 20
122.1972709652117
 30
0.0
 11
197.7303877572992
 21
121.4574189652116
 31
0.0
  0
ARC
  5
862
330
2
100
AcDbEntity
  8
0
100
AcDbCircle
 10
195.8546247572992
 20
120.7635329652117
 30
0.0
 40
2.0
100
AcDbArc
 50
0.0
 51
40.60129500000027
  0
ARC
  5
863
330
2
100
AcDbEntity
  8
0
100
AcDbCircle
 10
197.8546247572992
 20
121.5033779652117
 30
0.0
 40
2.0
100
AcDbArc
 50
0.0
 51
40.60129500000027
  0
LINE
  5
864
330
2
100
AcDbEntity
  8
0
100
AcDbLine
 10
199.8546247572992
 20
121.5033779652117
 30
0.0
 11
199.8546247572992
 21
119.6384639652117
 31
0.0
  0
LINE
  5
865
330
2
100
AcDbEntity
  8
0
100
AcDbLine
 10
197.8546247572992
 20
120.7635329652117
 30
0.0
 11
197.8546247572992
 21
120.2683849652117
 31
0.0
  0
ARC
  5
866
330
2
100
AcDbEntity
  8
0
100
AcDbCircle
 10
249.4539597572992
 20
122.0033779652117
 30
0.0
 40
10.0
100
AcDbArc
 50
270.0
 51
292.3316419999995
  0
ARC
  5
868
330
2
100
AcDbEntity
  8
0
100
AcDbCircle
 10
241.8546247572992
 20
140.5033779652117
 30
0.0
 40
30.0
100
AcDbArc
 50
292.3316419999995
 51
300.3583029999994
  0
ARC
  5
869
330
2
100
AcDbEntity
  8
0
100
AcDbCircle
 10
251.8546247572992
 20
120.2683849652117
 30
0.0
 40
2.0
100
AcDbArc
 50
290.4873119999995
 51
0.0
  0
ARC
  5
86A
330
2
100
AcDbEntity
  8
0
100
AcDbCircle
 10
249.8546247572992
 20
119.6384639652117
 30
0.0
 40
2.0
100
AcDbArc
 50
284.4775089999994
 51
0.0
  0
ARC
  5
86B
330
2
100
AcDbEntity
  8
0
100
AcDbCircle
 10
244.8546247572992
 20
139.0033779652117
 30
0.0
 40
22.0
100
AcDbArc
 50
270.0
 51
290.4873049999995
  0
LINE
  5
86C
330
2
100
AcDbEntity
  8
0
100
AcDbLine
 10
251.9788617572992
 20
122.1972709652117
 30
0.0
 11
253.9788617572992
 21
121.4574189652116
 31
0.0
  0
ARC
  5
86D
330
2
100
AcDbEntity
  8
0
100
AcDbCircle
 10
255.8546247572992
 20
120.7635329652117
 30
0.0
 40
2.0
100
AcDbArc
 50
139.398712
 51
180.0
  0
ARC
  5
86E
330
2
100
AcDbEntity
  8
0
100
AcDbCircle
 10
253.8546247572992
 20
121.5033779652117
 30
0.0
 40
2.0
100
AcDbArc
 50
139.398712
 51
180.0
  0
LINE
  5
86F
330
2
100
AcDbEntity
  8
0
100
AcDbLine
 10
251.8546247572992
 20
121.5033779652117
 30
0.0
 11
251.8546247572992
 21
119.6384639652117
 31
0.0
  0
LINE
  5
870
330
2
100
AcDbEntity
  8
0
100
AcDbLine
 10
253.8546247572992
 20
120.7635329652117
 30
0.0
 11
253.8546247572992
 21
120.2683849652117
 31
0.0
  0
ARC
  5
871
330
2
100
AcDbEntity
  8
0
100
AcDbCircle
 10
260.0492357572992
 20
109.4396339652117
 30
0.0
 40
6.0
100
AcDbArc
 50
47.3640670000003
 51
120.358299
  0
LINE
  5
872
330
2
100
AcDbEntity
  8
0
100
AcDbLine
 10
184.8546247572992
 20
166.0033779652117
 30
0.0
 11
184.8546247572992
 21
139.0033779652117
 31
0.0
  0
LINE
  5
873
330
2
100
AcDbEntity
  8
0
100
AcDbLine
 10
179.8546247572992
 20
141.8318079652117
 30
0.0
 11
179.8546247572992
 21
163.1749479652116
 31
0.0
  0
LINE
  5
874
330
2
100
AcDbEntity
  8
0
100
AcDbLine
 10
175.3546247572992
 20
178.1938379652117
 30
0.0
 11
175.3546247572992
 21
126.8129099652117
 31
0.0
  0
ARC
  5
875
330
2
100
AcDbEntity
  8
0
100
AcDbCircle
 10
177.8546247572992
 20
135.5033779652117
 30
0.0
 40
2.0
100
AcDbArc
 50
180.0
 51
270.0
  0
LINE
  5
877
330
2
100
AcDbEntity
  8
0
100
AcDbLine
 10
179.2688397572992
 20
140.4175929652117
 30
0.0
 11
176.4404097572992
 21
137.5891629652117
 31
0.0
  0
LINE
  5
878
330
2
100
AcDbEntity
  8
0
100
AcDbLine
 10
175.3546247572992
 20
126.8129099652117
 30
0.0
 11
175.8546247572992
 21
126.8129099652117
 31
0.0
  0
ARC
  5
879
330
2
100
AcDbEntity
  8
0
100
AcDbCircle
 10
177.8546247572992
 20
136.1749479652116
 30
0.0
 40
2.0
100
AcDbArc
 50
134.9999999999994
 51
180.0
  0
ARC
  5
87A
330
2
100
AcDbEntity
  8
0
100
AcDbCircle
 10
187.4897107572992
 20
134.0033779652117
 30
0.0
 40
2.0
100
AcDbArc
 50
194.4775090000004
 51
270.0
  0
LINE
  5
87B
330
2
100
AcDbEntity
  8
0
100
AcDbLine
 10
189.6903337572991
 20
133.8204099652117
 30
0.0
 11
188.7704727572992
 21
131.8204099652117
 31
0.0
  0
LINE
  5
87C
330
2
100
AcDbEntity
  8
0
100
AcDbLine
 10
180.3546247572992
 20
127.2033899652117
 30
0.0
 11
181.8546247572992
 21
128.0694179652116
 31
0.0
  0
LINE
  5
87D
330
2
100
AcDbEntity
  8
0
100
AcDbLine
 10
181.8546247572992
 20
129.9373679652117
 30
0.0
 11
181.8546247572992
 21
128.0694179652116
 31
0.0
  0
LINE
  5
87E
330
2
100
AcDbEntity
  8
0
100
AcDbLine
 10
180.3546247572992
 20
130.8033959652117
 30
0.0
 11
181.8546247572992
 21
129.9373679652117
 31
0.0
  0
LINE
  5
87F
330
2
100
AcDbEntity
  8
0
100
AcDbLine
 10
180.3546247572992
 20
130.8033959652117
 30
0.0
 11
178.8546247572992
 21
129.9373679652117
 31
0.0
  0
LINE
  5
880
330
2
100
AcDbEntity
  8
0
100
AcDbLine
 10
178.8546247572992
 20
129.9373679652117
 30
0.0
 11
178.8546247572992
 21
128.0694179652116
 31
0.0
  0
LINE
  5
881
330
2
100
AcDbEntity
  8
0
100
AcDbLine
 10
180.3546247572992
 20
127.2033899652117
 30
0.0
 11
178.8546247572992
 21
128.0694179652116
 31
0.0
  0
LINE
  5
882
330
2
100
AcDbEntity
  8
0
100
AcDbLine
 10
187.9347487572992
 20
132.0033779652117
 30
0.0
 11
187.4897107572992
 21
132.0033779652117
 31
0.0
  0
ARC
  5
883
330
2
100
AcDbEntity
  8
0
100
AcDbCircle
 10
187.9347487572992
 20
130.0033779652117
 30
0.0
 40
2.0
100
AcDbArc
 50
40.60129500000027
 51
90.0
  0
ARC
  5
884
330
2
100
AcDbEntity
  8
0
100
AcDbCircle
 10
187.0808977572992
 20
136.0033779652117
 30
0.0
 40
2.0
100
AcDbArc
 50
188.626923
 51
270.0
  0
LINE
  5
885
330
2
100
AcDbEntity
  8
0
100
AcDbLine
 10
177.8546247572992
 20
133.5033779652117
 30
0.0
 11
180.3546247572992
 21
133.5033779652117
 31
0.0
  0
ARC
  5
886
330
2
100
AcDbEntity
  8
0
100
AcDbCircle
 10
206.8546247572992
 20
139.0033779652117
 30
0.0
 40
22.0
100
AcDbArc
 50
180.0
 51
194.4775090000004
  0
LINE
  5
887
330
2
100
AcDbEntity
  8
0
100
AcDbLine
 10
188.8546247572992
 20
134.0033779652117
 30
0.0
 11
187.0808977572992
 21
134.0033779652117
 31
0.0
  0
ARC
  5
888
330
2
100
AcDbEntity
  8
0
100
AcDbCircle
 10
188.8546247572992
 20
132.0033779652117
 30
0.0
 40
2.0
100
AcDbArc
 50
40.60129500000027
 51
90.0
  0
ARC
  5
889
330
2
100
AcDbEntity
  8
0
100
AcDbCircle
 10
177.8546247572992
 20
141.8318079652117
 30
0.0
 40
2.0
100
AcDbArc
 50
314.9999999999994
 51
0.0
  0
ARC
  5
88B
330
2
100
AcDbEntity
  8
0
100
AcDbCircle
 10
177.8546247572992
 20
169.5033779652117
 30
0.0
 40
2.0
100
AcDbArc
 50
90.0
 51
180.0
  0
CIRCLE
  5
88C
330
2
100
AcDbEntity
  8
0
100
AcDbCircle
 10
180.3546247572992
 20
176.0033779652117
 30
0.0
 40
3.5
  0
CIRCLE
  5
88D
330
2
100
AcDbEntity
  8
0
100
AcDbCircle
 10
180.3546247572992
 20
176.0033779652117
 30
0.0
 40
3.799999999999999
  0
LINE
  5
88E
330
2
100
AcDbEntity
  8
0
100
AcDbLine
 10
179.2688397572992
 20
164.5891629652117
 30
0.0
 11
176.4404097572992
 21
167.4175929652117
 31
0.0
  0
ARC
  5
88F
330
2
100
AcDbEntity
  8
0
100
AcDbCircle
 10
177.8546247572992
 20
168.8318079652117
 30
0.0
 40
2.0
100
AcDbArc
 50
180.0
 51
225.0000000000006
  0
LINE
  5
890
330
2
100
AcDbEntity
  8
0
100
AcDbLine
 10
175.3546247572992
 20
178.1938379652117
 30
0.0
 11
175.8546247572992
 21
178.1938379652117
 31
0.0
  0
ARC
  5
891
330
2
100
AcDbEntity
  8
0
100
AcDbCircle
 10
206.8546247572992
 20
166.0033779652117
 30
0.0
 40
22.0
100
AcDbArc
 50
165.5224909999995
 51
180.0
  0
ARC
  5
892
330
2
100
AcDbEntity
  8
0
100
AcDbCircle
 10
177.8546247572992
 20
163.1749479652116
 30
0.0
 40
2.0
100
AcDbArc
 50
0.0
 51
45.00000000000057
  0
LINE
  5
893
330
2
100
AcDbEntity
  8
0
100
AcDbLine
 10
190.3731337572992
 20
171.7017879652116
 30
0.0
 11
199.3731337572992
 21
182.2017879652116
 31
0.0
  0
ARC
  5
895
330
2
100
AcDbEntity
  8
0
100
AcDbCircle
 10
180.3546247572992
 20
176.0033779652117
 30
0.0
 40
4.5
100
AcDbArc
 50
270.0
 51
90.0
  0
LINE
  5
896
330
2
100
AcDbEntity
  8
0
100
AcDbLine
 10
178.8546247572992
 20
175.0693879652117
 30
0.0
 11
178.8546247572992
 21
176.9373379652117
 31
0.0
  0
LINE
  5
897
330
2
100
AcDbEntity
  8
0
100
AcDbLine
 10
181.8546247572992
 20
175.0693879652117
 30
0.0
 11
181.8546247572992
 21
176.9373379652117
 31
0.0
  0
ARC
  5
898
330
2
100
AcDbEntity
  8
0
100
AcDbCircle
 10
187.4897107572992
 20
171.0033779652117
 30
0.0
 40
2.0
100
AcDbArc
 50
90.0
 51
165.5224909999995
  0
ARC
  5
899
330
2
100
AcDbEntity
  8
0
100
AcDbCircle
 10
187.0808977572992
 20
169.0033779652117
 30
0.0
 40
2.0
100
AcDbArc
 50
90.0
 51
171.3730769999999
  0
LINE
  5
89A
330
2
100
AcDbEntity
  8
0
100
AcDbLine
 10
177.8546247572992
 20
171.5033779652117
 30
0.0
 11
180.3546247572992
 21
171.5033779652117
 31
0.0
  0
LINE
  5
89B
330
2
100
AcDbEntity
  8
0
100
AcDbLine
 10
180.3546247572992
 20
174.2033599652117
 30
0.0
 11
181.8546247572992
 21
175.0693879652117
 31
0.0
  0
LINE
  5
89C
330
2
100
AcDbEntity
  8
0
100
AcDbLine
 10
180.3546247572992
 20
174.2033599652117
 30
0.0
 11
178.8546247572992
 21
175.0693879652117
 31
0.0
  0
LINE
  5
89D
330
2
100
AcDbEntity
  8
0
100
AcDbLine
 10
187.9347487572992
 20
173.0033779652117
 30
0.0
 11
187.4897107572992
 21
173.0033779652117
 31
0.0
  0
LINE
  5
89E
330
2
100
AcDbEntity
  8
0
100
AcDbLine
 10
188.8546247572992
 20
171.0033779652117
 30
0.0
 11
187.0808977572992
 21
171.0033779652117
 31
0.0
  0
LINE
  5
89F
330
2
100
AcDbEntity
  8
0
100
AcDbLine
 10
189.6903337572991
 20
171.1863459652116
 30
0.0
 11
188.7704727572992
 21
173.1863459652116
 31
0.0
  0
ARC
  5
8A0
330
2
100
AcDbEntity
  8
0
100
AcDbCircle
 10
188.8546247572992
 20
173.0033779652117
 30
0.0
 40
2.0
100
AcDbArc
 50
270.0
 51
319.3987049999997
  0
ARC
  5
8A1
330
2
100
AcDbEntity
  8
0
100
AcDbCircle
 10
187.9347487572992
 20
175.0033779652117
 30
0.0
 40
2.0
100
AcDbArc
 50
270.0
 51
319.3987049999997
  0
LINE
  5
8A2
330
2
100
AcDbEntity
  8
0
100
AcDbLine
 10
177.8546247572992
 20
180.5033779652117
 30
0.0
 11
180.3546247572992
 21
180.5033779652117
 31
0.0
  0
LINE
  5
8A3
330
2
100
AcDbEntity
  8
0
100
AcDbLine
 10
180.3546247572992
 20
177.8033659652116
 30
0.0
 11
178.8546247572992
 21
176.9373379652117
 31
0.0
  0
LINE
  5
8A4
330
2
100
AcDbEntity
  8
0
100
AcDbLine
 10
180.3546247572992
 20
177.8033659652116
 30
0.0
 11
181.8546247572992
 21
176.9373379652117
 31
0.0
  0
ARC
  5
8A5
330
2
100
AcDbEntity
  8
0
100
AcDbCircle
 10
236.8546247572992
 20
152.5033779652117
 30
0.0
 40
6.0
100
AcDbArc
 50
109.4712219999995
 51
70.52877800000044
  0
CIRCLE
  5
8A6
330
2
100
AcDbEntity
  8
0
100
AcDbCircle
 10
236.8546247572992
 20
152.5033779652117
 30
0.0
 40
10.0
  0
CIRCLE
  5
8A7
330
2
100
AcDbEntity
  8
0
100
AcDbCircle
 10
236.8546247572992
 20
152.5033779652117
 30
0.0
 40
25.002001
  0
CIRCLE
  5
8A8
330
2
100
AcDbEntity
  8
0
100
AcDbCircle
 10
236.8546247572992
 20
152.5033779652117
 30
0.0
 40
23.0
  0
CIRCLE
  5
8A9
330
2
100
AcDbEntity
  8
0
100
AcDbCircle
 10
236.8546247572992
 20
152.5033779652117
 30
0.0
 40
16.0
  0
CIRCLE
  5
8AA
330
2
100
AcDbEntity
  8
0
100
AcDbCircle
 10
236.8546247572992
 20
152.5033779652117
 30
0.0
 40
19.5
  0
LINE
  5
8AB
330
2
100
AcDbEntity
  8
0
100
AcDbLine
 10
266.8546247572992
 20
166.0033779652117
 30
0.0
 11
266.8546247572992
 21
139.0033779652117
 31
0.0
  0
ARC
  5
8AC
330
2
100
AcDbEntity
  8
0
100
AcDbCircle
 10
264.2195537572993
 20
134.0033779652117
 30
0.0
 40
2.0
100
AcDbArc
 50
270.0
 51
345.5224909999996
  0
LINE
  5
8AD
330
2
100
AcDbEntity
  8
0
100
AcDbLine
 10
262.0189007572992
 20
133.8204099652117
 30
0.0
 11
262.9387917572992
 21
131.8204099652117
 31
0.0
  0
ARC
  5
8AE
330
2
100
AcDbEntity
  8
0
100
AcDbCircle
 10
263.7744857572992
 20
130.0033779652117
 30
0.0
 40
2.0
100
AcDbArc
 50
90.0
 51
139.398712
  0
LINE
  5
8AF
330
2
100
AcDbEntity
  8
0
100
AcDbLine
 10
271.3546247572992
 20
130.8033959652117
 30
0.0
 11
269.8546247572992
 21
129.9373679652117
 31
0.0
  0
LINE
  5
8B0
330
2
100
AcDbEntity
  8
0
100
AcDbLine
 10
271.3546247572992
 20
127.2033899652117
 30
0.0
 11
269.8546247572992
 21
128.0694179652116
 31
0.0
  0
LINE
  5
8B1
330
2
100
AcDbEntity
  8
0
100
AcDbLine
 10
269.8546247572992
 20
129.9373679652117
 30
0.0
 11
269.8546247572992
 21
128.0694179652116
 31
0.0
  0
LINE
  5
8B2
330
2
100
AcDbEntity
  8
0
100
AcDbLine
 10
263.7744857572992
 20
132.0033779652117
 30
0.0
 11
264.2195537572993
 21
132.0033779652117
 31
0.0
  0
LINE
  5
8B3
330
2
100
AcDbEntity
  8
0
100
AcDbLine
 10
262.8546247572992
 20
134.0033779652117
 30
0.0
 11
264.6283367572991
 21
134.0033779652117
 31
0.0
  0
ARC
  5
8B4
330
2
100
AcDbEntity
  8
0
100
AcDbCircle
 10
262.8546247572992
 20
132.0033779652117
 30
0.0
 40
2.0
100
AcDbArc
 50
90.0
 51
139.398712
  0
ARC
  5
8B5
330
2
100
AcDbEntity
  8
0
100
AcDbCircle
 10
244.8546247572992
 20
139.0033779652117
 30
0.0
 40
22.0
100
AcDbArc
 50
345.5224880000002
 51
0.0
  0
ARC
  5
8B6
330
2
100
AcDbEntity
  8
0
100
AcDbCircle
 10
264.6283367572991
 20
136.0033779652117
 30
0.0
 40
2.0
100
AcDbArc
 50
270.0
 51
351.373077
  0
LINE
  5
8B7
330
2
100
AcDbEntity
  8
0
100
AcDbLine
 10
238.8546247572992
 20
160.3033809652117
 30
0.0
 11
238.8546247572992
 21
158.1602379652117
 31
0.0
  0
LINE
  5
8B8
330
2
100
AcDbEntity
  8
0
100
AcDbLine
 10
234.8546247572992
 20
160.3033809652117
 30
0.0
 11
234.8546247572992
 21
158.1602379652117
 31
0.0
  0
LINE
  5
8B9
330
2
100
AcDbEntity
  8
0
100
AcDbLine
 10
234.8546247572992
 20
160.3033809652117
 30
0.0
 11
238.8546247572992
 21
160.3033809652117
 31
0.0
  0
ARC
  5
8BA
330
2
100
AcDbEntity
  8
0
100
AcDbCircle
 10
244.8546247572992
 20
166.0033779652117
 30
0.0
 40
22.0
100
AcDbArc
 50
0.0
 51
14.47751199999975
  0
LINE
  5
8BB
330
2
100
AcDbEntity
  8
0
100
AcDbLine
 10
261.3361007572991
 20
171.7017879652116
 30
0.0
 11
252.3361157572992
 21
182.2017879652116
 31
0.0
  0
ARC
  5
8BC
330
2
100
AcDbEntity
  8
0
100
AcDbCircle
 10
271.3546247572992
 20
176.0033779652117
 30
0.0
 40
4.5
100
AcDbArc
 50
90.0
 51
270.0
  0
LINE
  5
8BE
330
2
100
AcDbEntity
  8
0
100
AcDbLine
 10
269.8546247572992
 20
175.0693879652117
 30
0.0
 11
269.8546247572992
 21
176.9373379652117
 31
0.0
  0
LINE
  5
8BF
330
2
100
AcDbEntity
  8
0
100
AcDbLine
 10
262.8546247572992
 20
171.0033779652117
 30
0.0
 11
264.6283367572991
 21
171.0033779652117
 31
0.0
  0
ARC
  5
8C0
330
2
100
AcDbEntity
  8
0
100
AcDbCircle
 10
263.7744857572992
 20
175.0033779652117
 30
0.0
 40
2.0
100
AcDbArc
 50
220.6012879999999
 51
270.0
  0
LINE
  5
8C1
330
2
100
AcDbEntity
  8
0
100
AcDbLine
 10
262.0189007572992
 20
171.1863459652116
 30
0.0
 11
262.9387917572992
 21
173.1863459652116
 31
0.0
  0
ARC
  5
8C2
330
2
100
AcDbEntity
  8
0
100
AcDbCircle
 10
262.8546247572992
 20
173.0033779652117
 30
0.0
 40
2.0
100
AcDbArc
 50
220.6012879999999
 51
270.0
  0
LINE
  5
8C3
330
2
100
AcDbEntity
  8
0
100
AcDbLine
 10
271.3546247572992
 20
174.2033599652117
 30
0.0
 11
269.8546247572992
 21
175.0693879652117
 31
0.0
  0
ARC
  5
8C4
330
2
100
AcDbEntity
  8
0
100
AcDbCircle
 10
264.2195537572993
 20
171.0033779652117
 30
0.0
 40
2.0
100
AcDbArc
 50
14.47751199999975
 51
90.0
  0
ARC
  5
8C5
330
2
100
AcDbEntity
  8
0
100
AcDbCircle
 10
264.6283367572991
 20
169.0033779652117
 30
0.0
 40
2.0
100
AcDbArc
 50
8.62692699999976
 51
90.0
  0
LINE
  5
8C6
330
2
100
AcDbEntity
  8
0
100
AcDbLine
 10
263.7744857572992
 20
173.0033779652117
 30
0.0
 11
264.2195537572993
 21
173.0033779652117
 31
0.0
  0
LINE
  5
8C7
330
2
100
AcDbEntity
  8
0
100
AcDbLine
 10
271.3546247572992
 20
177.8033659652116
 30
0.0
 11
269.8546247572992
 21
176.9373379652117
 31
0.0
  0
LINE
  5
8C8
330
2
100
AcDbEntity
  8
HIDS
100
AcDbLine
 10
370.9505663156591
 20
126.5033779652117
 30
0.0
 11
378.347539315659
 21
119.1064049652117
 31
0.0
  0
ARC
  5
8C9
330
2
100
AcDbEntity
  8
HIDS
100
AcDbCircle
 10
367.3475393156591
 20
129.5033779652117
 30
0.0
 40
3.0
100
AcDbArc
 50
180.0
 51
270.0
  0
ARC
  5
8CF
330
2
100
AcDbEntity
  8
HIDS
100
AcDbCircle
 10
404.347539315659
 20
152.5033779652117
 30
0.0
 40
38.0
100
AcDbArc
 50
129.3567049999994
 51
230.6432950000005
  0
ARC
  5
8D0
330
2
100
AcDbEntity
  8
0
100
AcDbCircle
 10
273.8546247572992
 20
122.5033779652117
 30
0.0
 40
2.0
100
AcDbArc
 50
0.0
 51
90.0
  0
ARC
  5
8DC
330
2
100
AcDbEntity
  8
HIDS
100
AcDbCircle
 10
381.3475393156591
 20
115.5033779652117
 30
0.0
 40
3.0
100
AcDbArc
 50
180.0
 51
270.0
  0
LINE
  5
8E0
330
2
100
AcDbEntity
  8
HIDS
100
AcDbLine
 10
381.3475393156591
 20
116.8702369652116
 30
0.0
 11
381.3475393156591
 21
120.8016419652117
 31
0.0
  0
LINE
  5
8E1
330
2
100
AcDbEntity
  8
HIDS
100
AcDbLine
 10
378.347539315659
 20
115.5033779652117
 30
0.0
 11
378.347539315659
 21
119.1064049652117
 31
0.0
  0
ARC
  5
8E2
330
2
100
AcDbEntity
  8
HIDS
100
AcDbCircle
 10
383.3475393156591
 20
116.8702369652116
 30
0.0
 40
2.0
100
AcDbArc
 50
180.0
 51
268.9999999999998
  0
ARC
  5
8E4
330
2
100
AcDbEntity
  8
HIDS
100
AcDbCircle
 10
378.347539315659
 20
120.8016419652117
 30
0.0
 40
3.0
100
AcDbArc
 50
0.0
 51
50.64329900000029
  0
LINE
  5
8EB
330
2
100
AcDbEntity
  8
0
100
AcDbLine
 10
271.8546247572992
 20
141.8318079652117
 30
0.0
 11
271.8546247572992
 21
163.1749479652116
 31
0.0
  0
LINE
  5
8EC
330
2
100
AcDbEntity
  8
0
100
AcDbLine
 10
272.4404097572992
 20
140.4175929652117
 30
0.0
 11
275.2688397572992
 21
137.5891629652117
 31
0.0
  0
ARC
  5
8ED
330
2
100
AcDbEntity
  8
0
100
AcDbCircle
 10
273.8546247572992
 20
135.5033779652117
 30
0.0
 40
2.0
100
AcDbArc
 50
270.0
 51
0.0
  0
LINE
  5
8EE
330
2
100
AcDbEntity
  8
0
100
AcDbLine
 10
272.8546247572992
 20
129.9373679652117
 30
0.0
 11
272.8546247572992
 21
128.0694179652116
 31
0.0
  0
ARC
  5
8EF
330
2
100
AcDbEntity
  8
0
100
AcDbCircle
 10
273.8546247572992
 20
136.1749479652116
 30
0.0
 40
2.0
100
AcDbArc
 50
0.0
 51
45.00000000000057
  0
ARC
  5
8F0
330
2
100
AcDbEntity
  8
0
100
AcDbCircle
 10
273.8546247572992
 20
141.8318079652117
 30
0.0
 40
2.0
100
AcDbArc
 50
180.0
 51
225.0000000000006
  0
ARC
  5
8F1
330
2
100
AcDbEntity
  8
0
100
AcDbCircle
 10
273.8546247572992
 20
168.8318079652117
 30
0.0
 40
2.0
100
AcDbArc
 50
314.9999999999994
 51
0.0
  0
ARC
  5
8F2
330
2
100
AcDbEntity
  8
0
100
AcDbCircle
 10
273.8546247572992
 20
163.1749479652116
 30
0.0
 40
2.0
100
AcDbArc
 50
134.9999999999994
 51
180.0
  0
LINE
  5
8F3
330
2
100
AcDbEntity
  8
0
100
AcDbLine
 10
272.4404097572992
 20
164.5891629652117
 30
0.0
 11
275.2688397572992
 21
167.4175929652117
 31
0.0
  0
LINE
  5
8F4
330
2
100
AcDbEntity
  8
0
100
AcDbLine
 10
272.8546247572992
 20
175.0693879652117
 30
0.0
 11
272.8546247572992
 21
176.9373379652117
 31
0.0
  0
ARC
  5
8F5
330
2
100
AcDbEntity
  8
0
100
AcDbCircle
 10
273.8546247572992
 20
169.5033779652117
 30
0.0
 40
2.0
100
AcDbArc
 50
0.0
 51
90.0
  0
LINE
  5
8F6
330
2
100
AcDbEntity
  8
HIDS
100
AcDbLine
 10
364.3475393156591
 20
129.5033779652117
 30
0.0
 11
364.3475393156591
 21
174.0719199652116
 31
0.0
  0
LINE
  5
909
330
2
100
AcDbEntity
  8
HIDS
100
AcDbLine
 10
367.3475393156591
 20
126.5033779652117
 30
0.0
 11
370.9505663156591
 21
126.5033779652117
 31
0.0
  0
ARC
  5
932
330
2
100
AcDbEntity
  8
HIDS
100
AcDbCircle
 10
369.3475393156591
 20
174.0719199652116
 30
0.0
 40
5.0
100
AcDbArc
 50
134.9999999999994
 51
180.0
  0
LINE
  5
961
330
2
100
AcDbEntity
  8
0
100
AcDbLine
 10
102.7991207572993
 20
182.7523399652117
 30
0.0
 11
175.8546247572992
 21
182.7523399652117
 31
0.0
  0
LINE
  5
962
330
2
100
AcDbEntity
  8
0
100
AcDbLine
 10
102.7991207572993
 20
190.5033779652116
 30
0.0
 11
174.4958757572992
 21
190.5033779652116
 31
0.0
  0
LINE
  5
963
330
2
100
AcDbEntity
  8
0
100
AcDbLine
 10
49.29913275729927
 20
192.5033779652117
 30
0.0
 11
93.2991207572993
 21
192.5033779652117
 31
0.0
  0
ARC
  5
964
330
2
100
AcDbEntity
  8
0
100
AcDbCircle
 10
49.29913275729927
 20
187.5033779652117
 30
0.0
 40
5.0
100
AcDbArc
 50
90.0
 51
180.0
  0
LINE
  5
969
330
2
100
AcDbEntity
  8
0
100
AcDbLine
 10
93.2991207572993
 20
182.7523709652117
 30
0.0
 11
102.7991207572993
 21
182.7523709652117
 31
0.0
  0
LINE
  5
96A
330
2
100
AcDbEntity
  8
0
100
AcDbLine
 10
93.2991207572993
 20
190.5033779652116
 30
0.0
 11
102.7991207572993
 21
190.5033779652116
 31
0.0
  0
CIRCLE
  5
971
330
2
100
AcDbEntity
  8
0
100
AcDbCircle
 10
268.8546247572992
 20
186.0033779652117
 30
0.0
 40
3.399999999999999
  0
ARC
  5
972
330
2
100
AcDbEntity
  8
0
100
AcDbCircle
 10
268.8546247572992
 20
186.0033779652117
 30
0.0
 40
7.0
100
AcDbArc
 50
0.0
 51
132.6359250000002
  0
LINE
  5
974
330
2
100
AcDbEntity
  8
0
100
AcDbLine
 10
244.8546247572992
 20
188.0033779652117
 30
0.0
 11
206.8546247572992
 21
188.0033779652117
 31
0.0
  0
LINE
  5
975
330
2
100
AcDbEntity
  8
0
100
AcDbLine
 10
182.8546247572992
 20
193.0033779652117
 30
0.0
 11
268.8546247572992
 21
193.0033779652117
 31
0.0
  0
LINE
  5
976
330
2
100
AcDbEntity
  8
0
100
AcDbLine
 10
175.1910047572992
 20
190.6280729652116
 30
0.0
 11
180.4216417572991
 21
192.5669609652117
 31
0.0
  0
ARC
  5
977
330
2
100
AcDbEntity
  8
0
100
AcDbCircle
 10
182.8546247572992
 20
186.0033779652117
 30
0.0
 40
7.0
100
AcDbArc
 50
47.3640670000003
 51
180.0
  0
ARC
  5
979
330
2
100
AcDbEntity
  8
0
100
AcDbCircle
 10
174.4958757572992
 20
192.5033779652117
 30
0.0
 40
2.0
100
AcDbArc
 50
270.0
 51
290.3387299999999
  0
ARC
  5
97A
330
2
100
AcDbEntity
  8
0
100
AcDbCircle
 10
191.6600137572992
 20
195.5671139652117
 30
0.0
 40
6.0
100
AcDbArc
 50
227.3640749999997
 51
300.3583029999994
  0
CIRCLE
  5
97B
330
2
100
AcDbEntity
  8
0
100
AcDbCircle
 10
182.8546247572992
 20
186.0033779652117
 30
0.0
 40
3.399999999999999
  0
ARC
  5
97C
330
2
100
AcDbEntity
  8
0
100
AcDbCircle
 10
201.8546247572992
 20
185.3682919652117
 30
0.0
 40
2.0
100
AcDbArc
 50
104.4775089999994
 51
180.0
  0
ARC
  5
97D
330
2
100
AcDbEntity
  8
0
100
AcDbCircle
 10
206.8546247572992
 20
166.0033779652117
 30
0.0
 40
22.0
100
AcDbArc
 50
90.0
 51
110.4873119999995
  0
ARC
  5
97E
330
2
100
AcDbEntity
  8
0
100
AcDbCircle
 10
199.8546247572992
 20
184.7383789652117
 30
0.0
 40
2.0
100
AcDbArc
 50
110.4873119999995
 51
180.0
  0
LINE
  5
97F
330
2
100
AcDbEntity
  8
0
100
AcDbLine
 10
199.7303877572992
 20
182.8094849652117
 30
0.0
 11
197.7303877572992
 21
183.5493369652117
 31
0.0
  0
ARC
  5
980
330
2
100
AcDbEntity
  8
0
100
AcDbCircle
 10
195.8546247572992
 20
184.2432309652117
 30
0.0
 40
2.0
100
AcDbArc
 50
319.3987049999997
 51
0.0
  0
LINE
  5
981
330
2
100
AcDbEntity
  8
0
100
AcDbLine
 10
199.8546247572992
 20
183.5033779652117
 30
0.0
 11
199.8546247572992
 21
185.3682919652117
 31
0.0
  0
LINE
  5
982
330
2
100
AcDbEntity
  8
0
100
AcDbLine
 10
197.8546247572992
 20
184.2432309652117
 30
0.0
 11
197.8546247572992
 21
184.7383789652117
 31
0.0
  0
ARC
  5
983
330
2
100
AcDbEntity
  8
0
100
AcDbCircle
 10
202.2552897572992
 20
183.0033779652117
 30
0.0
 40
10.0
100
AcDbArc
 50
90.0
 51
112.3316419999994
  0
ARC
  5
984
330
2
100
AcDbEntity
  8
0
100
AcDbCircle
 10
209.8546247572992
 20
164.5033779652117
 30
0.0
 40
30.0
100
AcDbArc
 50
112.3316419999994
 51
120.358299
  0
ARC
  5
985
330
2
100
AcDbEntity
  8
0
100
AcDbCircle
 10
241.8546247572992
 20
164.5033779652117
 30
0.0
 40
30.0
100
AcDbArc
 50
59.64169700000056
 51
67.66835800000055
  0
ARC
  5
986
330
2
100
AcDbEntity
  8
0
100
AcDbCircle
 10
244.8546247572992
 20
166.0033779652117
 30
0.0
 40
22.0
100
AcDbArc
 50
69.51268799999965
 51
90.0
  0
ARC
  5
987
330
2
100
AcDbEntity
  8
0
100
AcDbCircle
 10
251.8546247572992
 20
184.7383789652117
 30
0.0
 40
2.0
100
AcDbArc
 50
0.0
 51
69.51268799999965
  0
ARC
  5
988
330
2
100
AcDbEntity
  8
0
100
AcDbCircle
 10
249.8546247572992
 20
185.3682919652117
 30
0.0
 40
2.0
100
AcDbArc
 50
0.0
 51
75.52249100000058
  0
LINE
  5
989
330
2
100
AcDbEntity
  8
0
100
AcDbLine
 10
251.9788617572992
 20
182.8094849652117
 30
0.0
 11
253.9788617572992
 21
183.5493369652117
 31
0.0
  0
ARC
  5
98A
330
2
100
AcDbEntity
  8
0
100
AcDbCircle
 10
255.8546247572992
 20
184.2432309652117
 30
0.0
 40
2.0
100
AcDbArc
 50
180.0
 51
220.6012879999999
  0
LINE
  5
98B
330
2
100
AcDbEntity
  8
0
100
AcDbLine
 10
251.8546247572992
 20
183.5033779652117
 30
0.0
 11
251.8546247572992
 21
185.3682919652117
 31
0.0
  0
LINE
  5
98C
330
2
100
AcDbEntity
  8
0
100
AcDbLine
 10
253.8546247572992
 20
184.2432309652117
 30
0.0
 11
253.8546247572992
 21
184.7383789652117
 31
0.0
  0
ARC
  5
98D
330
2
100
AcDbEntity
  8
0
100
AcDbCircle
 10
249.4539597572992
 20
183.0033779652117
 30
0.0
 40
10.0
100
AcDbArc
 50
67.66835800000055
 51
90.0
  0
ARC
  5
98E
330
2
100
AcDbEntity
  8
0
100
AcDbCircle
 10
260.0492357572992
 20
195.5671139652117
 30
0.0
 40
6.0
100
AcDbArc
 50
239.6417009999999
 51
312.6359329999997
  0
ARC
  5
991
330
2
100
AcDbEntity
  8
HIDS
100
AcDbCircle
 10
383.3475393156591
 20
188.1365109652117
 30
0.0
 40
2.0
100
AcDbArc
 50
91.00000000000013
 51
180.0
  0
LINE
  5
992
330
2
100
AcDbEntity
  8
HIDS
100
AcDbLine
 10
381.3475393156591
 20
188.1365109652117
 30
0.0
 11
381.3475393156591
 21
184.2051139652117
 31
0.0
  0
ARC
  5
993
330
2
100
AcDbEntity
  8
HIDS
100
AcDbCircle
 10
382.7789973156591
 20
187.5033779652117
 30
0.0
 40
5.0
100
AcDbArc
 50
90.0
 51
134.9999999999994
  0
CIRCLE
  5
994
330
2
100
AcDbEntity
  8
HOJO
100
AcDbCircle
 10
595.1822167495188
 20
186.0033779652117
 30
0.0
 40
4.0
  0
CIRCLE
  5
995
330
2
100
AcDbEntity
  8
HOJO
100
AcDbCircle
 10
681.1822167495188
 20
186.0033779652117
 30
0.0
 40
4.0
  0
LINE
  5
996
330
2
100
AcDbEntity
  8
HIDS
100
AcDbLine
 10
430.3475393156591
 20
185.9003509652117
 30
0.0
 11
437.7445123156592
 21
178.5033779652117
 31
0.0
  0
LINE
  5
997
330
2
100
AcDbEntity
  8
0
100
AcDbLine
 10
819.7376977495189
 20
187.5033779652117
 30
0.0
 11
819.7376977495189
 21
117.5033779652117
 31
0.0
  0
LINE
  5
998
330
2
100
AcDbEntity
  8
0
100
AcDbLine
 10
770.7376977495187
 20
112.5033779652117
 30
0.0
 11
770.7376977495187
 21
192.5033779652117
 31
0.0
  0
ARC
  5
999
330
2
100
AcDbEntity
  8
0
100
AcDbCircle
 10
666.1822167495188
 20
183.5033779652117
 30
0.0
 40
2.0
100
AcDbArc
 50
180.0
 51
220.6012879999999
  0
LINE
  5
99A
330
2
100
AcDbEntity
  8
0
100
AcDbLine
 10
674.5835837495187
 20
173.7017879652116
 30
0.0
 11
666.6637227495187
 21
182.9416409652117
 31
0.0
  0
ARC
  5
99B
330
2
100
AcDbEntity
  8
0
100
AcDbCircle
 10
610.1822167495188
 20
183.5033779652117
 30
0.0
 40
2.0
100
AcDbArc
 50
319.3987049999997
 51
0.0
  0
LINE
  5
99C
330
2
100
AcDbEntity
  8
0
100
AcDbLine
 10
601.7808497495188
 20
173.7017879652116
 30
0.0
 11
609.7007107495188
 21
182.9416409652117
 31
0.0
  0
LINE
  5
99E
330
2
100
AcDbEntity
  8
0
100
AcDbLine
 10
588.1822167495188
 20
119.0033779652117
 30
0.0
 11
588.1822167495188
 21
186.0033779652117
 31
0.0
  0
LINE
  5
9A0
330
2
100
AcDbEntity
  8
0
100
AcDbLine
 10
688.1822167495188
 20
186.0033779652117
 30
0.0
 11
688.1822167495188
 21
168.8318079652117
 31
0.0
  0
LINE
  5
9A1
330
2
100
AcDbEntity
  8
0
100
AcDbLine
 10
761.2376977495188
 20
190.5033779652116
 30
0.0
 11
761.2376977495188
 21
114.5033779652117
 31
0.0
  0
ARC
  5
9A4
330
2
100
AcDbEntity
  8
HIDS
100
AcDbCircle
 10
430.3475393156591
 20
184.2051139652117
 30
0.0
 40
3.0
100
AcDbArc
 50
180.0
 51
230.6432950000005
  0
ARC
  5
9A7
330
2
100
AcDbEntity
  8
0
100
AcDbCircle
 10
672.3768577495189
 20
109.4396339652117
 30
0.0
 40
6.0
100
AcDbArc
 50
47.3640670000003
 51
120.358299
  0
LINE
  5
9A8
330
2
100
AcDbEntity
  8
0
100
AcDbLine
 10
675.1822167495188
 20
134.0033779652117
 30
0.0
 11
676.9559597495188
 21
134.0033779652117
 31
0.0
  0
ARC
  5
9A9
330
2
100
AcDbEntity
  8
0
100
AcDbCircle
 10
676.1020777495189
 20
130.0033779652117
 30
0.0
 40
2.0
100
AcDbArc
 50
90.0
 51
139.398712
  0
LINE
  5
9AA
330
2
100
AcDbEntity
  8
0
100
AcDbLine
 10
675.1822167495188
 20
171.0033779652117
 30
0.0
 11
676.9559597495188
 21
171.0033779652117
 31
0.0
  0
ARC
  5
9AB
330
2
100
AcDbEntity
  8
0
100
AcDbCircle
 10
676.1020777495189
 20
175.0033779652117
 30
0.0
 40
2.0
100
AcDbArc
 50
220.6012879999999
 51
270.0
  0
LINE
  5
9AC
330
2
100
AcDbEntity
  8
0
100
AcDbLine
 10
681.1822167495188
 20
112.0033779652117
 30
0.0
 11
595.1822167495188
 21
112.0033779652117
 31
0.0
  0
LINE
  5
9AE
330
2
100
AcDbEntity
  8
CENTER
100
AcDbLine
 10
580.6414457495188
 20
152.5033779652117
 30
0.0
 11
828.2582277177532
 21
152.5033779652117
 31
0.0
  0
LINE
  5
9AF
330
2
100
AcDbEntity
  8
HIDS
100
AcDbLine
 10
442.8830613156589
 20
127.3993049652117
 30
0.0
 11
429.451604315659
 21
113.9678399652117
 31
0.0
  0
ARC
  5
9B2
330
2
100
AcDbEntity
  8
HIDS
100
AcDbCircle
 10
404.347539315659
 20
152.5033779652117
 30
0.0
 40
38.0
100
AcDbArc
 50
309.3567009999997
 51
50.64329900000029
  0
ARC
  5
9B7
330
2
100
AcDbEntity
  8
HIDS
100
AcDbCircle
 10
425.916081315659
 20
117.5033779652117
 30
0.0
 40
5.0
100
AcDbArc
 50
270.0
 51
314.9999999999994
  0
LINE
  5
9B9
330
2
100
AcDbEntity
  8
HIDS
100
AcDbLine
 10
425.3824513156591
 20
114.8705429652117
 30
0.0
 11
404.347539315659
 21
114.5033779652117
 31
0.0
  0
LINE
  5
9BD
330
2
100
AcDbEntity
  8
HIDS
100
AcDbLine
 10
427.3475393156591
 20
116.8702369652116
 30
0.0
 11
427.3475393156591
 21
120.8016419652117
 31
0.0
  0
ARC
  5
9BE
330
2
100
AcDbEntity
  8
HIDS
100
AcDbCircle
 10
425.347539315659
 20
116.8702369652116
 30
0.0
 40
2.0
100
AcDbArc
 50
271.0000000000001
 51
0.0
  0
ARC
  5
9C2
330
2
100
AcDbEntity
  8
HIDS
100
AcDbCircle
 10
430.3475393156591
 20
120.8016419652117
 30
0.0
 40
3.0
100
AcDbArc
 50
129.3567049999994
 51
180.0
  0
LINE
  5
9C8
330
2
100
AcDbEntity
  8
HIDS
100
AcDbLine
 10
444.3475393156591
 20
175.5033779652117
 30
0.0
 11
444.3475393156591
 21
130.9348359652117
 31
0.0
  0
ARC
  5
9F1
330
2
100
AcDbEntity
  8
HIDS
100
AcDbCircle
 10
439.3475393156591
 20
130.9348359652117
 30
0.0
 40
5.0
100
AcDbArc
 50
314.9999999999994
 51
0.0
  0
ARC
  5
A20
330
2
100
AcDbEntity
  8
HIDS
100
AcDbCircle
 10
441.347539315659
 20
175.5033779652117
 30
0.0
 40
3.0
100
AcDbArc
 50
0.0
 51
90.0
  0
LINE
  5
A23
330
2
100
AcDbEntity
  8
HIDS
100
AcDbLine
 10
441.347539315659
 20
178.5033779652117
 30
0.0
 11
437.7445123156592
 21
178.5033779652117
 31
0.0
  0
LINE
  5
A29
330
2
100
AcDbEntity
  8
0
100
AcDbLine
 10
673.6637227495188
 20
133.3049679652117
 30
0.0
 11
664.6637227495188
 21
122.8049599652117
 31
0.0
  0
LINE
  5
A2A
330
2
100
AcDbEntity
  8
0
100
AcDbLine
 10
674.5835837495187
 20
131.3049679652117
 30
0.0
 11
666.6637227495187
 21
122.0651149652117
 31
0.0
  0
LINE
  5
A2B
330
2
100
AcDbEntity
  8
0
100
AcDbLine
 10
602.7007107495188
 20
133.3049679652117
 30
0.0
 11
611.7007107495188
 21
122.8049599652117
 31
0.0
  0
LINE
  5
A2C
330
2
100
AcDbEntity
  8
0
100
AcDbLine
 10
601.7808497495188
 20
131.3049679652117
 30
0.0
 11
609.7007107495188
 21
122.0651149652117
 31
0.0
  0
ARC
  5
A2D
330
2
100
AcDbEntity
  8
0
100
AcDbCircle
 10
614.1822167495188
 20
119.6384639652117
 30
0.0
 40
2.0
100
AcDbArc
 50
180.0
 51
255.5224910000005
  0
ARC
  5
A2E
330
2
100
AcDbEntity
  8
0
100
AcDbCircle
 10
619.1822167495188
 20
139.0033779652117
 30
0.0
 40
22.0
100
AcDbArc
 50
249.5126879999996
 51
270.0
  0
ARC
  5
A2F
330
2
100
AcDbEntity
  8
0
100
AcDbCircle
 10
614.5828517495187
 20
122.0033779652117
 30
0.0
 40
10.0
100
AcDbArc
 50
247.6683499999999
 51
270.0
  0
ARC
  5
A30
330
2
100
AcDbEntity
  8
0
100
AcDbCircle
 10
595.1822167495188
 20
119.0033779652117
 30
0.0
 40
7.0
100
AcDbArc
 50
180.0
 51
312.6359250000002
  0
CIRCLE
  5
A32
330
2
100
AcDbEntity
  8
HOJO
100
AcDbCircle
 10
595.1822167495188
 20
119.0033779652117
 30
0.0
 40
4.0
  0
CIRCLE
  5
A33
330
2
100
AcDbEntity
  8
0
100
AcDbCircle
 10
595.1822167495188
 20
119.0033779652117
 30
0.0
 40
3.399999999999999
  0
ARC
  5
A35
330
2
100
AcDbEntity
  8
0
100
AcDbCircle
 10
612.1822167495188
 20
120.2683849652117
 30
0.0
 40
2.0
100
AcDbArc
 50
180.0
 51
249.5126799999996
  0
ARC
  5
A36
330
2
100
AcDbEntity
  8
0
100
AcDbCircle
 10
603.9875757495187
 20
109.4396339652117
 30
0.0
 40
6.0
100
AcDbArc
 50
59.64169700000056
 51
132.6359250000002
  0
ARC
  5
A37
330
2
100
AcDbEntity
  8
0
100
AcDbCircle
 10
622.1822167495188
 20
140.5033779652117
 30
0.0
 40
30.0
100
AcDbArc
 50
239.6416930000005
 51
247.6683499999999
  0
LINE
  5
A38
330
2
100
AcDbEntity
  8
0
100
AcDbLine
 10
612.0580097495187
 20
122.1972709652117
 30
0.0
 11
610.0580097495187
 21
121.4574189652116
 31
0.0
  0
ARC
  5
A39
330
2
100
AcDbEntity
  8
0
100
AcDbCircle
 10
608.1822167495188
 20
120.7635329652117
 30
0.0
 40
2.0
100
AcDbArc
 50
0.0
 51
40.60129500000027
  0
ARC
  5
A3A
330
2
100
AcDbEntity
  8
0
100
AcDbCircle
 10
610.1822167495188
 20
121.5033779652117
 30
0.0
 40
2.0
100
AcDbArc
 50
0.0
 51
40.60129500000027
  0
LINE
  5
A3B
330
2
100
AcDbEntity
  8
0
100
AcDbLine
 10
612.1822167495188
 20
121.5033779652117
 30
0.0
 11
612.1822167495188
 21
119.6384639652117
 31
0.0
  0
LINE
  5
A3C
330
2
100
AcDbEntity
  8
0
100
AcDbLine
 10
610.1822167495188
 20
120.7635329652117
 30
0.0
 11
610.1822167495188
 21
120.2683849652117
 31
0.0
  0
LINE
  5
A3D
330
2
100
AcDbEntity
  8
0
100
AcDbLine
 10
619.1822167495188
 20
117.0033779652117
 30
0.0
 11
657.1822167495188
 21
117.0033779652117
 31
0.0
  0
ARC
  5
A3E
330
2
100
AcDbEntity
  8
0
100
AcDbCircle
 10
661.7815817495189
 20
122.0033779652117
 30
0.0
 40
10.0
100
AcDbArc
 50
270.0
 51
292.3316350000003
  0
ARC
  5
A3F
330
2
100
AcDbEntity
  8
0
100
AcDbCircle
 10
657.1822167495188
 20
139.0033779652117
 30
0.0
 40
22.0
100
AcDbArc
 50
270.0
 51
290.4873049999995
  0
ARC
  5
A40
330
2
100
AcDbEntity
  8
0
100
AcDbCircle
 10
664.1822167495188
 20
120.2683849652117
 30
0.0
 40
2.0
100
AcDbArc
 50
290.4873119999995
 51
0.0
  0
ARC
  5
A41
330
2
100
AcDbEntity
  8
0
100
AcDbCircle
 10
662.1822167495188
 20
119.6384639652117
 30
0.0
 40
2.0
100
AcDbArc
 50
284.4775089999994
 51
0.0
  0
ARC
  5
A42
330
2
100
AcDbEntity
  8
0
100
AcDbCircle
 10
654.1822167495188
 20
140.5033779652117
 30
0.0
 40
30.0
100
AcDbArc
 50
292.3316350000003
 51
300.3583069999994
  0
LINE
  5
A43
330
2
100
AcDbEntity
  8
0
100
AcDbLine
 10
664.3064237495188
 20
122.1972709652117
 30
0.0
 11
666.3064237495189
 21
121.4574189652116
 31
0.0
  0
ARC
  5
A44
330
2
100
AcDbEntity
  8
0
100
AcDbCircle
 10
668.1822167495188
 20
120.7635329652117
 30
0.0
 40
2.0
100
AcDbArc
 50
139.398712
 51
180.0
  0
ARC
  5
A45
330
2
100
AcDbEntity
  8
0
100
AcDbCircle
 10
666.1822167495188
 20
121.5033779652117
 30
0.0
 40
2.0
100
AcDbArc
 50
139.398712
 51
180.0
  0
LINE
  5
A46
330
2
100
AcDbEntity
  8
0
100
AcDbLine
 10
664.1822167495188
 20
121.5033779652117
 30
0.0
 11
664.1822167495188
 21
119.6384639652117
 31
0.0
  0
LINE
  5
A47
330
2
100
AcDbEntity
  8
0
100
AcDbLine
 10
666.1822167495188
 20
120.7635329652117
 30
0.0
 11
666.1822167495188
 21
120.2683849652117
 31
0.0
  0
CIRCLE
  5
A48
330
2
100
AcDbEntity
  8
0
100
AcDbCircle
 10
627.1822167495188
 20
152.5033779652117
 30
0.0
 40
25.002001
  0
CIRCLE
  5
A49
330
2
100
AcDbEntity
  8
0
100
AcDbCircle
 10
627.1822167495188
 20
152.5033779652117
 30
0.0
 40
23.0
  0
CIRCLE
  5
A4A
330
2
100
AcDbEntity
  8
0
100
AcDbCircle
 10
627.1822167495188
 20
152.5033779652117
 30
0.0
 40
16.0
  0
CIRCLE
  5
A4B
330
2
100
AcDbEntity
  8
0
100
AcDbCircle
 10
627.1822167495188
 20
152.5033779652117
 30
0.0
 40
19.5
  0
LINE
  5
A4C
330
2
100
AcDbEntity
  8
0
100
AcDbLine
 10
597.1822167495188
 20
166.0033779652117
 30
0.0
 11
597.1822167495188
 21
139.0033779652117
 31
0.0
  0
LINE
  5
A4D
330
2
100
AcDbEntity
  8
0
100
AcDbLine
 10
592.1822167495188
 20
141.8318079652117
 30
0.0
 11
592.1822167495188
 21
163.1749479652116
 31
0.0
  0
LINE
  5
A4E
330
2
100
AcDbEntity
  8
0
100
AcDbLine
 10
591.5964017495188
 20
140.4175929652117
 30
0.0
 11
588.7680317495188
 21
137.5891629652117
 31
0.0
  0
ARC
  5
A4F
330
2
100
AcDbEntity
  8
0
100
AcDbCircle
 10
599.8172877495188
 20
134.0033779652117
 30
0.0
 40
2.0
100
AcDbArc
 50
194.4775090000004
 51
270.0
  0
ARC
  5
A50
330
2
100
AcDbEntity
  8
0
100
AcDbCircle
 10
599.4084737495188
 20
136.0033779652117
 30
0.0
 40
2.0
100
AcDbArc
 50
188.626923
 51
270.0
  0
ARC
  5
A51
330
2
100
AcDbEntity
  8
0
100
AcDbCircle
 10
590.1822167495188
 20
136.1749479652116
 30
0.0
 40
2.0
100
AcDbArc
 50
134.9999999999994
 51
180.0
  0
ARC
  5
A52
330
2
100
AcDbEntity
  8
0
100
AcDbCircle
 10
619.1822167495188
 20
139.0033779652117
 30
0.0
 40
22.0
100
AcDbArc
 50
180.0
 51
194.4775090000004
  0
LINE
  5
A53
330
2
100
AcDbEntity
  8
0
100
AcDbLine
 10
602.0179097495188
 20
133.8204099652117
 30
0.0
 11
601.0980497495189
 21
131.8204099652117
 31
0.0
  0
LINE
  5
A54
330
2
100
AcDbEntity
  8
0
100
AcDbLine
 10
600.2623557495187
 20
132.0033779652117
 30
0.0
 11
599.8172877495188
 21
132.0033779652117
 31
0.0
  0
ARC
  5
A55
330
2
100
AcDbEntity
  8
0
100
AcDbCircle
 10
600.2623557495187
 20
130.0033779652117
 30
0.0
 40
2.0
100
AcDbArc
 50
40.60129500000027
 51
90.0
  0
LINE
  5
A56
330
2
100
AcDbEntity
  8
0
100
AcDbLine
 10
601.1822167495188
 20
134.0033779652117
 30
0.0
 11
599.4084737495188
 21
134.0033779652117
 31
0.0
  0
ARC
  5
A57
330
2
100
AcDbEntity
  8
0
100
AcDbCircle
 10
601.1822167495188
 20
132.0033779652117
 30
0.0
 40
2.0
100
AcDbArc
 50
40.60129500000027
 51
90.0
  0
ARC
  5
A58
330
2
100
AcDbEntity
  8
0
100
AcDbCircle
 10
590.1822167495188
 20
141.8318079652117
 30
0.0
 40
2.0
100
AcDbArc
 50
314.9999999999994
 51
0.0
  0
ARC
  5
A59
330
2
100
AcDbEntity
  8
0
100
AcDbCircle
 10
619.1822167495188
 20
166.0033779652117
 30
0.0
 40
22.0
100
AcDbArc
 50
165.5224909999995
 51
180.0
  0
ARC
  5
A5A
330
2
100
AcDbEntity
  8
0
100
AcDbCircle
 10
590.1822167495188
 20
168.8318079652117
 30
0.0
 40
2.0
100
AcDbArc
 50
180.0
 51
225.0000000000006
  0
LINE
  5
A5B
330
2
100
AcDbEntity
  8
0
100
AcDbLine
 10
591.5964017495188
 20
164.5891629652117
 30
0.0
 11
588.7680317495188
 21
167.4175929652117
 31
0.0
  0
ARC
  5
A5C
330
2
100
AcDbEntity
  8
0
100
AcDbCircle
 10
590.1822167495188
 20
163.1749479652116
 30
0.0
 40
2.0
100
AcDbArc
 50
0.0
 51
45.00000000000057
  0
ARC
  5
A5D
330
2
100
AcDbEntity
  8
0
100
AcDbCircle
 10
599.8172877495188
 20
171.0033779652117
 30
0.0
 40
2.0
100
AcDbArc
 50
90.0
 51
165.5224909999995
  0
ARC
  5
A5E
330
2
100
AcDbEntity
  8
0
100
AcDbCircle
 10
599.4084737495188
 20
169.0033779652117
 30
0.0
 40
2.0
100
AcDbArc
 50
90.0
 51
171.3730769999999
  0
LINE
  5
A5F
330
2
100
AcDbEntity
  8
0
100
AcDbLine
 10
602.7007107495188
 20
171.7017879652116
 30
0.0
 11
611.7007107495188
 21
182.2017879652116
 31
0.0
  0
LINE
  5
A60
330
2
100
AcDbEntity
  8
0
100
AcDbLine
 10
600.2623557495187
 20
173.0033779652117
 30
0.0
 11
599.8172877495188
 21
173.0033779652117
 31
0.0
  0
LINE
  5
A61
330
2
100
AcDbEntity
  8
0
100
AcDbLine
 10
601.1822167495188
 20
171.0033779652117
 30
0.0
 11
599.4084737495188
 21
171.0033779652117
 31
0.0
  0
LINE
  5
A62
330
2
100
AcDbEntity
  8
0
100
AcDbLine
 10
602.0179097495188
 20
171.1863459652116
 30
0.0
 11
601.0980497495189
 21
173.1863459652116
 31
0.0
  0
ARC
  5
A63
330
2
100
AcDbEntity
  8
0
100
AcDbCircle
 10
601.1822167495188
 20
173.0033779652117
 30
0.0
 40
2.0
100
AcDbArc
 50
270.0
 51
319.3987049999997
  0
ARC
  5
A64
330
2
100
AcDbEntity
  8
0
100
AcDbCircle
 10
600.2623557495187
 20
175.0033779652117
 30
0.0
 40
2.0
100
AcDbArc
 50
270.0
 51
319.3987049999997
  0
ARC
  5
A65
330
2
100
AcDbEntity
  8
0
100
AcDbCircle
 10
627.1822167495188
 20
152.5033779652117
 30
0.0
 40
6.0
100
AcDbArc
 50
109.4712219999995
 51
70.52877800000044
  0
CIRCLE
  5
A66
330
2
100
AcDbEntity
  8
0
100
AcDbCircle
 10
627.1822167495188
 20
152.5033779652117
 30
0.0
 40
10.0
  0
LINE
  5
A67
330
2
100
AcDbEntity
  8
0
100
AcDbLine
 10
674.3465237495188
 20
133.8204099652117
 30
0.0
 11
675.2663837495187
 21
131.8204099652117
 31
0.0
  0
ARC
  5
A68
330
2
100
AcDbEntity
  8
0
100
AcDbCircle
 10
675.1822167495188
 20
132.0033779652117
 30
0.0
 40
2.0
100
AcDbArc
 50
90.0
 51
139.398712
  0
LINE
  5
A69
330
2
100
AcDbEntity
  8
0
100
AcDbLine
 10
629.1822167495188
 20
160.3033809652117
 30
0.0
 11
629.1822167495188
 21
158.1602379652117
 31
0.0
  0
LINE
  5
A6A
330
2
100
AcDbEntity
  8
0
100
AcDbLine
 10
625.1822167495188
 20
160.3033809652117
 30
0.0
 11
625.1822167495188
 21
158.1602379652117
 31
0.0
  0
LINE
  5
A6B
330
2
100
AcDbEntity
  8
0
100
AcDbLine
 10
625.1822167495188
 20
160.3033809652117
 30
0.0
 11
629.1822167495188
 21
160.3033809652117
 31
0.0
  0
LINE
  5
A6C
330
2
100
AcDbEntity
  8
0
100
AcDbLine
 10
673.6637227495188
 20
171.7017879652116
 30
0.0
 11
664.6637227495188
 21
182.2017879652116
 31
0.0
  0
LINE
  5
A6D
330
2
100
AcDbEntity
  8
0
100
AcDbLine
 10
674.3465237495188
 20
171.1863459652116
 30
0.0
 11
675.2663837495187
 21
173.1863459652116
 31
0.0
  0
ARC
  5
A6E
330
2
100
AcDbEntity
  8
0
100
AcDbCircle
 10
675.1822167495188
 20
173.0033779652117
 30
0.0
 40
2.0
100
AcDbArc
 50
220.6012879999999
 51
270.0
  0
LINE
  5
A6F
330
2
100
AcDbEntity
  8
0
100
AcDbLine
 10
816.9876977495189
 20
176.5033779652117
 30
0.0
 11
770.7376977495187
 21
176.5033779652117
 31
0.0
  0
LINE
  5
A70
330
2
100
AcDbEntity
  8
0
100
AcDbLine
 10
816.9876977495189
 20
126.5033779652117
 30
0.0
 11
770.7376977495187
 21
126.5033779652117
 31
0.0
  0
LINE
  5
A71
330
2
100
AcDbEntity
  8
0
100
AcDbLine
 10
814.7376977495188
 20
112.5033779652117
 30
0.0
 11
770.7376977495187
 21
112.5033779652117
 31
0.0
  0
LINE
  5
A72
330
2
100
AcDbEntity
  8
0
100
AcDbLine
 10
688.1822167495188
 20
136.1749479652116
 30
0.0
 11
688.1822167495188
 21
119.0033779652117
 31
0.0
  0
LINE
  5
A73
330
2
100
AcDbEntity
  8
0
100
AcDbLine
 10
761.2376977495188
 20
122.2544159652117
 30
0.0
 11
688.1822167495188
 21
122.2544159652117
 31
0.0
  0
LINE
  5
A74
330
2
100
AcDbEntity
  8
0
100
AcDbLine
 10
761.2376977495188
 20
114.5033779652117
 30
0.0
 11
689.5409817495188
 21
114.5033779652117
 31
0.0
  0
ARC
  5
A75
330
2
100
AcDbEntity
  8
0
100
AcDbCircle
 10
681.1822167495188
 20
119.0033779652117
 30
0.0
 40
7.0
100
AcDbArc
 50
227.3640749999997
 51
0.0
  0
CIRCLE
  5
A77
330
2
100
AcDbEntity
  8
HOJO
100
AcDbCircle
 10
681.1822167495188
 20
119.0033779652117
 30
0.0
 40
4.0
  0
CIRCLE
  5
A78
330
2
100
AcDbEntity
  8
0
100
AcDbCircle
 10
681.1822167495188
 20
119.0033779652117
 30
0.0
 40
3.399999999999999
  0
LINE
  5
A79
330
2
100
AcDbEntity
  8
0
100
AcDbLine
 10
688.8458517495188
 20
114.3786829652117
 30
0.0
 11
683.6151997495188
 21
112.4397949652117
 31
0.0
  0
ARC
  5
A7A
330
2
100
AcDbEntity
  8
0
100
AcDbCircle
 10
689.5409817495188
 20
112.5033779652117
 30
0.0
 40
2.0
100
AcDbArc
 50
90.0
 51
110.33873
  0
LINE
  5
A7B
330
2
100
AcDbEntity
  8
0
100
AcDbLine
 10
770.7376977495187
 20
122.2543769652116
 30
0.0
 11
761.2376977495188
 21
122.2543769652116
 31
0.0
  0
LINE
  5
A7C
330
2
100
AcDbEntity
  8
0
100
AcDbLine
 10
770.7376977495187
 20
114.5033779652117
 30
0.0
 11
761.2376977495188
 21
114.5033779652117
 31
0.0
  0
LINE
  5
A7D
330
2
100
AcDbEntity
  8
0
100
AcDbLine
 10
679.1822167495188
 20
166.0033779652117
 30
0.0
 11
679.1822167495188
 21
139.0033779652117
 31
0.0
  0
LINE
  5
A7E
330
2
100
AcDbEntity
  8
0
100
AcDbLine
 10
684.1822167495188
 20
141.8318079652117
 30
0.0
 11
684.1822167495188
 21
163.1749479652116
 31
0.0
  0
LINE
  5
A7F
330
2
100
AcDbEntity
  8
0
100
AcDbLine
 10
684.7680317495188
 20
140.4175929652117
 30
0.0
 11
687.5964017495188
 21
137.5891629652117
 31
0.0
  0
ARC
  5
A80
330
2
100
AcDbEntity
  8
0
100
AcDbCircle
 10
676.5471457495188
 20
134.0033779652117
 30
0.0
 40
2.0
100
AcDbArc
 50
270.0
 51
345.5224909999996
  0
LINE
  5
A81
330
2
100
AcDbEntity
  8
0
100
AcDbLine
 10
676.1020777495189
 20
132.0033779652117
 30
0.0
 11
676.5471457495188
 21
132.0033779652117
 31
0.0
  0
ARC
  5
A82
330
2
100
AcDbEntity
  8
0
100
AcDbCircle
 10
657.1822167495188
 20
139.0033779652117
 30
0.0
 40
22.0
100
AcDbArc
 50
345.5224880000002
 51
0.0
  0
ARC
  5
A83
330
2
100
AcDbEntity
  8
0
100
AcDbCircle
 10
676.9559597495188
 20
136.0033779652117
 30
0.0
 40
2.0
100
AcDbArc
 50
270.0
 51
351.373077
  0
ARC
  5
A84
330
2
100
AcDbEntity
  8
0
100
AcDbCircle
 10
686.1822167495188
 20
136.1749479652116
 30
0.0
 40
2.0
100
AcDbArc
 50
0.0
 51
45.00000000000057
  0
ARC
  5
A85
330
2
100
AcDbEntity
  8
0
100
AcDbCircle
 10
686.1822167495188
 20
141.8318079652117
 30
0.0
 40
2.0
100
AcDbArc
 50
180.0
 51
225.0000000000006
  0
ARC
  5
A86
330
2
100
AcDbEntity
  8
0
100
AcDbCircle
 10
657.1822167495188
 20
166.0033779652117
 30
0.0
 40
22.0
100
AcDbArc
 50
0.0
 51
14.47751199999975
  0
ARC
  5
A87
330
2
100
AcDbEntity
  8
0
100
AcDbCircle
 10
686.1822167495188
 20
168.8318079652117
 30
0.0
 40
2.0
100
AcDbArc
 50
314.9999999999994
 51
0.0
  0
ARC
  5
A88
330
2
100
AcDbEntity
  8
0
100
AcDbCircle
 10
686.1822167495188
 20
163.1749479652116
 30
0.0
 40
2.0
100
AcDbArc
 50
134.9999999999994
 51
180.0
  0
LINE
  5
A89
330
2
100
AcDbEntity
  8
0
100
AcDbLine
 10
684.7680317495188
 20
164.5891629652117
 30
0.0
 11
687.5964017495188
 21
167.4175929652117
 31
0.0
  0
ARC
  5
A8A
330
2
100
AcDbEntity
  8
0
100
AcDbCircle
 10
676.5471457495188
 20
171.0033779652117
 30
0.0
 40
2.0
100
AcDbArc
 50
14.47751199999975
 51
90.0
  0
ARC
  5
A8B
330
2
100
AcDbEntity
  8
0
100
AcDbCircle
 10
676.9559597495188
 20
169.0033779652117
 30
0.0
 40
2.0
100
AcDbArc
 50
8.62692699999976
 51
90.0
  0
LINE
  5
A8C
330
2
100
AcDbEntity
  8
0
100
AcDbLine
 10
676.1020777495189
 20
173.0033779652117
 30
0.0
 11
676.5471457495188
 21
173.0033779652117
 31
0.0
  0
ARC
  5
A8D
330
2
100
AcDbEntity
  8
0
100
AcDbCircle
 10
814.7376977495188
 20
117.5033779652117
 30
0.0
 40
5.0
100
AcDbArc
 50
270.0
 51
0.0
  0
LINE
  5
A8E
330
2
100
AcDbEntity
  8
0
100
AcDbLine
 10
588.8891257495187
 20
414.0956809168645
 30
0.0
 11
687.4753077495188
 21
414.0956809168645
 31
0.0
  0
ARC
  5
A8F
330
2
100
AcDbEntity
  8
0
100
AcDbCircle
 10
672.3768577495189
 20
195.5671139652117
 30
0.0
 40
6.0
100
AcDbArc
 50
239.6416930000005
 51
312.6359250000002
  0
ARC
  5
A90
330
2
100
AcDbEntity
  8
0
100
AcDbCircle
 10
672.5241967495188
 20
377.3916709168645
 30
0.0
 40
11.0
100
AcDbArc
 50
248.9246670000001
 51
295.717728
  0
LINE
  5
A91
330
2
100
AcDbEntity
  8
0
100
AcDbLine
 10
663.5497097495187
 20
368.5956809168645
 30
0.0
 11
681.0949367495188
 21
368.5956809168645
 31
0.0
  0
ARC
  5
A92
330
2
100
AcDbEntity
  8
0
100
AcDbCircle
 10
672.5241967495188
 20
369.7996909168645
 30
0.0
 40
11.0
100
AcDbArc
 50
64.28227199999999
 51
111.0753329999998
  0
LINE
  5
A93
330
2
100
AcDbEntity
  8
0
100
AcDbLine
 10
663.5497097495187
 20
378.5956809168644
 30
0.0
 11
681.0949367495188
 21
378.5956809168644
 31
0.0
  0
LINE
  5
A94
330
2
100
AcDbEntity
  8
0
100
AcDbLine
 10
689.1822167495188
 20
401.5956809168645
 30
0.0
 11
588.6709867495189
 21
401.5956809168645
 31
0.0
  0
LINE
  5
A95
330
2
100
AcDbEntity
  8
0
100
AcDbLine
 10
687.4753077495188
 20
333.0956809168645
 30
0.0
 11
588.8891257495187
 21
333.0956809168645
 31
0.0
  0
LINE
  5
A96
330
2
100
AcDbEntity
  8
CENTER
100
AcDbLine
 10
580.6414457495188
 20
373.5956809168645
 30
0.0
 11
828.2582277177532
 21
373.5956809168644
 31
0.0
  0
LINE
  5
A97
330
2
100
AcDbEntity
  8
0
100
AcDbLine
 10
681.1822167495188
 20
193.0033779652117
 30
0.0
 11
595.1822167495188
 21
193.0033779652117
 31
0.0
  0
LINE
  5
A99
330
2
100
AcDbEntity
  8
0
100
AcDbLine
 10
672.5241967495188
 20
366.3916709168645
 30
0.0
 11
672.5241967495188
 21
333.0956809168645
 31
0.0
  0
LINE
  5
A9A
330
2
100
AcDbEntity
  8
0
100
AcDbLine
 10
663.5497097495187
 20
368.5956809168645
 30
0.0
 11
663.5497097495187
 21
333.0956809168645
 31
0.0
  0
LINE
  5
A9B
330
2
100
AcDbEntity
  8
0
100
AcDbLine
 10
612.8147237495189
 20
368.5956809168645
 30
0.0
 11
612.8147237495189
 21
333.0956809168645
 31
0.0
  0
LINE
  5
A9C
330
2
100
AcDbEntity
  8
0
100
AcDbLine
 10
603.8402367495187
 20
366.3916709168645
 30
0.0
 11
603.8402367495187
 21
333.0956809168645
 31
0.0
  0
LINE
  5
A9D
330
2
100
AcDbEntity
  8
0
100
AcDbLine
 10
588.1822167495188
 20
373.5956809168645
 30
0.0
 11
588.8891257495187
 21
333.0956809168645
 31
0.0
  0
LINE
  5
A9E
330
2
100
AcDbEntity
  8
CENTER
100
AcDbLine
 10
595.1822167495188
 20
329.7367639168645
 30
0.0
 11
595.1822167495188
 21
417.4117819168645
 31
0.0
  0
LINE
  5
A9F
330
2
100
AcDbEntity
  8
CENTER
100
AcDbLine
 10
627.1822167495188
 20
423.0908279168645
 30
0.0
 11
627.1822167495188
 21
324.1005339168645
 31
0.0
  0
LINE
  5
AA0
330
2
100
AcDbEntity
  8
HIDS
100
AcDbLine
 10
599.1822167495188
 20
333.0956809168645
 30
0.0
 11
599.1822167495188
 21
365.5956809168645
 31
0.0
  0
LINE
  5
AA1
330
2
100
AcDbEntity
  8
HIDS
100
AcDbLine
 10
591.1822167495188
 20
333.0956809168645
 30
0.0
 11
591.1822167495188
 21
365.5956809168645
 31
0.0
  0
LINE
  5
AA2
330
2
100
AcDbEntity
  8
HIDS
100
AcDbLine
 10
598.5822407495188
 20
401.5956809168645
 30
0.0
 11
598.5822407495188
 21
333.0956809168645
 31
0.0
  0
LINE
  5
AA3
330
2
100
AcDbEntity
  8
HIDS
100
AcDbLine
 10
591.7821927495188
 20
401.5956809168645
 30
0.0
 11
591.7821927495188
 21
333.0956809168645
 31
0.0
  0
LINE
  5
AA6
330
2
100
AcDbEntity
  8
HIDS
100
AcDbLine
 10
425.3824513156591
 20
190.1362059652117
 30
0.0
 11
404.347539315659
 21
190.5033779652116
 31
0.0
  0
ARC
  5
AA7
330
2
100
AcDbEntity
  8
HIDS
100
AcDbCircle
 10
427.3475393156591
 20
189.5033779652117
 30
0.0
 40
3.0
100
AcDbArc
 50
0.0
 51
90.0
  0
ARC
  5
AA8
330
2
100
AcDbEntity
  8
HIDS
100
AcDbCircle
 10
425.347539315659
 20
188.1365109652117
 30
0.0
 40
2.0
100
AcDbArc
 50
0.0
 51
88.99999999999986
  0
LINE
  5
AA9
330
2
100
AcDbEntity
  8
HIDS
100
AcDbLine
 10
430.3475393156591
 20
189.5033779652117
 30
0.0
 11
430.3475393156591
 21
185.9003509652117
 31
0.0
  0
LINE
  5
AAA
330
2
100
AcDbEntity
  8
HIDS
100
AcDbLine
 10
427.3475393156591
 20
188.1365109652117
 30
0.0
 11
427.3475393156591
 21
184.2051139652117
 31
0.0
  0
ARC
  5
AAB
330
2
100
AcDbEntity
  8
0
100
AcDbCircle
 10
614.1822167495188
 20
185.3682919652117
 30
0.0
 40
2.0
100
AcDbArc
 50
104.4775089999994
 51
180.0
  0
ARC
  5
AAC
330
2
100
AcDbEntity
  8
0
100
AcDbCircle
 10
619.1822167495188
 20
166.0033779652117
 30
0.0
 40
22.0
100
AcDbArc
 50
90.0
 51
110.4873119999995
  0
ARC
  5
AAD
330
2
100
AcDbEntity
  8
0
100
AcDbCircle
 10
614.5828517495187
 20
183.0033779652117
 30
0.0
 40
10.0
100
AcDbArc
 50
90.0
 51
112.3316419999994
  0
CIRCLE
  5
AAE
330
2
100
AcDbEntity
  8
0
100
AcDbCircle
 10
595.1822167495188
 20
186.0033779652117
 30
0.0
 40
3.399999999999999
  0
ARC
  5
AAF
330
2
100
AcDbEntity
  8
0
100
AcDbCircle
 10
595.1822167495188
 20
186.0033779652117
 30
0.0
 40
7.0
100
AcDbArc
 50
47.3640670000003
 51
180.0
  0
ARC
  5
AB1
330
2
100
AcDbEntity
  8
0
100
AcDbCircle
 10
603.9875757495187
 20
195.5671139652117
 30
0.0
 40
6.0
100
AcDbArc
 50
227.3640749999997
 51
300.3583069999994
  0
ARC
  5
AB2
330
2
100
AcDbEntity
  8
0
100
AcDbCircle
 10
612.1822167495188
 20
184.7383789652117
 30
0.0
 40
2.0
100
AcDbArc
 50
110.4873119999995
 51
180.0
  0
LINE
  5
AB3
330
2
100
AcDbEntity
  8
0
100
AcDbLine
 10
612.0580097495187
 20
182.8094849652117
 30
0.0
 11
610.0580097495187
 21
183.5493369652117
 31
0.0
  0
ARC
  5
AB4
330
2
100
AcDbEntity
  8
0
100
AcDbCircle
 10
608.1822167495188
 20
184.2432309652117
 30
0.0
 40
2.0
100
AcDbArc
 50
319.3987049999997
 51
0.0
  0
LINE
  5
AB5
330
2
100
AcDbEntity
  8
0
100
AcDbLine
 10
612.1822167495188
 20
183.5033779652117
 30
0.0
 11
612.1822167495188
 21
185.3682919652117
 31
0.0
  0
LINE
  5
AB6
330
2
100
AcDbEntity
  8
0
100
AcDbLine
 10
610.1822167495188
 20
184.2432309652117
 30
0.0
 11
610.1822167495188
 21
184.7383789652117
 31
0.0
  0
ARC
  5
AB7
330
2
100
AcDbEntity
  8
0
100
AcDbCircle
 10
622.1822167495188
 20
164.5033779652117
 30
0.0
 40
30.0
100
AcDbArc
 50
112.3316419999994
 51
120.358299
  0
LINE
  5
AB8
330
2
100
AcDbEntity
  8
0
100
AcDbLine
 10
619.1822167495188
 20
188.0033779652117
 30
0.0
 11
657.1822167495188
 21
188.0033779652117
 31
0.0
  0
ARC
  5
AB9
330
2
100
AcDbEntity
  8
0
100
AcDbCircle
 10
657.1822167495188
 20
166.0033779652117
 30
0.0
 40
22.0
100
AcDbArc
 50
69.51268799999965
 51
90.0
  0
ARC
  5
ABA
330
2
100
AcDbEntity
  8
0
100
AcDbCircle
 10
664.1822167495188
 20
184.7383789652117
 30
0.0
 40
2.0
100
AcDbArc
 50
0.0
 51
69.51268799999965
  0
ARC
  5
ABB
330
2
100
AcDbEntity
  8
0
100
AcDbCircle
 10
662.1822167495188
 20
185.3682919652117
 30
0.0
 40
2.0
100
AcDbArc
 50
0.0
 51
75.52249100000058
  0
LINE
  5
ABC
330
2
100
AcDbEntity
  8
0
100
AcDbLine
 10
664.3064237495188
 20
182.8094849652117
 30
0.0
 11
666.3064237495189
 21
183.5493369652117
 31
0.0
  0
ARC
  5
ABD
330
2
100
AcDbEntity
  8
0
100
AcDbCircle
 10
668.1822167495188
 20
184.2432309652117
 30
0.0
 40
2.0
100
AcDbArc
 50
180.0
 51
220.6012879999999
  0
LINE
  5
ABE
330
2
100
AcDbEntity
  8
0
100
AcDbLine
 10
664.1822167495188
 20
183.5033779652117
 30
0.0
 11
664.1822167495188
 21
185.3682919652117
 31
0.0
  0
LINE
  5
ABF
330
2
100
AcDbEntity
  8
0
100
AcDbLine
 10
666.1822167495188
 20
184.2432309652117
 30
0.0
 11
666.1822167495188
 21
184.7383789652117
 31
0.0
  0
ARC
  5
AC0
330
2
100
AcDbEntity
  8
0
100
AcDbCircle
 10
654.1822167495188
 20
164.5033779652117
 30
0.0
 40
30.0
100
AcDbArc
 50
59.64169700000056
 51
67.66835800000055
  0
ARC
  5
AC1
330
2
100
AcDbEntity
  8
0
100
AcDbCircle
 10
661.7815817495189
 20
183.0033779652117
 30
0.0
 40
10.0
100
AcDbArc
 50
67.66835800000055
 51
90.0
  0
LINE
  5
AC2
330
2
100
AcDbEntity
  8
0
100
AcDbLine
 10
672.5241967495188
 20
414.0956809168645
 30
0.0
 11
672.5241967495188
 21
380.7996909168646
 31
0.0
  0
LINE
  5
AC3
330
2
100
AcDbEntity
  8
0
100
AcDbLine
 10
663.5497097495187
 20
414.0956809168645
 30
0.0
 11
663.5497097495187
 21
378.5956809168644
 31
0.0
  0
LINE
  5
AC4
330
2
100
AcDbEntity
  8
0
100
AcDbLine
 10
603.8402367495187
 20
414.0956809168645
 30
0.0
 11
603.8402367495187
 21
380.7996909168646
 31
0.0
  0
LINE
  5
AC5
330
2
100
AcDbEntity
  8
0
100
AcDbLine
 10
612.8147237495189
 20
414.0956809168645
 30
0.0
 11
612.8147237495189
 21
378.5956809168644
 31
0.0
  0
LINE
  5
AC6
330
2
100
AcDbEntity
  8
0
100
AcDbLine
 10
588.1822167495188
 20
373.5956809168645
 30
0.0
 11
588.8891257495187
 21
414.0956809168645
 31
0.0
  0
LINE
  5
AC7
330
2
100
AcDbEntity
  8
HIDS
  6
SEKKEI_H
100
AcDbLine
 10
599.4322167495188
 20
401.5956809168645
 30
0.0
 11
599.4322167495188
 21
414.0956809168645
 31
0.0
  0
LINE
  5
AC8
330
2
100
AcDbEntity
  8
HIDS
  6
SEKKEI_H
100
AcDbLine
 10
590.9322167495188
 20
401.5956809168645
 30
0.0
 11
590.9322167495188
 21
414.0956809168645
 31
0.0
  0
ARC
  5
AC9
330
2
100
AcDbEntity
  8
0
100
AcDbCircle
 10
603.8402367495187
 20
377.3916709168645
 30
0.0
 40
11.0
100
AcDbArc
 50
244.282272
 51
291.0753169999998
  0
LINE
  5
ACA
330
2
100
AcDbEntity
  8
HIDS
100
AcDbLine
 10
591.1822167495188
 20
365.5956809168645
 30
0.0
 11
599.1822167495188
 21
365.5956809168645
 31
0.0
  0
ARC
  5
ACB
330
2
100
AcDbEntity
  8
0
100
AcDbCircle
 10
595.2694967495188
 20
362.0956809168645
 30
0.0
 40
6.5
100
AcDbArc
 50
64.28227199999999
 51
90.0
  0
LINE
  5
ACC
330
2
100
AcDbEntity
  8
0
100
AcDbLine
 10
612.8147237495189
 20
368.5956809168645
 30
0.0
 11
595.2694967495188
 21
368.5956809168645
 31
0.0
  0
ARC
  5
ACD
330
2
100
AcDbEntity
  8
0
100
AcDbCircle
 10
595.2694967495188
 20
385.0956809168644
 30
0.0
 40
6.5
100
AcDbArc
 50
270.0
 51
295.717728
  0
LINE
  5
ACE
330
2
100
AcDbEntity
  8
0
100
AcDbLine
 10
612.8147237495189
 20
378.5956809168644
 30
0.0
 11
595.2694967495188
 21
378.5956809168644
 31
0.0
  0
LINE
  5
ACF
330
2
100
AcDbEntity
  8
0
100
AcDbLine
 10
599.0669217495187
 20
367.4813009168645
 30
0.0
 11
598.0901147495188
 21
367.9518209168644
 31
0.0
  0
ARC
  5
AD0
330
2
100
AcDbEntity
  8
0
100
AcDbCircle
 10
612.8147237495189
 20
362.0956809168645
 30
0.0
 40
6.5
100
AcDbArc
 50
90.0
 51
111.0753329999998
  0
LINE
  5
AD1
330
2
100
AcDbEntity
  8
0
100
AcDbLine
 10
610.4773217495188
 20
368.1608969168645
 30
0.0
 11
607.7958027495188
 21
367.1274809168645
 31
0.0
  0
ARC
  5
AD2
330
2
100
AcDbEntity
  8
0
100
AcDbCircle
 10
603.8402367495187
 20
369.7996909168645
 30
0.0
 40
11.0
100
AcDbArc
 50
68.92466700000015
 51
115.717728
  0
LINE
  5
AD3
330
2
100
AcDbEntity
  8
0
100
AcDbLine
 10
599.0669217495187
 20
379.7100609168644
 30
0.0
 11
598.0901147495188
 21
379.2395719168646
 31
0.0
  0
ARC
  5
AD4
330
2
100
AcDbEntity
  8
0
100
AcDbCircle
 10
612.8147237495189
 20
385.0956809168644
 30
0.0
 40
6.5
100
AcDbArc
 50
248.9246670000001
 51
270.0
  0
LINE
  5
AD5
330
2
100
AcDbEntity
  8
0
100
AcDbLine
 10
610.4773217495188
 20
379.0304649168644
 30
0.0
 11
607.7958027495188
 21
380.0638819168645
 31
0.0
  0
LINE
  5
AD6
330
2
100
AcDbEntity
  8
HIDS
100
AcDbLine
 10
591.1822167495188
 20
401.5956809168645
 30
0.0
 11
591.1822167495188
 21
381.5956809168644
 31
0.0
  0
LINE
  5
AD7
330
2
100
AcDbEntity
  8
HIDS
100
AcDbLine
 10
599.1822167495188
 20
401.5956809168645
 30
0.0
 11
599.1822167495188
 21
381.5956809168644
 31
0.0
  0
LINE
  5
AD8
330
2
100
AcDbEntity
  8
HIDS
100
AcDbLine
 10
591.1822167495188
 20
381.5956809168644
 30
0.0
 11
599.1822167495188
 21
381.5956809168644
 31
0.0
  0
LINE
  5
AD9
330
2
100
AcDbEntity
  8
0
100
AcDbLine
 10
665.8870507495188
 20
368.1608969168645
 30
0.0
 11
668.5686307495187
 21
367.1274809168645
 31
0.0
  0
ARC
  5
ADA
330
2
100
AcDbEntity
  8
0
100
AcDbCircle
 10
663.5497097495187
 20
362.0956809168645
 30
0.0
 40
6.5
100
AcDbArc
 50
68.92466700000015
 51
90.0
  0
LINE
  5
ADB
330
2
100
AcDbEntity
  8
0
100
AcDbLine
 10
665.8870507495188
 20
379.0304649168644
 30
0.0
 11
668.5686307495187
 21
380.0638819168645
 31
0.0
  0
ARC
  5
ADC
330
2
100
AcDbEntity
  8
0
100
AcDbCircle
 10
663.5497097495187
 20
385.0956809168644
 30
0.0
 40
6.5
100
AcDbArc
 50
270.0
 51
291.0753169999998
  0
LINE
  5
ADD
330
2
100
AcDbEntity
  8
0
100
AcDbLine
 10
819.7376977495189
 20
408.5956809168644
 30
0.0
 11
819.7376977495189
 21
338.5956809168645
 31
0.0
  0
LINE
  5
ADE
330
2
100
AcDbEntity
  8
0
100
AcDbLine
 10
770.7376977495187
 20
413.5956809168645
 30
0.0
 11
770.7376977495187
 21
333.5956809168645
 31
0.0
  0
LINE
  5
ADF
330
2
100
AcDbEntity
  8
0
100
AcDbLine
 10
683.6151997495188
 20
373.5956809168645
 30
0.0
 11
683.1794087495189
 21
348.6305929168645
 31
0.0
  0
LINE
  5
AE0
330
2
100
AcDbEntity
  8
0
100
AcDbLine
 10
689.1822167495188
 20
396.5956809168644
 30
0.0
 11
689.1822167495188
 21
350.5956809168645
 31
0.0
  0
LINE
  5
AE1
330
2
100
AcDbEntity
  8
CENTER
100
AcDbLine
 10
681.1822167495188
 20
329.7367639168645
 30
0.0
 11
681.1822167495188
 21
417.4117819168645
 31
0.0
  0
LINE
  5
AE2
330
2
100
AcDbEntity
  8
0
100
AcDbLine
 10
761.2376977495188
 20
335.5956809168645
 30
0.0
 11
761.2376977495189
 21
348.5956809168644
 31
0.0
  0
LINE
  5
AE3
330
2
100
AcDbEntity
  8
HIDS
100
AcDbLine
 10
685.1822167495188
 20
333.0956809168645
 30
0.0
 11
685.1822167495188
 21
365.5956809168645
 31
0.0
  0
LINE
  5
AE4
330
2
100
AcDbEntity
  8
HIDS
100
AcDbLine
 10
677.1822167495188
 20
333.0956809168645
 30
0.0
 11
677.1822167495188
 21
365.5956809168645
 31
0.0
  0
LINE
  5
AE5
330
2
100
AcDbEntity
  8
HIDS
100
AcDbLine
 10
684.5822407495188
 20
401.5956809168645
 30
0.0
 11
684.5822407495188
 21
333.0956809168645
 31
0.0
  0
LINE
  5
AE6
330
2
100
AcDbEntity
  8
HIDS
100
AcDbLine
 10
677.7821927495188
 20
401.5956809168645
 30
0.0
 11
677.7821927495188
 21
333.0956809168645
 31
0.0
  0
LINE
  5
AE7
330
2
100
AcDbEntity
  8
0
100
AcDbLine
 10
817.4876977495188
 20
349.5956809168645
 30
0.0
 11
770.7376977495187
 21
349.5956809168645
 31
0.0
  0
LINE
  5
AE8
330
2
100
AcDbEntity
  8
0
100
AcDbLine
 10
814.7376977495188
 20
333.5956809168645
 30
0.0
 11
770.7376977495187
 21
333.5956809168645
 31
0.0
  0
LINE
  5
AE9
330
2
100
AcDbEntity
  8
0
100
AcDbLine
 10
814.7376977495188
 20
192.5033779652117
 30
0.0
 11
770.7376977495187
 21
192.5033779652117
 31
0.0
  0
LINE
  5
AEA
330
2
100
AcDbEntity
  8
0
100
AcDbLine
 10
761.2376977495188
 20
182.7523399652117
 30
0.0
 11
688.1822167495188
 21
182.7523399652117
 31
0.0
  0
LINE
  5
AEB
330
2
100
AcDbEntity
  8
0
100
AcDbLine
 10
761.2376977495188
 20
190.5033779652116
 30
0.0
 11
689.5409817495188
 21
190.5033779652116
 31
0.0
  0
ARC
  5
AEC
330
2
100
AcDbEntity
  8
0
100
AcDbCircle
 10
681.1822167495188
 20
186.0033779652117
 30
0.0
 40
7.0
100
AcDbArc
 50
0.0
 51
132.6359250000002
  0
CIRCLE
  5
AED
330
2
100
AcDbEntity
  8
0
100
AcDbCircle
 10
681.1822167495188
 20
186.0033779652117
 30
0.0
 40
3.399999999999999
  0
LINE
  5
AEE
330
2
100
AcDbEntity
  8
0
100
AcDbLine
 10
688.8458517495188
 20
190.6280729652116
 30
0.0
 11
683.6151997495188
 21
192.5669609652117
 31
0.0
  0
ARC
  5
AEF
330
2
100
AcDbEntity
  8
0
100
AcDbCircle
 10
689.5409817495188
 20
192.5033779652117
 30
0.0
 40
2.0
100
AcDbArc
 50
249.6612699999999
 51
270.0
  0
LINE
  5
AF0
330
2
100
AcDbEntity
  8
0
100
AcDbLine
 10
770.7376977495187
 20
182.7523709652117
 30
0.0
 11
761.2376977495188
 21
182.7523709652117
 31
0.0
  0
LINE
  5
AF1
330
2
100
AcDbEntity
  8
0
100
AcDbLine
 10
770.7376977495187
 20
190.5033779652116
 30
0.0
 11
761.2376977495188
 21
190.5033779652116
 31
0.0
  0
LINE
  5
AFC
330
2
100
AcDbEntity
  8
0
100
AcDbLine
 10
770.7376977495187
 20
350.5956809168645
 30
0.0
 11
770.2377977495189
 21
350.5956809168645
 31
0.0
  0
LINE
  5
AFD
330
2
100
AcDbEntity
  8
0
100
AcDbLine
 10
689.4843407495188
 20
335.5956809168645
 30
0.0
 11
761.2376977495188
 21
335.5956809168645
 31
0.0
  0
LINE
  5
AFE
330
2
100
AcDbEntity
  8
0
100
AcDbLine
 10
687.4753077495188
 20
333.0956809168645
 30
0.0
 11
687.7807277495188
 21
350.5956809168645
 31
0.0
  0
ARC
  5
AFF
330
2
100
AcDbEntity
  8
0
100
AcDbCircle
 10
689.4843407495188
 20
333.5956809168645
 30
0.0
 40
2.0
100
AcDbArc
 50
90.0
 51
178.9999999999998
  0
ARC
  5
B00
330
2
100
AcDbEntity
  8
0
100
AcDbCircle
 10
685.1791037495188
 20
348.5956809168645
 30
0.0
 40
2.0
100
AcDbArc
 50
90.0
 51
178.9999999999998
  0
LINE
  5
B01
330
2
100
AcDbEntity
  8
0
100
AcDbLine
 10
770.7376977495187
 20
335.5956809168645
 30
0.0
 11
761.2376977495188
 21
335.5956809168645
 31
0.0
  0
ARC
  5
B02
330
2
100
AcDbEntity
  8
0
100
AcDbCircle
 10
814.7376977495188
 20
187.5033779652117
 30
0.0
 40
5.0
100
AcDbArc
 50
0.0
 51
90.0
  0
ARC
  5
B03
330
2
100
AcDbEntity
  8
0
100
AcDbCircle
 10
814.7376977495188
 20
338.5956809168645
 30
0.0
 40
5.0
100
AcDbArc
 50
270.0
 51
0.0
  0
LINE
  5
B04
330
2
100
AcDbEntity
  8
0
100
AcDbLine
 10
817.4876977495188
 20
397.5956809168644
 30
0.0
 11
770.7376977495187
 21
397.5956809168644
 31
0.0
  0
LINE
  5
B05
330
2
100
AcDbEntity
  8
0
100
AcDbLine
 10
814.7376977495188
 20
413.5956809168645
 30
0.0
 11
770.7376977495187
 21
413.5956809168645
 31
0.0
  0
LINE
  5
B06
330
2
100
AcDbEntity
  8
0
100
AcDbLine
 10
761.2376977495188
 20
398.5956809168644
 30
0.0
 11
761.2376977495188
 21
411.5956809168644
 31
0.0
  0
LINE
  5
B07
330
2
100
AcDbEntity
  8
0
100
AcDbLine
 10
687.4753077495188
 20
414.0956809168645
 30
0.0
 11
687.7807277495188
 21
396.5956809168644
 31
0.0
  0
LINE
  5
B08
330
2
100
AcDbEntity
  8
0
100
AcDbLine
 10
689.1822167495188
 20
410.9749539168644
 30
0.0
 11
689.1822167495188
 21
401.5956809168645
 31
0.0
  0
LINE
  5
B09
330
2
100
AcDbEntity
  8
HIDS
  6
SEKKEI_H
100
AcDbLine
 10
685.4322167495188
 20
401.5956809168645
 30
0.0
 11
685.4322167495188
 21
414.0956809168645
 31
0.0
  0
LINE
  5
B0A
330
2
100
AcDbEntity
  8
HIDS
  6
SEKKEI_H
100
AcDbLine
 10
676.9322167495188
 20
401.5956809168645
 30
0.0
 11
676.9322167495188
 21
414.0956809168645
 31
0.0
  0
LINE
  5
B0B
330
2
100
AcDbEntity
  8
0
100
AcDbLine
 10
770.7376977495187
 20
396.5956809168644
 30
0.0
 11
770.2377977495189
 21
396.5956809168644
 31
0.0
  0
LINE
  5
B0C
330
2
100
AcDbEntity
  8
0
100
AcDbLine
 10
683.6151997495188
 20
373.5956809168645
 30
0.0
 11
683.1794087495189
 21
398.5607689168645
 31
0.0
  0
LINE
  5
B0D
330
2
100
AcDbEntity
  8
HIDS
100
AcDbLine
 10
677.1822167495188
 20
365.5956809168645
 30
0.0
 11
685.1822167495188
 21
365.5956809168645
 31
0.0
  0
LINE
  5
B0E
330
2
100
AcDbEntity
  8
0
100
AcDbLine
 10
677.2975117495189
 20
367.4813009168645
 30
0.0
 11
678.2743187495188
 21
367.9518209168644
 31
0.0
  0
ARC
  5
B0F
330
2
100
AcDbEntity
  8
0
100
AcDbCircle
 10
681.0949367495188
 20
362.0956809168645
 30
0.0
 40
6.5
100
AcDbArc
 50
90.0
 51
115.717728
  0
LINE
  5
B10
330
2
100
AcDbEntity
  8
0
100
AcDbLine
 10
677.2975117495189
 20
379.7100609168644
 30
0.0
 11
678.2743187495188
 21
379.2395719168646
 31
0.0
  0
ARC
  5
B11
330
2
100
AcDbEntity
  8
0
100
AcDbCircle
 10
681.0949367495188
 20
385.0956809168644
 30
0.0
 40
6.5
100
AcDbArc
 50
244.282272
 51
270.0
  0
LINE
  5
B12
330
2
100
AcDbEntity
  8
HIDS
100
AcDbLine
 10
677.1822167495188
 20
401.5956809168645
 30
0.0
 11
677.1822167495188
 21
381.5956809168644
 31
0.0
  0
LINE
  5
B13
330
2
100
AcDbEntity
  8
HIDS
100
AcDbLine
 10
685.1822167495188
 20
401.5956809168645
 30
0.0
 11
685.1822167495188
 21
381.5956809168644
 31
0.0
  0
LINE
  5
B14
330
2
100
AcDbEntity
  8
HIDS
100
AcDbLine
 10
677.1822167495188
 20
381.5956809168644
 30
0.0
 11
685.1822167495188
 21
381.5956809168644
 31
0.0
  0
ARC
  5
B15
330
2
100
AcDbEntity
  8
0
100
AcDbCircle
 10
685.1791037495188
 20
398.5956809168644
 30
0.0
 40
2.0
100
AcDbArc
 50
181.0000000000001
 51
270.0
  0
LINE
  5
B22
330
2
100
AcDbEntity
  8
0
100
AcDbLine
 10
690.6305197495188
 20
411.5956809168644
 30
0.0
 11
761.2376977495188
 21
411.5956809168644
 31
0.0
  0
ARC
  5
B23
330
2
100
AcDbEntity
  8
0
100
AcDbCircle
 10
690.6305197495188
 20
409.5956809168645
 30
0.0
 40
2.0
100
AcDbArc
 50
90.0
 51
136.3987579999997
  0
LINE
  5
B24
330
2
100
AcDbEntity
  8
0
100
AcDbLine
 10
770.7376977495187
 20
411.5956809168644
 30
0.0
 11
761.2376977495188
 21
411.5956809168644
 31
0.0
  0
ARC
  5
B25
330
2
100
AcDbEntity
  8
0
100
AcDbCircle
 10
814.7376977495188
 20
408.5957119168645
 30
0.0
 40
5.0
100
AcDbArc
 50
0.0
 51
90.0
  0
LINE
  5
1183
330
2
100
AcDbEntity
  8
0
100
AcDbLine
 10
149.6974087632499
 20
302.6214891631669
 30
0.0
 11
190.1974087632499
 21
303.328421163167
 31
0.0
  0
LINE
  5
1184
330
2
100
AcDbEntity
  8
0
100
AcDbLine
 10
149.6974087632499
 20
383.6214891631669
 30
0.0
 11
190.1974087632499
 21
382.9145651631669
 31
0.0
  0
LINE
  5
1185
330
2
100
AcDbEntity
  8
CENTER
100
AcDbLine
 10
92.95879176325001
 20
343.121489163167
 30
0.0
 11
206.4360257632499
 21
343.121489163167
 31
0.0
  0
LINE
  5
1186
330
2
100
AcDbEntity
  8
PHAS
  6
SEKKEI_P_S
100
AcDbLine
 10
198.4738677632499
 20
327.2476031631669
 30
0.0
 11
185.0974027632501
 21
323.663390163167
 31
0.0
  0
LINE
  5
1187
330
2
100
AcDbEntity
  8
PHAS
  6
SEKKEI_P_S
100
AcDbLine
 10
198.4738677632499
 20
358.995375163167
 30
0.0
 11
185.0974027632501
 21
362.5795881631669
 31
0.0
  0
LWPOLYLINE
  5
118D
330
2
100
AcDbEntity
  8
HOJO
100
AcDbPolyline
 90
       21
 70
     0
 43
0.0
 10
109.1974087632499
 20
369.1815321631669
 10
112.6715297632499
 20
369.0458211631669
 10
116.2653107632499
 20
370.0133801631669
 10
119.5712487632499
 20
368.7110431631669
 10
119.73079476325
 20
364.882292163167
 10
122.8416347632498
 20
360.6547071631669
 10
126.5108547632501
 20
359.1391741631669
 10
128.9038297632498
 20
354.432997163167
 10
133.5302337632499
 20
352.837676163167
 10
140.3103237632499
 20
353.4758131631669
 10
146.6118067632498
 20
352.837676163167
 10
154.58836976325
 20
353.8746321631669
 10
160.9696257632499
 20
352.4388571631669
 10
166.7127587632501
 20
354.1936941631669
 10
171.0998437632499
 20
353.316283163167
 10
172.05702776325
 20
358.8200971631669
 10
178.83711776325
 20
362.2500291631669
 10
178.9966337632499
 20
367.1954941631669
 10
182.8322357632498
 20
370.5280441631669
 10
186.4802147632499
 20
370.1711721631669
 10
190.1974087632499
 20
370.542891163167
  0
LWPOLYLINE
  5
118E
330
2
100
AcDbEntity
  8
HOJO
100
AcDbPolyline
 90
       21
 70
     0
 43
0.0
 10
109.1974087632499
 20
317.0614461631669
 10
112.6715297632499
 20
317.197150163167
 10
116.2653107632499
 20
316.229598163167
 10
119.5712487632499
 20
317.5319351631669
 10
119.73079476325
 20
321.3606861631669
 10
122.8416347632498
 20
325.588271163167
 10
126.5108547632501
 20
327.103804163167
 10
128.9038297632498
 20
331.809981163167
 10
133.5302337632499
 20
333.4053021631669
 10
140.3103237632499
 20
332.767165163167
 10
146.6118067632498
 20
333.4053021631669
 10
154.58836976325
 20
332.368346163167
 10
160.9696257632499
 20
333.804121163167
 10
166.7127587632501
 20
332.0492841631669
 10
171.0998437632499
 20
332.9266951631669
 10
172.05702776325
 20
327.422881163167
 10
178.83711776325
 20
323.992949163167
 10
178.9966337632499
 20
319.0474841631669
 10
182.8322357632498
 20
315.7149341631669
 10
186.4802147632499
 20
316.071799163167
 10
190.1974087632499
 20
315.700079163167
  0
LINE
  5
1192
330
2
100
AcDbEntity
  8
0
100
AcDbLine
 10
121.6974087632499
 20
383.132750163167
 30
0.0
 11
121.6974087632499
 21
362.209715163167
 31
0.0
  0
LINE
  5
1193
330
2
100
AcDbEntity
  8
0
100
AcDbLine
 10
109.1974087632499
 20
382.9145651631669
 30
0.0
 11
109.1974087632499
 21
303.328421163167
 31
0.0
  0
LINE
  5
1194
330
2
100
AcDbEntity
  8
CENTER
100
AcDbLine
 10
149.6974087632499
 20
390.6696151631669
 30
0.0
 11
149.6974087632499
 21
295.573363163167
 31
0.0
  0
LINE
  5
11B0
330
2
100
AcDbEntity
  8
PHAS
  6
SEKKEI_P_S
100
AcDbLine
 10
100.92094976325
 20
358.995375163167
 30
0.0
 11
114.2974147632501
 21
362.5795881631669
 31
0.0
  0
LINE
  5
11B1
330
2
100
AcDbEntity
  8
PHAS
  6
SEKKEI_P_S
100
AcDbLine
 10
100.92094976325
 20
327.2476031631669
 30
0.0
 11
114.2974147632501
 21
323.663390163167
 31
0.0
  0
LINE
  5
11B2
330
2
100
AcDbEntity
  8
PHAS
  6
SEKKEI_P_S
100
AcDbLine
 10
98.69740876325
 20
356.0975941631669
 30
0.0
 11
98.69740876325
 21
330.2084641631669
 31
0.0
  0
ARC
  5
11B3
330
2
100
AcDbEntity
  8
PHAS
  6
SEKKEI_P_S
100
AcDbCircle
 10
101.6974087632499
 20
330.1453841631669
 30
0.0
 40
3.0
100
AcDbArc
 50
180.0
 51
255.0000000000051
  0
ARC
  5
11B4
330
2
100
AcDbEntity
  8
PHAS
  6
SEKKEI_P_S
100
AcDbCircle
 10
101.6974087632499
 20
356.0975941631669
 30
0.0
 40
3.0
100
AcDbArc
 50
104.9999999999948
 51
180.0
  0
LINE
  5
11B5
330
2
100
AcDbEntity
  8
0
100
AcDbLine
 10
184.69731676325
 20
353.121489163167
 30
0.0
 11
184.69731676325
 21
333.1214891631669
 31
0.0
  0
LINE
  5
11B6
330
2
100
AcDbEntity
  8
0
100
AcDbLine
 10
114.69750076325
 20
353.121489163167
 30
0.0
 11
114.69750076325
 21
333.1214891631669
 31
0.0
  0
LINE
  5
11B7
330
2
100
AcDbEntity
  8
0
100
AcDbLine
 10
114.2974147632501
 20
363.971495163167
 30
0.0
 11
114.2974147632501
 21
322.271483163167
 31
0.0
  0
LINE
  5
11B8
330
2
100
AcDbEntity
  8
0
100
AcDbLine
 10
111.69740876325
 20
321.521910163167
 30
0.0
 11
111.69740876325
 21
364.721068163167
 31
0.0
  0
LINE
  5
11B9
330
2
100
AcDbEntity
  8
0
100
AcDbLine
 10
185.0974027632501
 20
363.971495163167
 30
0.0
 11
185.0974027632501
 21
322.271483163167
 31
0.0
  0
LINE
  5
11BA
330
2
100
AcDbEntity
  8
0
100
AcDbLine
 10
187.69740876325
 20
321.521910163167
 30
0.0
 11
187.69740876325
 21
364.721068163167
 31
0.0
  0
LINE
  5
11BB
330
2
100
AcDbEntity
  8
0
100
AcDbLine
 10
149.6974087632499
 20
302.6214891631669
 30
0.0
 11
109.1974087632499
 21
303.328421163167
 31
0.0
  0
LINE
  5
11BC
330
2
100
AcDbEntity
  8
0
100
AcDbLine
 10
121.6974087632499
 20
303.110228163167
 30
0.0
 11
121.6974087632499
 21
324.033278163167
 31
0.0
  0
LINE
  5
11BD
330
2
100
AcDbEntity
  8
0
100
AcDbLine
 10
124.6974087632499
 20
330.621489163167
 30
0.0
 11
128.29952076325
 21
330.621489163167
 31
0.0
  0
LINE
  5
11BE
330
2
100
AcDbEntity
  8
0
100
AcDbLine
 10
116.6974087632499
 20
322.271483163167
 30
0.0
 11
116.6974087632499
 21
333.1214891631669
 31
0.0
  0
LINE
  5
11BF
330
2
100
AcDbEntity
  8
PHAS
100
AcDbLine
 10
115.4974267632498
 20
323.6214891631669
 30
0.0
 11
116.6974087632499
 21
323.663390163167
 31
0.0
  0
ARC
  5
11C0
330
2
100
AcDbEntity
  8
PHAS
100
AcDbCircle
 10
115.4974267632498
 20
323.8414901631669
 30
0.0
 40
1.219999999999999
100
AcDbArc
 50
188.3022609999995
 51
349.6111449999996
  0
LINE
  5
11C1
330
2
100
AcDbEntity
  8
0
100
AcDbLine
 10
115.88146076325
 20
318.598624163167
 30
0.0
 11
113.0133567632499
 21
319.6425161631669
 31
0.0
  0
LINE
  5
11C2
330
2
100
AcDbEntity
  8
0
100
AcDbLine
 10
114.2974147632501
 20
322.271483163167
 30
0.0
 11
116.6974087632499
 21
322.271483163167
 31
0.0
  0
LINE
  5
11C3
330
2
100
AcDbEntity
  8
0
100
AcDbLine
 10
111.69740876325
 20
323.6214891631669
 30
0.0
 11
114.2974147632501
 21
323.6214891631669
 31
0.0
  0
LINE
  5
11C4
330
2
100
AcDbEntity
  8
PHAS
100
AcDbLine
 10
115.4974267632498
 20
323.6214891631669
 30
0.0
 11
114.2974147632501
 21
323.663390163167
 31
0.0
  0
LINE
  5
11C5
330
2
100
AcDbEntity
  8
0
100
AcDbLine
 10
109.1974087632499
 20
314.951277163167
 30
0.0
 11
115.69740876325
 21
315.1214891631669
 31
0.0
  0
ARC
  5
11C6
330
2
100
AcDbEntity
  8
0
100
AcDbCircle
 10
113.69740876325
 20
321.521910163167
 30
0.0
 40
2.0
100
AcDbArc
 50
180.0
 51
249.9999999999968
  0
LINE
  5
11C7
330
2
100
AcDbEntity
  8
0
100
AcDbLine
 10
114.6973777632499
 20
315.821501163167
 30
0.0
 11
115.69740876325
 21
315.821501163167
 31
0.0
  0
LINE
  5
11C8
330
2
100
AcDbEntity
  8
0
100
AcDbLine
 10
114.6973777632499
 20
315.821501163167
 30
0.0
 11
114.6973777632499
 21
316.6517321631669
 31
0.0
  0
LINE
  5
11C9
330
2
100
AcDbEntity
  8
0
100
AcDbLine
 10
110.6973777632499
 20
316.1214741631669
 30
0.0
 11
110.6973777632499
 21
317.1200391631669
 31
0.0
  0
LINE
  5
11CA
330
2
100
AcDbEntity
  8
0
100
AcDbLine
 10
110.6973777632499
 20
316.1214741631669
 30
0.0
 11
114.6973777632499
 21
316.121458163167
 31
0.0
  0
LINE
  5
11CB
330
2
100
AcDbEntity
  8
0
100
AcDbLine
 10
115.69740876325
 20
315.1214891631669
 30
0.0
 11
115.69740876325
 21
316.382498163167
 31
0.0
  0
LINE
  5
11CC
330
2
100
AcDbEntity
  8
0
100
AcDbLine
 10
117.1974087632499
 20
316.596785163167
 30
0.0
 11
117.1974087632499
 21
316.7192371631669
 31
0.0
  0
ARC
  5
11CD
330
2
100
AcDbEntity
  8
0
100
AcDbCircle
 10
115.1974087632499
 20
316.7192371631669
 30
0.0
 40
2.0
100
AcDbArc
 50
0.0
 51
69.99999200000162
  0
LINE
  5
11CE
330
2
100
AcDbEntity
  8
0
100
AcDbLine
 10
114.69750076325
 20
333.1214891631669
 30
0.0
 11
124.6974087632499
 21
333.1214891631669
 31
0.0
  0
LINE
  5
11CF
330
2
100
AcDbEntity
  8
0
100
AcDbLine
 10
117.6974087632499
 20
327.1214891631669
 30
0.0
 11
124.6974087632499
 21
327.1214891631669
 31
0.0
  0
LINE
  5
11D0
330
2
100
AcDbEntity
  8
0
100
AcDbLine
 10
117.6974087632499
 20
327.1214891631669
 30
0.0
 11
123.6974087632499
 21
333.1214891631669
 31
0.0
  0
LINE
  5
11D1
330
2
100
AcDbEntity
  8
0
100
AcDbLine
 10
123.6974087632499
 20
327.1214891631669
 30
0.0
 11
117.6974087632499
 21
333.1214891631669
 31
0.0
  0
LINE
  5
11D2
330
2
100
AcDbEntity
  8
0
100
AcDbLine
 10
117.6974087632499
 20
327.1214891631669
 30
0.0
 11
117.6974087632499
 21
333.1214891631669
 31
0.0
  0
LINE
  5
11D3
330
2
100
AcDbEntity
  8
0
100
AcDbLine
 10
117.6974087632499
 20
327.1214891631669
 30
0.0
 11
116.6974087632499
 21
326.544142163167
 31
0.0
  0
LINE
  5
11D4
330
2
100
AcDbEntity
  8
0
100
AcDbLine
 10
124.6974087632499
 20
326.3547811631669
 30
0.0
 11
124.6974087632499
 21
333.1214891631669
 31
0.0
  0
LINE
  5
11D5
330
2
100
AcDbEntity
  8
0
100
AcDbLine
 10
123.6974087632499
 20
327.1214891631669
 30
0.0
 11
123.6974087632499
 21
333.1214891631669
 31
0.0
  0
LINE
  5
11D6
330
2
100
AcDbEntity
  8
0
100
AcDbLine
 10
142.73232076325
 20
327.988661163167
 30
0.0
 11
126.8195707632501
 21
327.7108901631669
 31
0.0
  0
LINE
  5
11D7
330
2
100
AcDbEntity
  8
0
100
AcDbLine
 10
140.39940476325
 20
331.9479361631669
 30
0.0
 11
128.8716637632498
 21
331.7467181631669
 31
0.0
  0
ARC
  5
11D8
330
2
100
AcDbEntity
  8
0
100
AcDbCircle
 10
142.6974087632499
 20
329.9883561631669
 30
0.0
 40
2.0
100
AcDbArc
 50
271.0000000000017
 51
0.0
  0
ARC
  5
11D9
330
2
100
AcDbEntity
  8
0
100
AcDbCircle
 10
140.3644927632499
 20
333.9476301631669
 30
0.0
 40
2.0
100
AcDbArc
 50
271.0000000000017
 51
330.0149539999982
  0
LINE
  5
11DA
330
2
100
AcDbEntity
  8
0
100
AcDbLine
 10
144.26854476325
 20
328.7507921631669
 30
0.0
 11
141.9356287632499
 21
332.7100821631669
 31
0.0
  0
LINE
  5
11DB
330
2
100
AcDbEntity
  8
0
100
AcDbLine
 10
144.6974087632499
 20
329.9883561631669
 30
0.0
 11
144.6974087632499
 21
333.2114401631669
 31
0.0
  0
LINE
  5
11DC
330
2
100
AcDbEntity
  8
0
100
AcDbLine
 10
156.6624967632499
 20
328.2068471631669
 30
0.0
 11
171.96715376325
 21
327.9396961631669
 31
0.0
  0
LINE
  5
11DD
330
2
100
AcDbEntity
  8
0
100
AcDbLine
 10
158.9954127632499
 20
332.166121163167
 30
0.0
 11
171.26939976325
 21
331.951872163167
 31
0.0
  0
ARC
  5
11DE
330
2
100
AcDbEntity
  8
0
100
AcDbCircle
 10
159.03032476325
 20
334.165816163167
 30
0.0
 40
2.0
100
AcDbArc
 50
215.5904389999967
 51
268.9999999999982
  0
ARC
  5
11DF
330
2
100
AcDbEntity
  8
0
100
AcDbCircle
 10
156.69740876325
 20
330.2065411631669
 30
0.0
 40
2.0
100
AcDbArc
 50
180.0
 51
268.9999999999982
  0
LINE
  5
11E0
330
2
100
AcDbEntity
  8
0
100
AcDbLine
 10
157.45918876325
 20
332.9282671631669
 30
0.0
 11
155.1262727632499
 21
328.968993163167
 31
0.0
  0
LINE
  5
11E1
330
2
100
AcDbEntity
  8
0
100
AcDbLine
 10
154.6974087632499
 20
330.2065411631669
 30
0.0
 11
154.6974087632499
 21
332.3928821631669
 31
0.0
  0
LINE
  5
11E2
330
2
100
AcDbEntity
  8
0
100
AcDbLine
 10
182.69740876325
 20
322.271483163167
 30
0.0
 11
182.69740876325
 21
333.1214891631669
 31
0.0
  0
LINE
  5
11E3
330
2
100
AcDbEntity
  8
0
100
AcDbLine
 10
187.69740876325
 20
323.6214891631669
 30
0.0
 11
185.0974027632501
 21
323.6214891631669
 31
0.0
  0
LINE
  5
11E4
330
2
100
AcDbEntity
  8
PHAS
100
AcDbLine
 10
183.89739076325
 20
323.6214891631669
 30
0.0
 11
182.69740876325
 21
323.663390163167
 31
0.0
  0
LINE
  5
11E5
330
2
100
AcDbEntity
  8
PHAS
100
AcDbLine
 10
183.89739076325
 20
323.6214891631669
 30
0.0
 11
185.0974027632501
 21
323.663390163167
 31
0.0
  0
ARC
  5
11E6
330
2
100
AcDbEntity
  8
PHAS
100
AcDbCircle
 10
183.89739076325
 20
323.8414901631669
 30
0.0
 40
1.219999999999999
100
AcDbArc
 50
190.3888549999995
 51
351.6977370000001
  0
ARC
  5
11E7
330
2
100
AcDbEntity
  8
0
100
AcDbCircle
 10
185.6974087632499
 20
321.521910163167
 30
0.0
 40
2.0
100
AcDbArc
 50
290.0000000000031
 51
0.0
  0
LINE
  5
11E8
330
2
100
AcDbEntity
  8
0
100
AcDbLine
 10
183.51326576325
 20
318.598586163167
 30
0.0
 11
186.38146076325
 21
319.6425161631669
 31
0.0
  0
ARC
  5
11E9
330
2
100
AcDbEntity
  8
0
100
AcDbCircle
 10
184.19731676325
 20
316.7191991631669
 30
0.0
 40
2.0
100
AcDbArc
 50
110.0000079999983
 51
180.0
  0
LINE
  5
11EA
330
2
100
AcDbEntity
  8
0
100
AcDbLine
 10
182.1973167632499
 20
316.266585163167
 30
0.0
 11
182.1973167632499
 21
316.7191991631669
 31
0.0
  0
LINE
  5
11EB
330
2
100
AcDbEntity
  8
0
100
AcDbLine
 10
185.0974027632501
 20
322.271483163167
 30
0.0
 11
182.69740876325
 21
322.271483163167
 31
0.0
  0
LINE
  5
11EC
330
2
100
AcDbEntity
  8
0
100
AcDbLine
 10
184.69731676325
 20
333.1214891631669
 30
0.0
 11
174.6974087632499
 21
333.1214891631669
 31
0.0
  0
LINE
  5
11ED
330
2
100
AcDbEntity
  8
0
100
AcDbLine
 10
181.69740876325
 20
327.1214891631669
 30
0.0
 11
174.6974087632499
 21
327.1214891631669
 31
0.0
  0
LINE
  5
11EE
330
2
100
AcDbEntity
  8
0
100
AcDbLine
 10
181.69740876325
 20
327.1214891631669
 30
0.0
 11
175.6974087632499
 21
333.1214891631669
 31
0.0
  0
LINE
  5
11EF
330
2
100
AcDbEntity
  8
0
100
AcDbLine
 10
175.6974087632499
 20
327.1214891631669
 30
0.0
 11
181.69740876325
 21
333.1214891631669
 31
0.0
  0
LINE
  5
11F0
330
2
100
AcDbEntity
  8
0
100
AcDbLine
 10
174.6974087632499
 20
326.0871571631669
 30
0.0
 11
174.6974087632499
 21
333.1214891631669
 31
0.0
  0
LINE
  5
11F1
330
2
100
AcDbEntity
  8
0
100
AcDbLine
 10
175.6974087632499
 20
327.1214891631669
 30
0.0
 11
175.6974087632499
 21
333.1214891631669
 31
0.0
  0
LINE
  5
11F2
330
2
100
AcDbEntity
  8
0
100
AcDbLine
 10
174.6974087632499
 20
330.621489163167
 30
0.0
 11
171.50075376325
 21
330.621489163167
 31
0.0
  0
LINE
  5
11F3
330
2
100
AcDbEntity
  8
0
100
AcDbLine
 10
181.69740876325
 20
327.1214891631669
 30
0.0
 11
181.69740876325
 21
333.1214891631669
 31
0.0
  0
LINE
  5
11F4
330
2
100
AcDbEntity
  8
0
100
AcDbLine
 10
181.69740876325
 20
327.1214891631669
 30
0.0
 11
182.69740876325
 21
326.544142163167
 31
0.0
  0
LINE
  5
11F5
330
2
100
AcDbEntity
  8
0
100
AcDbLine
 10
134.6975007632499
 20
336.621489163167
 30
0.0
 11
164.69731676325
 21
336.621489163167
 31
0.0
  0
LINE
  5
11F6
330
2
100
AcDbEntity
  8
0
100
AcDbLine
 10
184.69731676325
 20
350.921492163167
 30
0.0
 11
114.69750076325
 21
350.921492163167
 31
0.0
  0
LINE
  5
11F7
330
2
100
AcDbEntity
  8
0
100
AcDbLine
 10
164.69731676325
 20
349.6214891631669
 30
0.0
 11
134.6975007632499
 21
349.6214891631669
 31
0.0
  0
ARC
  5
11F8
330
2
100
AcDbEntity
  8
0
100
AcDbCircle
 10
142.6974087632499
 20
356.2546221631669
 30
0.0
 40
2.0
100
AcDbArc
 50
0.0
 51
88.99999999999822
  0
LINE
  5
11F9
330
2
100
AcDbEntity
  8
0
100
AcDbLine
 10
117.6974087632499
 20
359.1214891631669
 30
0.0
 11
123.6974087632499
 21
353.121489163167
 31
0.0
  0
LINE
  5
11FA
330
2
100
AcDbEntity
  8
0
100
AcDbLine
 10
123.6974087632499
 20
359.1214891631669
 30
0.0
 11
117.6974087632499
 21
353.121489163167
 31
0.0
  0
LINE
  5
11FB
330
2
100
AcDbEntity
  8
0
100
AcDbLine
 10
116.6974087632499
 20
363.971495163167
 30
0.0
 11
116.6974087632499
 21
353.121489163167
 31
0.0
  0
LINE
  5
11FC
330
2
100
AcDbEntity
  8
0
100
AcDbLine
 10
117.6974087632499
 20
359.1214891631669
 30
0.0
 11
117.6974087632499
 21
353.121489163167
 31
0.0
  0
LINE
  5
11FD
330
2
100
AcDbEntity
  8
0
100
AcDbLine
 10
124.6974087632499
 20
353.121489163167
 30
0.0
 11
124.6974087632499
 21
359.8881971631669
 31
0.0
  0
LINE
  5
11FE
330
2
100
AcDbEntity
  8
0
100
AcDbLine
 10
123.6974087632499
 20
359.1214891631669
 30
0.0
 11
123.6974087632499
 21
353.121489163167
 31
0.0
  0
LINE
  5
11FF
330
2
100
AcDbEntity
  8
0
100
AcDbLine
 10
141.9356287632499
 20
353.532896163167
 30
0.0
 11
144.26854476325
 21
357.4921861631669
 31
0.0
  0
LINE
  5
1200
330
2
100
AcDbEntity
  8
0
100
AcDbLine
 10
124.6974087632499
 20
355.621489163167
 30
0.0
 11
128.29952076325
 21
355.621489163167
 31
0.0
  0
LINE
  5
1201
330
2
100
AcDbEntity
  8
0
100
AcDbLine
 10
122.6975007632499
 20
337.1214891631669
 30
0.0
 11
134.6975007632499
 21
337.1214891631669
 31
0.0
  0
LINE
  5
1202
330
2
100
AcDbEntity
  8
0
100
AcDbLine
 10
122.6975007632499
 20
348.7783491631669
 30
0.0
 11
134.6975007632499
 21
348.7783491631669
 31
0.0
  0
LINE
  5
1203
330
2
100
AcDbEntity
  8
0
100
AcDbLine
 10
116.6975007632499
 20
337.1214891631669
 30
0.0
 11
116.6975007632499
 21
349.121489163167
 31
0.0
  0
LINE
  5
1204
330
2
100
AcDbEntity
  8
0
100
AcDbLine
 10
122.6975007632499
 20
336.871489163167
 30
0.0
 11
122.6975007632499
 21
349.371489163167
 31
0.0
  0
LINE
  5
1205
330
2
100
AcDbEntity
  8
0
100
AcDbLine
 10
121.5475067632498
 20
336.871489163167
 30
0.0
 11
121.5475067632498
 21
349.371489163167
 31
0.0
  0
LINE
  5
1206
330
2
100
AcDbEntity
  8
0
100
AcDbLine
 10
116.6975007632499
 20
337.1214891631669
 30
0.0
 11
114.69750076325
 21
335.9667951631669
 31
0.0
  0
LINE
  5
1207
330
2
100
AcDbEntity
  8
0
100
AcDbLine
 10
116.6975007632499
 20
337.1214891631669
 30
0.0
 11
121.5475067632498
 21
337.1214891631669
 31
0.0
  0
LINE
  5
1208
330
2
100
AcDbEntity
  8
0
100
AcDbLine
 10
121.5475067632498
 20
336.871489163167
 30
0.0
 11
122.6975007632499
 21
336.871489163167
 31
0.0
  0
LINE
  5
1209
330
2
100
AcDbEntity
  8
0
100
AcDbLine
 10
116.6975007632499
 20
349.121489163167
 30
0.0
 11
114.69750076325
 21
350.2761981631669
 31
0.0
  0
LINE
  5
120A
330
2
100
AcDbEntity
  8
0
100
AcDbLine
 10
114.69750076325
 20
353.121489163167
 30
0.0
 11
124.6974087632499
 21
353.121489163167
 31
0.0
  0
LINE
  5
120B
330
2
100
AcDbEntity
  8
0
100
AcDbLine
 10
116.6975007632499
 20
348.7783491631669
 30
0.0
 11
121.5475067632498
 21
348.7783491631669
 31
0.0
  0
LINE
  5
120C
330
2
100
AcDbEntity
  8
0
100
AcDbLine
 10
121.5475067632498
 20
349.371489163167
 30
0.0
 11
122.6975007632499
 21
349.371489163167
 31
0.0
  0
LINE
  5
120D
330
2
100
AcDbEntity
  8
0
100
AcDbLine
 10
134.6975007632499
 20
336.621489163167
 30
0.0
 11
134.6975007632499
 21
349.6214891631669
 31
0.0
  0
LINE
  5
120E
330
2
100
AcDbEntity
  8
0
100
AcDbLine
 10
140.39940476325
 20
354.295042163167
 30
0.0
 11
128.8716637632498
 21
354.496260163167
 31
0.0
  0
ARC
  5
120F
330
2
100
AcDbEntity
  8
0
100
AcDbCircle
 10
140.3644927632499
 20
352.295348163167
 30
0.0
 40
2.0
100
AcDbArc
 50
29.9850520000009
 51
88.99999999999822
  0
LINE
  5
1210
330
2
100
AcDbEntity
  8
0
100
AcDbLine
 10
144.6974087632499
 20
353.031538163167
 30
0.0
 11
144.6974087632499
 21
356.2546221631669
 31
0.0
  0
ARC
  5
1211
330
2
100
AcDbEntity
  8
0
100
AcDbCircle
 10
115.1974087632499
 20
369.523741163167
 30
0.0
 40
2.0
100
AcDbArc
 50
290.0000079999983
 51
0.0
  0
LINE
  5
1212
330
2
100
AcDbEntity
  8
0
100
AcDbLine
 10
115.88146076325
 20
367.644362163167
 30
0.0
 11
113.0133567632499
 21
366.6004621631669
 31
0.0
  0
LINE
  5
1213
330
2
100
AcDbEntity
  8
0
100
AcDbLine
 10
114.2974147632501
 20
363.971495163167
 30
0.0
 11
116.6974087632499
 21
363.971495163167
 31
0.0
  0
LINE
  5
1214
330
2
100
AcDbEntity
  8
PHAS
100
AcDbLine
 10
115.4974267632498
 20
362.6214891631669
 30
0.0
 11
116.6974087632499
 21
362.5795881631669
 31
0.0
  0
ARC
  5
1215
330
2
100
AcDbEntity
  8
PHAS
100
AcDbCircle
 10
115.4974267632498
 20
362.401488163167
 30
0.0
 40
1.219999999999999
100
AcDbArc
 50
10.38885499999955
 51
171.6977390000004
  0
LINE
  5
1216
330
2
100
AcDbEntity
  8
0
100
AcDbLine
 10
111.69740876325
 20
362.6214891631669
 30
0.0
 11
114.2974147632501
 21
362.6214891631669
 31
0.0
  0
LINE
  5
1217
330
2
100
AcDbEntity
  8
PHAS
100
AcDbLine
 10
115.4974267632498
 20
362.6214891631669
 30
0.0
 11
114.2974147632501
 21
362.5795881631669
 31
0.0
  0
ARC
  5
1218
330
2
100
AcDbEntity
  8
0
100
AcDbCircle
 10
113.69740876325
 20
364.721068163167
 30
0.0
 40
2.0
100
AcDbArc
 50
110.0000000000031
 51
180.0
  0
LINE
  5
1219
330
2
100
AcDbEntity
  8
0
100
AcDbLine
 10
117.6974087632499
 20
359.1214891631669
 30
0.0
 11
124.6974087632499
 21
359.1214891631669
 31
0.0
  0
LINE
  5
121A
330
2
100
AcDbEntity
  8
0
100
AcDbLine
 10
117.6974087632499
 20
359.1214891631669
 30
0.0
 11
116.6974087632499
 21
359.6988361631669
 31
0.0
  0
LINE
  5
121B
330
2
100
AcDbEntity
  8
0
100
AcDbLine
 10
109.1974087632499
 20
371.291701163167
 30
0.0
 11
115.69740876325
 21
371.1214891631669
 31
0.0
  0
LINE
  5
121C
330
2
100
AcDbEntity
  8
0
100
AcDbLine
 10
110.6973777632499
 20
370.121504163167
 30
0.0
 11
110.6973777632499
 21
369.122939163167
 31
0.0
  0
LINE
  5
121D
330
2
100
AcDbEntity
  8
0
100
AcDbLine
 10
114.6973777632499
 20
370.4214771631669
 30
0.0
 11
115.69740876325
 21
370.4214771631669
 31
0.0
  0
LINE
  5
121E
330
2
100
AcDbEntity
  8
0
100
AcDbLine
 10
110.6973777632499
 20
370.121504163167
 30
0.0
 11
114.6973777632499
 21
370.1215201631669
 31
0.0
  0
LINE
  5
121F
330
2
100
AcDbEntity
  8
0
100
AcDbLine
 10
114.6973777632499
 20
370.4214771631669
 30
0.0
 11
114.6973777632499
 21
369.591246163167
 31
0.0
  0
LINE
  5
1220
330
2
100
AcDbEntity
  8
0
100
AcDbLine
 10
115.69740876325
 20
371.1214891631669
 30
0.0
 11
115.69740876325
 21
369.8604871631669
 31
0.0
  0
LINE
  5
1221
330
2
100
AcDbEntity
  8
0
100
AcDbLine
 10
117.1974087632499
 20
369.6461931631669
 30
0.0
 11
117.1974087632499
 21
369.523741163167
 31
0.0
  0
LINE
  5
1222
330
2
100
AcDbEntity
  8
0
100
AcDbLine
 10
142.73232076325
 20
358.2543321631669
 30
0.0
 11
126.8195707632501
 21
358.5320881631669
 31
0.0
  0
ARC
  5
1223
330
2
100
AcDbEntity
  8
0
100
AcDbCircle
 10
156.69740876325
 20
356.036437163167
 30
0.0
 40
2.0
100
AcDbArc
 50
91.00000000000177
 51
180.0
  0
LINE
  5
1224
330
2
100
AcDbEntity
  8
0
100
AcDbLine
 10
181.69740876325
 20
359.1214891631669
 30
0.0
 11
175.6974087632499
 21
353.121489163167
 31
0.0
  0
LINE
  5
1225
330
2
100
AcDbEntity
  8
0
100
AcDbLine
 10
175.6974087632499
 20
359.1214891631669
 30
0.0
 11
181.69740876325
 21
353.121489163167
 31
0.0
  0
LINE
  5
1226
330
2
100
AcDbEntity
  8
0
100
AcDbLine
 10
174.6974087632499
 20
353.121489163167
 30
0.0
 11
174.6974087632499
 21
360.1558211631669
 31
0.0
  0
LINE
  5
1227
330
2
100
AcDbEntity
  8
0
100
AcDbLine
 10
175.6974087632499
 20
359.1214891631669
 30
0.0
 11
175.6974087632499
 21
353.121489163167
 31
0.0
  0
LINE
  5
1228
330
2
100
AcDbEntity
  8
0
100
AcDbLine
 10
182.69740876325
 20
363.971495163167
 30
0.0
 11
182.69740876325
 21
353.121489163167
 31
0.0
  0
LINE
  5
1229
330
2
100
AcDbEntity
  8
0
100
AcDbLine
 10
181.69740876325
 20
359.1214891631669
 30
0.0
 11
181.69740876325
 21
353.121489163167
 31
0.0
  0
LINE
  5
122A
330
2
100
AcDbEntity
  8
0
100
AcDbLine
 10
176.69731676325
 20
348.7783491631669
 30
0.0
 11
164.69731676325
 21
348.7783491631669
 31
0.0
  0
LINE
  5
122B
330
2
100
AcDbEntity
  8
0
100
AcDbLine
 10
176.69731676325
 20
337.1214891631669
 30
0.0
 11
164.69731676325
 21
337.1214891631669
 31
0.0
  0
LINE
  5
122C
330
2
100
AcDbEntity
  8
0
100
AcDbLine
 10
158.9954127632499
 20
354.0768571631669
 30
0.0
 11
171.26939976325
 21
354.2911061631669
 31
0.0
  0
LINE
  5
122D
330
2
100
AcDbEntity
  8
0
100
AcDbLine
 10
164.69731676325
 20
336.621489163167
 30
0.0
 11
164.69731676325
 21
349.6214891631669
 31
0.0
  0
ARC
  5
122E
330
2
100
AcDbEntity
  8
0
100
AcDbCircle
 10
159.03032476325
 20
352.077162163167
 30
0.0
 40
2.0
100
AcDbArc
 50
91.00000000000177
 51
144.4095610000032
  0
LINE
  5
122F
330
2
100
AcDbEntity
  8
0
100
AcDbLine
 10
157.45918876325
 20
353.3147111631669
 30
0.0
 11
155.1262727632499
 21
357.2739851631669
 31
0.0
  0
LINE
  5
1230
330
2
100
AcDbEntity
  8
0
100
AcDbLine
 10
154.6974087632499
 20
356.036437163167
 30
0.0
 11
154.6974087632499
 21
353.8500961631669
 31
0.0
  0
LINE
  5
1231
330
2
100
AcDbEntity
  8
0
100
AcDbLine
 10
176.69731676325
 20
336.871489163167
 30
0.0
 11
176.69731676325
 21
349.371489163167
 31
0.0
  0
LINE
  5
1232
330
2
100
AcDbEntity
  8
0
100
AcDbLine
 10
177.8473107632498
 20
336.871489163167
 30
0.0
 11
177.8473107632498
 21
349.371489163167
 31
0.0
  0
LINE
  5
1233
330
2
100
AcDbEntity
  8
0
100
AcDbLine
 10
182.69731676325
 20
337.1214891631669
 30
0.0
 11
182.69731676325
 21
349.121489163167
 31
0.0
  0
LINE
  5
1234
330
2
100
AcDbEntity
  8
0
100
AcDbLine
 10
182.69731676325
 20
337.1214891631669
 30
0.0
 11
177.8473107632498
 21
337.1214891631669
 31
0.0
  0
LINE
  5
1235
330
2
100
AcDbEntity
  8
0
100
AcDbLine
 10
177.8473107632498
 20
336.871489163167
 30
0.0
 11
176.69731676325
 21
336.871489163167
 31
0.0
  0
LINE
  5
1236
330
2
100
AcDbEntity
  8
0
100
AcDbLine
 10
182.69731676325
 20
337.1214891631669
 30
0.0
 11
184.69731676325
 21
335.9667951631669
 31
0.0
  0
LINE
  5
1237
330
2
100
AcDbEntity
  8
0
100
AcDbLine
 10
184.69731676325
 20
353.121489163167
 30
0.0
 11
174.6974087632499
 21
353.121489163167
 31
0.0
  0
LINE
  5
1238
330
2
100
AcDbEntity
  8
0
100
AcDbLine
 10
182.69731676325
 20
348.7783491631669
 30
0.0
 11
177.8473107632498
 21
348.7783491631669
 31
0.0
  0
LINE
  5
1239
330
2
100
AcDbEntity
  8
0
100
AcDbLine
 10
174.6974087632499
 20
355.621489163167
 30
0.0
 11
171.50075376325
 21
355.621489163167
 31
0.0
  0
LINE
  5
123A
330
2
100
AcDbEntity
  8
0
100
AcDbLine
 10
177.8473107632498
 20
349.371489163167
 30
0.0
 11
176.69731676325
 21
349.371489163167
 31
0.0
  0
LINE
  5
123B
330
2
100
AcDbEntity
  8
0
100
AcDbLine
 10
182.69731676325
 20
349.121489163167
 30
0.0
 11
184.69731676325
 21
350.2761981631669
 31
0.0
  0
LINE
  5
123C
330
2
100
AcDbEntity
  8
0
100
AcDbLine
 10
156.6624967632499
 20
358.036131163167
 30
0.0
 11
171.96715376325
 21
358.303282163167
 31
0.0
  0
ARC
  5
123D
330
2
100
AcDbEntity
  8
0
100
AcDbCircle
 10
184.19731676325
 20
369.523772163167
 30
0.0
 40
2.0
100
AcDbArc
 50
180.0
 51
249.9999999999968
  0
LINE
  5
123E
330
2
100
AcDbEntity
  8
0
100
AcDbLine
 10
181.69740876325
 20
359.1214891631669
 30
0.0
 11
174.6974087632499
 21
359.1214891631669
 31
0.0
  0
LINE
  5
123F
330
2
100
AcDbEntity
  8
0
100
AcDbLine
 10
183.51326576325
 20
367.6443921631669
 30
0.0
 11
186.38146076325
 21
366.6004621631669
 31
0.0
  0
LINE
  5
1240
330
2
100
AcDbEntity
  8
0
100
AcDbLine
 10
181.69740876325
 20
359.1214891631669
 30
0.0
 11
182.69740876325
 21
359.6988361631669
 31
0.0
  0
LINE
  5
1241
330
2
100
AcDbEntity
  8
0
100
AcDbLine
 10
187.69740876325
 20
362.6214891631669
 30
0.0
 11
185.0974027632501
 21
362.6214891631669
 31
0.0
  0
LINE
  5
1242
330
2
100
AcDbEntity
  8
0
100
AcDbLine
 10
185.0974027632501
 20
363.971495163167
 30
0.0
 11
182.69740876325
 21
363.971495163167
 31
0.0
  0
LINE
  5
1243
330
2
100
AcDbEntity
  8
PHAS
100
AcDbLine
 10
183.89739076325
 20
362.6214891631669
 30
0.0
 11
185.0974027632501
 21
362.5795881631669
 31
0.0
  0
LINE
  5
1244
330
2
100
AcDbEntity
  8
PHAS
100
AcDbLine
 10
183.89739076325
 20
362.6214891631669
 30
0.0
 11
182.69740876325
 21
362.5795881631669
 31
0.0
  0
ARC
  5
1245
330
2
100
AcDbEntity
  8
PHAS
100
AcDbCircle
 10
183.89739076325
 20
362.401488163167
 30
0.0
 40
1.219999999999999
100
AcDbArc
 50
8.302276999999669
 51
169.6111449999996
  0
ARC
  5
1246
330
2
100
AcDbEntity
  8
0
100
AcDbCircle
 10
185.6974087632499
 20
364.721068163167
 30
0.0
 40
2.0
100
AcDbArc
 50
0.0
 51
69.99999999999686
  0
LINE
  5
1247
330
2
100
AcDbEntity
  8
0
100
AcDbLine
 10
182.1973167632499
 20
369.9763931631669
 30
0.0
 11
182.1973167632499
 21
369.523772163167
 31
0.0
  0
LINE
  5
1248
330
2
100
AcDbEntity
  8
0
100
AcDbLine
 10
149.6974087632499
 20
383.6214891631669
 30
0.0
 11
109.1974087632499
 21
382.9145651631669
 31
0.0
  0
LINE
  5
1249
330
2
100
AcDbEntity
  8
0
100
AcDbLine
 10
190.1974087632499
 20
382.9145651631669
 30
0.0
 11
190.1974087632499
 21
303.328421163167
 31
0.0
  0
LINE
  5
1259
330
2
100
AcDbEntity
  8
PHAS
  6
SEKKEI_P_S
100
AcDbLine
 10
200.6974087632499
 20
356.0975941631669
 30
0.0
 11
200.6974087632499
 21
330.2084641631669
 31
0.0
  0
ARC
  5
125A
330
2
100
AcDbEntity
  8
PHAS
  6
SEKKEI_P_S
100
AcDbCircle
 10
197.6974087632499
 20
330.1453841631669
 30
0.0
 40
3.0
100
AcDbArc
 50
284.9999999999949
 51
0.0
  0
ARC
  5
125B
330
2
100
AcDbEntity
  8
PHAS
  6
SEKKEI_P_S
100
AcDbCircle
 10
197.6974087632499
 20
356.0975941631669
 30
0.0
 40
3.0
100
AcDbArc
 50
0.0
 51
75.00000000000513
  0
TEXT
  5
17DC
330
2
100
AcDbEntity
  8
TITLE
100
AcDbText
 10
46.9231375875911
 20
39.66581656667676
 30
0.0
 40
8.0
  1
F2SM-12-10～120-S40WK
100
AcDbText
  0
TEXT
  5
17DD
330
2
100
AcDbEntity
  8
TITLE
100
AcDbText
 10
46.9231375875911
 20
78.66581656667676
 30
0.0
 40
8.0
  1
F2SM-12-10～120-T40WK
100
AcDbText
  0
TEXT
  5
17DE
330
2
100
AcDbEntity
  8
TITLE
100
AcDbText
 10
46.9231375875911
 20
65.66581656667676
 30
0.0
 40
8.0
  1
F2SM-12-10～60-T60K
100
AcDbText
  0
TEXT
  5
17DF
330
2
100
AcDbEntity
  8
TITLE
100
AcDbText
 10
46.9231375875911
 20
52.66581656667677
 30
0.0
 40
8.0
  1
F2SM-12-10～120-S40K
100
AcDbText
  0
LINE
  5
17E1
330
2
100
AcDbEntity
  8
CENTER
100
AcDbLine
 10
180.3546247572992
 20
123.4310359652117
 30
0.0
 11
180.3546247572992
 21
134.5757199652117
 31
0.0
  0
LINE
  5
17E2
330
2
100
AcDbEntity
  8
CENTER
100
AcDbLine
 10
182.8546247572992
 20
126.9820159652117
 30
0.0
 11
182.8546247572992
 21
111.0247399652117
 31
0.0
  0
LINE
  5
17E3
330
2
100
AcDbEntity
  8
CENTER
100
AcDbLine
 10
190.8332627572992
 20
119.0033779652117
 30
0.0
 11
174.8759867572991
 21
119.0033779652117
 31
0.0
  0
LINE
  5
17E4
330
2
100
AcDbEntity
  8
CENTER
100
AcDbLine
 10
174.7822827572993
 20
129.0033779652117
 30
0.0
 11
185.9269667572991
 21
129.0033779652117
 31
0.0
  0
LINE
  5
17E5
330
2
100
AcDbEntity
  8
CENTER
100
AcDbLine
 10
182.8546247572992
 20
193.9820159652116
 30
0.0
 11
182.8546247572992
 21
178.0247399652117
 31
0.0
  0
LINE
  5
17E6
330
2
100
AcDbEntity
  8
CENTER
100
AcDbLine
 10
180.3546247572992
 20
170.4310359652117
 30
0.0
 11
180.3546247572992
 21
181.5757199652117
 31
0.0
  0
LINE
  5
17E7
330
2
100
AcDbEntity
  8
CENTER
100
AcDbLine
 10
190.8332627572992
 20
186.0033779652117
 30
0.0
 11
174.8759867572991
 21
186.0033779652117
 31
0.0
  0
LINE
  5
17E8
330
2
100
AcDbEntity
  8
CENTER
100
AcDbLine
 10
174.7822827572993
 20
176.0033779652117
 30
0.0
 11
185.9269667572991
 21
176.0033779652117
 31
0.0
  0
LINE
  5
17E9
330
2
100
AcDbEntity
  8
CENTER
100
AcDbLine
 10
236.8546247572992
 20
122.3965049652117
 30
0.0
 11
236.8546247572992
 21
182.6102509652117
 31
0.0
  0
LINE
  5
17EA
330
2
100
AcDbEntity
  8
CENTER
100
AcDbLine
 10
271.3546247572992
 20
123.4310359652117
 30
0.0
 11
271.3546247572992
 21
134.5757199652117
 31
0.0
  0
LINE
  5
17EB
330
2
100
AcDbEntity
  8
CENTER
100
AcDbLine
 10
268.8546247572992
 20
126.9820159652117
 30
0.0
 11
268.8546247572992
 21
111.0247399652117
 31
0.0
  0
LINE
  5
17EC
330
2
100
AcDbEntity
  8
CENTER
100
AcDbLine
 10
276.8332627572992
 20
119.0033779652117
 30
0.0
 11
260.8759867572991
 21
119.0033779652117
 31
0.0
  0
LINE
  5
17ED
330
2
100
AcDbEntity
  8
CENTER
100
AcDbLine
 10
265.7822827572993
 20
129.0033779652117
 30
0.0
 11
276.9269667572991
 21
129.0033779652117
 31
0.0
  0
LINE
  5
17EE
330
2
100
AcDbEntity
  8
CENTER
100
AcDbLine
 10
268.8546247572992
 20
193.9820159652116
 30
0.0
 11
268.8546247572992
 21
178.0247399652117
 31
0.0
  0
LINE
  5
17EF
330
2
100
AcDbEntity
  8
CENTER
100
AcDbLine
 10
271.3546247572992
 20
170.4310359652117
 30
0.0
 11
271.3546247572992
 21
181.5757199652117
 31
0.0
  0
LINE
  5
17F0
330
2
100
AcDbEntity
  8
CENTER
100
AcDbLine
 10
276.8332627572992
 20
186.0033779652117
 30
0.0
 11
260.8759867572991
 21
186.0033779652117
 31
0.0
  0
LINE
  5
17F1
330
2
100
AcDbEntity
  8
CENTER
100
AcDbLine
 10
265.7822827572993
 20
176.0033779652117
 30
0.0
 11
276.9269667572991
 21
176.0033779652117
 31
0.0
  0
LINE
  5
17F2
330
2
100
AcDbEntity
  8
CENTER
100
AcDbLine
 10
627.1822167495188
 20
122.3965049652117
 30
0.0
 11
627.1822167495188
 21
182.6102509652117
 31
0.0
  0
LINE
  5
17F3
330
2
100
AcDbEntity
  8
CENTER
100
AcDbLine
 10
595.1822167495188
 20
126.9820159652117
 30
0.0
 11
595.1822167495188
 21
111.0247399652117
 31
0.0
  0
LINE
  5
17F4
330
2
100
AcDbEntity
  8
CENTER
100
AcDbLine
 10
603.1608547495189
 20
119.0033779652117
 30
0.0
 11
587.2035787495187
 21
119.0033779652117
 31
0.0
  0
LINE
  5
17F5
330
2
100
AcDbEntity
  8
CENTER
100
AcDbLine
 10
689.1608547495188
 20
119.0033779652117
 30
0.0
 11
673.2035787495187
 21
119.0033779652117
 31
0.0
  0
LINE
  5
17F6
330
2
100
AcDbEntity
  8
CENTER
100
AcDbLine
 10
681.1822167495188
 20
126.9820159652117
 30
0.0
 11
681.1822167495188
 21
111.0247399652117
 31
0.0
  0
LINE
  5
17F7
330
2
100
AcDbEntity
  8
CENTER
100
AcDbLine
 10
595.1822167495188
 20
193.9820159652116
 30
0.0
 11
595.1822167495188
 21
178.0247399652117
 31
0.0
  0
LINE
  5
17F8
330
2
100
AcDbEntity
  8
CENTER
100
AcDbLine
 10
603.1608547495189
 20
186.0033779652117
 30
0.0
 11
587.2035787495187
 21
186.0033779652117
 31
0.0
  0
LINE
  5
17F9
330
2
100
AcDbEntity
  8
CENTER
100
AcDbLine
 10
681.1822167495188
 20
193.9820159652116
 30
0.0
 11
681.1822167495188
 21
178.0247399652117
 31
0.0
  0
LINE
  5
17FA
330
2
100
AcDbEntity
  8
CENTER
100
AcDbLine
 10
689.1608547495188
 20
186.0033779652117
 30
0.0
 11
673.2035787495187
 21
186.0033779652117
 31
0.0
  0
LINE
  5
17FB
330
2
100
AcDbEntity
  8
CENTER
100
AcDbLine
 10
347.6089223156591
 20
152.5033779652117
 30
0.0
 11
461.086156315659
 21
152.5033779652117
 31
0.0
  0
LINE
  5
17FC
330
2
100
AcDbEntity
  8
CENTER
100
AcDbLine
 10
404.347539315659
 20
242.3908929652117
 30
0.0
 11
404.347539315659
 21
104.9552519652117
 31
0.0
  0
LINE
  5
17FD
330
2
100
AcDbEntity
  8
0
100
AcDbLine
 10
444.8475393156591
 20
192.2964539652117
 30
0.0
 11
444.8475393156591
 21
112.7103099652117
 31
0.0
  0
LINE
  5
17FE
330
2
100
AcDbEntity
  8
0
100
AcDbLine
 10
376.347539315659
 20
112.4921169652117
 30
0.0
 11
376.347539315659
 21
192.5146403849647
 31
0.0
  0
LINE
  5
17FF
330
2
100
AcDbEntity
  8
0
100
AcDbLine
 10
363.847539315659
 20
192.2964539652117
 30
0.0
 11
363.847539315659
 21
112.7103099652117
 31
0.0
  0
LINE
  5
1800
330
2
100
AcDbEntity
  8
PHAS
  6
SEKKEI_P_S
100
AcDbLine
 10
455.3475393156591
 20
165.4794829652117
 30
0.0
 11
455.3475393156591
 21
139.5903529652117
 31
0.0
  0
LINE
  5
1801
330
2
100
AcDbEntity
  8
0
100
AcDbLine
 10
411.6805473156591
 20
161.4589749652116
 30
0.0
 11
411.6805473156591
 21
143.5477809652115
 31
0.0
  0
LINE
  5
1802
330
2
100
AcDbEntity
  8
0
100
AcDbLine
 10
397.014531315659
 20
161.6771759652116
 30
0.0
 11
397.014531315659
 21
143.3295799652116
 31
0.0
  0
LINE
  5
1803
330
2
100
AcDbEntity
  8
0
100
AcDbLine
 10
409.3475393156591
 20
165.4183869652116
 30
0.0
 11
409.3475393156591
 21
139.5883689652116
 31
0.0
  0
LINE
  5
1804
330
2
100
AcDbEntity
  8
0
100
AcDbLine
 10
399.347539315659
 20
139.3701689652116
 30
0.0
 11
399.347539315659
 21
165.6365869652115
 31
0.0
  0
LINE
  5
1807
330
2
100
AcDbEntity
  8
PHAS
  6
SEKKEI_P_S
100
AcDbLine
 10
353.347539315659
 20
165.4794829652117
 30
0.0
 11
353.347539315659
 21
139.5903529652117
 31
0.0
  0
LINE
  5
1808
330
2
100
AcDbEntity
  8
HOJO
100
AcDbLine
 10
376.347539315659
 20
123.0033779652117
 30
0.0
 11
396.3475393156591
 21
123.0033779652117
 31
0.0
  0
LINE
  5
1809
330
2
100
AcDbEntity
  8
HOJO
100
AcDbLine
 10
376.347539315659
 20
115.0033779652117
 30
0.0
 11
396.3475393156591
 21
115.0033779652117
 31
0.0
  0
LINE
  5
180A
330
2
100
AcDbEntity
  8
0
100
AcDbLine
 10
404.347539315659
 20
112.0033779652117
 30
0.0
 11
363.847539315659
 21
112.7103099652117
 31
0.0
  0
LINE
  5
180C
330
2
100
AcDbEntity
  8
0
100
AcDbLine
 10
397.3825433156591
 20
137.3705659652116
 30
0.0
 11
376.347539315659
 21
137.0033779652117
 31
0.0
  0
LINE
  5
180D
330
2
100
AcDbEntity
  8
0
100
AcDbLine
 10
395.0495353156591
 20
141.3297629652116
 30
0.0
 11
376.347539315659
 21
141.0033779652117
 31
0.0
  0
LWPOLYLINE
  5
180E
330
2
100
AcDbEntity
  8
HOJO
100
AcDbPolyline
 90
       21
 70
     0
 43
0.0
 10
363.847539315659
 20
127.1213907672588
 10
367.3787893156591
 20
126.8824377672588
 10
371.0975393156591
 20
127.3511877672587
 10
374.8787893156591
 20
126.9449377672588
 10
378.3787893156591
 20
127.4449377672588
 10
382.4100393156591
 20
126.9136877672588
 10
385.9412893156591
 20
127.4761877672588
 10
390.4725393156591
 20
126.9761877672588
 10
395.1600393156591
 20
127.6011877672588
 10
399.8475393156591
 20
127.0074377672588
 10
403.660039315659
 20
127.6324377672588
 10
408.9725393156591
 20
127.1324377672587
 10
412.8787893156591
 20
127.7886877672588
 10
417.5037893156591
 20
126.9449377672588
 10
421.910039315659
 20
127.7886877672588
 10
425.9725393156591
 20
126.9136877672588
 10
429.347539315659
 20
127.7574377672588
 10
433.628789315659
 20
127.0074377672588
 10
437.253789315659
 20
127.7261877672588
 10
441.1287893156591
 20
127.0074377672588
 10
444.8475393156591
 20
127.5497577672588
  0
LINE
  5
180F
330
2
100
AcDbEntity
  8
CENTER
100
AcDbLine
 10
361.3425653156591
 20
119.0033779652117
 30
0.0
 11
448.3913013156591
 21
119.0033779652117
 31
0.0
  0
LINE
  5
1810
330
2
100
AcDbEntity
  8
0
100
AcDbLine
 10
376.347539315659
 20
115.6033759652117
 30
0.0
 11
444.8475393156591
 21
115.6033759652117
 31
0.0
  0
LINE
  5
1811
330
2
100
AcDbEntity
  8
0
100
AcDbLine
 10
376.347539315659
 20
122.4033799652116
 30
0.0
 11
444.8475393156591
 21
122.4033799652116
 31
0.0
  0
LINE
  5
1813
330
2
100
AcDbEntity
  8
0
100
AcDbLine
 10
369.3475393156591
 20
127.1305995319646
 30
0.0
 11
369.3475393156591
 21
132.8033659652116
 31
0.0
  0
LINE
  5
1814
330
2
100
AcDbEntity
  8
0
100
AcDbLine
 10
370.347539315659
 20
127.2566499521327
 30
0.0
 11
370.347539315659
 21
133.5033779652117
 31
0.0
  0
LINE
  5
1815
330
2
100
AcDbEntity
  8
0
100
AcDbLine
 10
365.3475393156591
 20
127.0198886079667
 30
0.0
 11
365.3475393156591
 21
132.5033779652117
 31
0.0
  0
LINE
  5
1817
330
2
100
AcDbEntity
  8
0
100
AcDbLine
 10
363.847539315659
 20
114.7533779652117
 30
0.0
 11
376.347539315659
 21
114.7533779652117
 31
0.0
  0
LINE
  5
1819
330
2
100
AcDbEntity
  8
0
100
AcDbLine
 10
363.847539315659
 20
123.2533779652117
 30
0.0
 11
376.347539315659
 21
123.2533779652117
 31
0.0
  0
LINE
  5
181A
330
2
100
AcDbEntity
  8
CENTER
100
AcDbLine
 10
363.4079333156591
 20
129.0033779652117
 30
0.0
 11
371.392552315659
 21
129.0033779652117
 31
0.0
  0
LINE
  5
181C
330
2
100
AcDbEntity
  8
PHAS
  6
SEKKEI_P_S
100
AcDbLine
 10
355.5710803156591
 20
136.6294919652117
 30
0.0
 11
363.847539315659
 21
134.4118214564661
 31
0.0
  0
ARC
  5
181D
330
2
100
AcDbEntity
  8
PHAS
  6
SEKKEI_P_S
100
AcDbCircle
 10
356.3475393156591
 20
139.5272729652117
 30
0.0
 40
3.0
100
AcDbArc
 50
180.0
 51
255.0000000000051
  0
LINE
  5
181E
330
2
100
AcDbEntity
  8
0
100
AcDbLine
 10
376.347539315659
 20
137.0033779652117
 30
0.0
 11
363.847539315659
 21
137.0033779652117
 31
0.0
  0
LINE
  5
181F
330
2
100
AcDbEntity
  8
0
100
AcDbLine
 10
376.347539315659
 20
141.0033779652117
 30
0.0
 11
363.847539315659
 21
141.0033779652117
 31
0.0
  0
LINE
  5
1820
330
2
100
AcDbEntity
  8
0
100
AcDbLine
 10
365.3475393156591
 20
132.5033779652117
 30
0.0
 11
369.3475393156591
 21
132.5033779652117
 31
0.0
  0
LINE
  5
1821
330
2
100
AcDbEntity
  8
0
100
AcDbLine
 10
363.847539315659
 20
133.6735749652116
 30
0.0
 11
370.347539315659
 21
133.5033779652117
 31
0.0
  0
LINE
  5
1822
330
2
100
AcDbEntity
  8
0
100
AcDbLine
 10
369.3475393156591
 20
132.8033659652116
 30
0.0
 11
370.347539315659
 21
132.8033659652116
 31
0.0
  0
LINE
  5
1824
330
2
100
AcDbEntity
  8
0
100
AcDbLine
 10
404.347539315659
 20
112.0033779652117
 30
0.0
 11
444.8475393156591
 21
112.7103099652117
 31
0.0
  0
LINE
  5
1825
330
2
100
AcDbEntity
  8
HOJO
100
AcDbLine
 10
412.347539315659
 20
123.0033779652117
 30
0.0
 11
444.8475393156591
 21
123.0033779652117
 31
0.0
  0
LINE
  5
1826
330
2
100
AcDbEntity
  8
HOJO
100
AcDbLine
 10
412.347539315659
 20
115.0033779652117
 30
0.0
 11
444.8475393156591
 21
115.0033779652117
 31
0.0
  0
LINE
  5
1827
330
2
100
AcDbEntity
  8
HOJO
100
AcDbLine
 10
412.347539315659
 20
123.0033779652117
 30
0.0
 11
412.347539315659
 21
115.0033779652117
 31
0.0
  0
LINE
  5
1828
330
2
100
AcDbEntity
  8
HOJO
100
AcDbLine
 10
396.3475393156591
 20
123.0033779652117
 30
0.0
 11
396.3475393156591
 21
115.0033779652117
 31
0.0
  0
LINE
  5
182C
330
2
100
AcDbEntity
  8
0
100
AcDbLine
 10
411.312535315659
 20
137.5887659652116
 30
0.0
 11
444.8475393156591
 21
137.0033779652117
 31
0.0
  0
LINE
  5
182D
330
2
100
AcDbEntity
  8
0
100
AcDbLine
 10
413.6455433156591
 20
141.5479639652116
 30
0.0
 11
444.8475393156591
 21
141.0033779652117
 31
0.0
  0
LINE
  5
182E
330
2
100
AcDbEntity
  8
0
100
AcDbLine
 10
398.9187373156592
 20
138.1327729652116
 30
0.0
 11
396.5857293156591
 21
142.0919709652116
 31
0.0
  0
ARC
  5
182F
330
2
100
AcDbEntity
  8
0
100
AcDbCircle
 10
397.347539315659
 20
139.3701689652116
 30
0.0
 40
2.0
100
AcDbArc
 50
271.0000000000017
 51
0.0
  0
ARC
  5
1830
330
2
100
AcDbEntity
  8
0
100
AcDbCircle
 10
395.014531315659
 20
143.3295799652116
 30
0.0
 40
2.0
100
AcDbArc
 50
271.0000000000017
 51
0.0
  0
LINE
  5
1831
330
2
100
AcDbEntity
  8
0
100
AcDbLine
 10
412.1093493156591
 20
142.3101709652116
 30
0.0
 11
409.776341315659
 21
138.3509729652116
 31
0.0
  0
ARC
  5
1832
330
2
100
AcDbEntity
  8
0
100
AcDbCircle
 10
411.3475393156591
 20
139.5883689652116
 30
0.0
 40
2.0
100
AcDbArc
 50
180.0
 51
268.9999999999982
  0
ARC
  5
1833
330
2
100
AcDbEntity
  8
0
100
AcDbCircle
 10
413.6805473156591
 20
143.5477809652115
 30
0.0
 40
2.0
100
AcDbArc
 50
180.0
 51
268.9999999999982
  0
LINE
  5
1834
330
2
100
AcDbEntity
  8
PHAS
  6
SEKKEI_P_S
100
AcDbLine
 10
453.123998315659
 20
136.6294919652117
 30
0.0
 11
444.8475393156591
 21
134.4118214564662
 31
0.0
  0
ARC
  5
1835
330
2
100
AcDbEntity
  8
PHAS
  6
SEKKEI_P_S
100
AcDbCircle
 10
452.3475393156591
 20
139.5272729652117
 30
0.0
 40
3.0
100
AcDbArc
 50
284.9999999999949
 51
0.0
  0
LINE
  5
1836
330
2
100
AcDbEntity
  8
HIDS
100
AcDbLine
 10
376.347539315659
 20
190.0033779652117
 30
0.0
 11
396.3475393156591
 21
190.0033779652117
 31
0.0
  0
LINE
  5
1837
330
2
100
AcDbEntity
  8
0
100
AcDbLine
 10
404.347539315659
 20
193.0033779652117
 30
0.0
 11
363.847539315659
 21
192.2964539652117
 31
0.0
  0
LINE
  5
1839
330
2
100
AcDbEntity
  8
HIDS
100
AcDbLine
 10
376.347539315659
 20
189.4033719652117
 30
0.0
 11
444.8475393156591
 21
189.4033719652117
 31
0.0
  0
LINE
  5
183A
330
2
100
AcDbEntity
  8
CENTER
100
AcDbLine
 10
361.3425653156591
 20
186.0033779652117
 30
0.0
 11
448.3913013156591
 21
186.0033779652117
 31
0.0
  0
LINE
  5
183B
330
2
100
AcDbEntity
  8
0
100
AcDbLine
 10
395.0495353156591
 20
163.6769929652116
 30
0.0
 11
376.347539315659
 21
164.0033779652117
 31
0.0
  0
LINE
  5
183C
330
2
100
AcDbEntity
  8
HIDS
100
AcDbLine
 10
376.347539315659
 20
182.0033779652117
 30
0.0
 11
396.3475393156591
 21
182.0033779652117
 31
0.0
  0
LINE
  5
183D
330
2
100
AcDbEntity
  8
0
100
AcDbLine
 10
397.3825433156591
 20
167.6361899652116
 30
0.0
 11
376.347539315659
 21
168.0033779652117
 31
0.0
  0
LINE
  5
183E
330
2
100
AcDbEntity
  8
HIDS
100
AcDbLine
 10
376.347539315659
 20
182.6033839652117
 30
0.0
 11
444.8475393156591
 21
182.6033839652117
 31
0.0
  0
LINE
  5
1840
330
2
100
AcDbEntity
  8
PHAS
  6
SEKKEI_P_S
100
AcDbLine
 10
355.5710803156591
 20
168.3772639652116
 30
0.0
 11
363.847539315659
 21
170.5949344739572
 31
0.0
  0
ARC
  5
1841
330
2
100
AcDbEntity
  8
PHAS
  6
SEKKEI_P_S
100
AcDbCircle
 10
356.3475393156591
 20
165.4794829652117
 30
0.0
 40
3.0
100
AcDbArc
 50
104.9999999999948
 51
180.0
  0
LINE
  5
1842
330
2
100
AcDbEntity
  8
0
100
AcDbLine
 10
365.3475393156591
 20
179.5033779652117
 30
0.0
 11
365.3475393156591
 21
172.5033779652117
 31
0.0
  0
LINE
  5
1843
330
2
100
AcDbEntity
  8
0
100
AcDbLine
 10
370.347539315659
 20
180.5033779652117
 30
0.0
 11
370.347539315659
 21
171.5033779652117
 31
0.0
  0
LINE
  5
1844
330
2
100
AcDbEntity
  8
0
100
AcDbLine
 10
369.3475393156591
 20
179.8033659652116
 30
0.0
 11
369.3475393156591
 21
172.2033899652117
 31
0.0
  0
LINE
  5
1845
330
2
100
AcDbEntity
  8
0
100
AcDbLine
 10
376.347539315659
 20
164.0033779652117
 30
0.0
 11
363.847539315659
 21
164.0033779652117
 31
0.0
  0
LINE
  5
1846
330
2
100
AcDbEntity
  8
0
100
AcDbLine
 10
376.347539315659
 20
168.0033779652117
 30
0.0
 11
363.847539315659
 21
168.0033779652117
 31
0.0
  0
LINE
  5
1847
330
2
100
AcDbEntity
  8
0
100
AcDbLine
 10
363.847539315659
 20
171.3331809652115
 30
0.0
 11
370.347539315659
 21
171.5033779652117
 31
0.0
  0
LINE
  5
1848
330
2
100
AcDbEntity
  8
0
100
AcDbLine
 10
365.3475393156591
 20
172.5033779652117
 30
0.0
 11
369.3475393156591
 21
172.5033779652117
 31
0.0
  0
LINE
  5
1849
330
2
100
AcDbEntity
  8
HIDS
  6
SEKKEI_H
100
AcDbLine
 10
363.847539315659
 20
181.7533779652117
 30
0.0
 11
376.347539315659
 21
181.7533779652117
 31
0.0
  0
LINE
  5
184A
330
2
100
AcDbEntity
  8
0
100
AcDbLine
 10
365.3475393156591
 20
179.5033779652117
 30
0.0
 11
369.3475393156591
 21
179.5033779652117
 31
0.0
  0
LINE
  5
184B
330
2
100
AcDbEntity
  8
0
100
AcDbLine
 10
363.847539315659
 20
180.6735749652116
 30
0.0
 11
370.347539315659
 21
180.5033779652117
 31
0.0
  0
LINE
  5
184C
330
2
100
AcDbEntity
  8
CENTER
100
AcDbLine
 10
363.4079333156591
 20
176.0033779652117
 30
0.0
 11
371.392552315659
 21
176.0033779652117
 31
0.0
  0
LINE
  5
184D
330
2
100
AcDbEntity
  8
0
100
AcDbLine
 10
369.3475393156591
 20
179.8033659652116
 30
0.0
 11
370.347539315659
 21
179.8033659652116
 31
0.0
  0
LINE
  5
1850
330
2
100
AcDbEntity
  8
HIDS
  6
SEKKEI_H
100
AcDbLine
 10
363.847539315659
 20
190.2533779652117
 30
0.0
 11
376.347539315659
 21
190.2533779652117
 31
0.0
  0
LINE
  5
1853
330
2
100
AcDbEntity
  8
HIDS
100
AcDbLine
 10
412.347539315659
 20
190.0033779652117
 30
0.0
 11
444.8475393156591
 21
190.0033779652117
 31
0.0
  0
LINE
  5
1854
330
2
100
AcDbEntity
  8
0
100
AcDbLine
 10
413.6455433156591
 20
163.4587919652117
 30
0.0
 11
444.8475393156591
 21
164.0033779652117
 31
0.0
  0
LINE
  5
1855
330
2
100
AcDbEntity
  8
0
100
AcDbLine
 10
411.312535315659
 20
167.4179899652117
 30
0.0
 11
444.8475393156591
 21
168.0033779652117
 31
0.0
  0
LINE
  5
1856
330
2
100
AcDbEntity
  8
HIDS
100
AcDbLine
 10
412.347539315659
 20
182.0033779652117
 30
0.0
 11
444.8475393156591
 21
182.0033779652117
 31
0.0
  0
ARC
  5
1857
330
2
100
AcDbEntity
  8
0
100
AcDbCircle
 10
397.347539315659
 20
165.6365869652115
 30
0.0
 40
2.0
100
AcDbArc
 50
0.0
 51
88.99999999999822
  0
ARC
  5
1858
330
2
100
AcDbEntity
  8
0
100
AcDbCircle
 10
395.014531315659
 20
161.6771759652116
 30
0.0
 40
2.0
100
AcDbArc
 50
0.0
 51
88.99999999999822
  0
LINE
  5
1859
330
2
100
AcDbEntity
  8
0
100
AcDbLine
 10
396.5857293156591
 20
162.9147849652116
 30
0.0
 11
398.9187373156592
 21
166.8739829652115
 31
0.0
  0
ARC
  5
185A
330
2
100
AcDbEntity
  8
0
100
AcDbCircle
 10
411.3475393156591
 20
165.4183869652116
 30
0.0
 40
2.0
100
AcDbArc
 50
91.00000000000177
 51
180.0
  0
LINE
  5
185B
330
2
100
AcDbEntity
  8
0
100
AcDbLine
 10
412.1093493156591
 20
162.6965849652116
 30
0.0
 11
409.776341315659
 21
166.6557829652116
 31
0.0
  0
ARC
  5
185C
330
2
100
AcDbEntity
  8
0
100
AcDbCircle
 10
413.6805473156591
 20
161.4589749652116
 30
0.0
 40
2.0
100
AcDbArc
 50
91.00000000000177
 51
180.0
  0
LINE
  5
185D
330
2
100
AcDbEntity
  8
HIDS
100
AcDbLine
 10
396.3475393156591
 20
190.0033779652117
 30
0.0
 11
396.3475393156591
 21
182.0033779652117
 31
0.0
  0
LINE
  5
185E
330
2
100
AcDbEntity
  8
HIDS
100
AcDbLine
 10
412.347539315659
 20
190.0033779652117
 30
0.0
 11
412.347539315659
 21
182.0033779652117
 31
0.0
  0
ARC
  5
185F
330
2
100
AcDbEntity
  8
PHAS
  6
SEKKEI_P_S
100
AcDbCircle
 10
452.3475393156591
 20
165.4794829652117
 30
0.0
 40
3.0
100
AcDbArc
 50
0.0
 51
75.00000000000513
  0
LINE
  5
1860
330
2
100
AcDbEntity
  8
PHAS
  6
SEKKEI_P_S
100
AcDbLine
 10
453.123998315659
 20
168.3772639652116
 30
0.0
 11
444.8475393156591
 21
170.5949344739572
 31
0.0
  0
LINE
  5
1863
330
2
100
AcDbEntity
  8
0
100
AcDbLine
 10
404.347539315659
 20
193.0033779652117
 30
0.0
 11
444.8475393156591
 21
192.2964539652117
 31
0.0
  0
LINE
  5
2211
330
2
100
AcDbEntity
  8
0
100
AcDbLine
 10
384.1854481316859
 20
237.0033929652116
 30
0.0
 11
424.5096304996323
 21
237.0033929652116
 31
0.0
  0
LINE
  5
2213
330
2
100
AcDbEntity
  8
0
100
AcDbLine
 10
379.3475393156591
 20
204.0033779652117
 30
0.0
 11
429.3475243156591
 21
204.0033779652117
 31
0.0
  0
LINE
  5
2214
330
2
100
AcDbEntity
  8
0
100
AcDbLine
 10
379.3475393156591
 20
194.0033779652117
 30
0.0
 11
429.3475243156591
 21
194.0033779652117
 31
0.0
  0
LINE
  5
2215
330
2
100
AcDbEntity
  8
0
100
AcDbLine
 10
379.3475393156591
 20
205.0033779652117
 30
0.0
 11
429.3475243156591
 21
205.0033779652117
 31
0.0
  0
LINE
  5
2216
330
2
100
AcDbEntity
  8
0
100
AcDbLine
 10
386.847539315659
 20
236.0033929652116
 30
0.0
 11
421.8475393156591
 21
236.0033929652116
 31
0.0
  0
LINE
  5
2217
330
2
100
AcDbEntity
  8
CENTER
100
AcDbLine
 10
374.3039323344505
 20
220.0033779652116
 30
0.0
 11
434.3911462968676
 21
220.0033779652116
 31
0.0
  0
LINE
  5
2248
330
2
100
AcDbEntity
  8
0
100
AcDbLine
 10
98.63703657332587
 20
237.0033929652116
 30
0.0
 11
138.9612189412729
 21
237.0033929652116
 31
0.0
  0
LINE
  5
2249
330
2
100
AcDbEntity
  8
0
100
AcDbLine
 10
95.2991207572993
 20
192.0033779652117
 30
0.0
 11
141.7991277572992
 21
192.0033779652117
 31
0.0
  0
LINE
  5
224A
330
2
100
AcDbEntity
  8
0
100
AcDbLine
 10
93.79912075729931
 20
204.0033779652117
 30
0.0
 11
143.7991277572992
 21
204.0033779652117
 31
0.0
  0
LINE
  5
224B
330
2
100
AcDbEntity
  8
0
100
AcDbLine
 10
93.79912075729931
 20
194.0033779652117
 30
0.0
 11
143.7991277572992
 21
194.0033779652117
 31
0.0
  0
LINE
  5
224C
330
2
100
AcDbEntity
  8
0
100
AcDbLine
 10
93.79912075729931
 20
205.0033779652117
 30
0.0
 11
143.7991277572992
 21
205.0033779652117
 31
0.0
  0
LINE
  5
224D
330
2
100
AcDbEntity
  8
0
100
AcDbLine
 10
101.2991277572993
 20
236.0033929652116
 30
0.0
 11
136.2991277572992
 21
236.0033929652116
 31
0.0
  0
LINE
  5
224E
330
2
100
AcDbEntity
  8
CENTER
100
AcDbLine
 10
88.7555207760908
 20
220.0033779652116
 30
0.0
 11
148.8427347385078
 21
220.0033779652116
 31
0.0
  0
LINE
  5
2250
330
2
100
AcDbEntity
  8
CENTER
100
AcDbLine
 10
118.7991277572992
 20
185.6138819652118
 30
0.0
 11
118.7991277572992
 21
242.3908929652117
 31
0.0
  0
LINE
  5
2251
330
2
100
AcDbEntity
  8
0
100
AcDbLine
 10
93.79912075729931
 20
236.0033929652116
 30
0.0
 11
93.79912075729931
 21
194.0033779652117
 31
0.0
  0
LINE
  5
2252
330
2
100
AcDbEntity
  8
0
100
AcDbLine
 10
95.2991207572993
 20
192.0033779652117
 30
0.0
 11
95.2991207572993
 21
190.5033779652116
 31
0.0
  0
LINE
  5
2253
330
2
100
AcDbEntity
  8
0
100
AcDbLine
 10
93.79912075729931
 20
194.0033779652117
 30
0.0
 11
95.7991207572993
 21
192.0033779652117
 31
0.0
  0
LINE
  5
2255
330
2
100
AcDbEntity
  8
0
100
AcDbLine
 10
92.92412075729931
 20
209.5033779652117
 30
0.0
 11
94.9241207572993
 21
209.5033779652117
 31
0.0
  0
LINE
  5
2256
330
2
100
AcDbEntity
  8
0
100
AcDbLine
 10
97.01162775684418
 20
235.5863929652117
 30
0.0
 11
97.58662775775428
 21
235.5863929652117
 31
0.0
  0
LINE
  5
2257
330
2
100
AcDbEntity
  8
0
100
AcDbLine
 10
101.2991277572993
 20
234.5033929652116
 30
0.0
 11
93.79912775729929
 21
234.5033929652117
 31
0.0
  0
ARC
  5
2258
330
2
100
AcDbEntity
  8
0
100
AcDbCircle
 10
97.29912775729923
 20
228.1033929652118
 30
0.0
 40
9.0
100
AcDbArc
 50
74.11914999171973
 51
105.8808500082802
  0
LINE
  5
2259
330
2
100
AcDbEntity
  8
0
100
AcDbLine
 10
94.79912775729928
 20
237.0033929652116
 30
0.0
 11
93.79912775729929
 21
236.0033929652116
 31
0.0
  0
SPLINE
  5
225A
330
2
100
AcDbEntity
  8
0
100
AcDbSpline
210
0.0
220
0.0
230
1.0
 70
     8
 71
     3
 72
    11
 73
     7
 74
     0
 42
0.0000000001
 43
0.0000000001
 40
0.0
 40
0.0
 40
0.0
 40
0.0
 40
0.4601364636755307
 40
1.04988694485363
 40
1.713742833862792
 40
2.320347933405154
 40
2.320347933405154
 40
2.320347933405154
 40
2.320347933405179
 10
97.01162775684418
 20
235.5863929652117
 30
0.0
 10
96.98921009973634
 20
235.7414164048916
 30
0.0
 10
96.93806004450307
 20
236.0951312228091
 30
0.0
 10
96.50217488296949
 20
236.5198588944108
 30
0.0
 10
95.89712416796203
 20
236.7390460743767
 30
0.0
 10
95.47193954378622
 20
236.670054774766
 30
0.0
 10
95.26938793413512
 20
236.6558345025894
 30
0.0
  0
LINE
  5
225B
330
2
100
AcDbEntity
  8
0
100
AcDbLine
 10
95.26938793413512
 20
236.6558345025894
 30
0.0
 11
95.24912775729921
 21
236.866811248051
 31
0.0
  0
ARC
  5
225C
330
2
100
AcDbEntity
  8
0
100
AcDbCircle
 10
95.19211700370641
 20
235.5095056894581
 30
0.0
 40
1.3
100
AcDbArc
 50
105.8808500082802
 51
175.0000000000002
  0
LINE
  5
225D
330
2
100
AcDbEntity
  8
0
100
AcDbLine
 10
93.79912775729934
 20
234.5033929652117
 30
0.0
 11
93.89706389618714
 21
235.62280815503
 31
0.0
  0
LINE
  5
225E
330
2
100
AcDbEntity
  8
0
100
AcDbLine
 10
95.96121894127282
 20
237.0033929652116
 30
0.0
 11
94.79912775729928
 21
237.0033929652116
 31
0.0
  0
LINE
  5
225F
330
2
100
AcDbEntity
  8
0
100
AcDbLine
 10
92.92412075729931
 20
230.5033779652116
 30
0.0
 11
94.9241207572993
 21
230.5033779652116
 31
0.0
  0
LINE
  5
2260
330
2
100
AcDbEntity
  8
0
100
AcDbLine
 10
101.7991277572992
 20
237.0033929652116
 30
0.0
 11
101.2991277572993
 21
236.5033929652117
 31
0.0
  0
LINE
  5
2261
330
2
100
AcDbEntity
  8
0
100
AcDbLine
 10
101.2991277572993
 20
234.5033929652116
 30
0.0
 11
101.2991277572993
 21
236.5033929652117
 31
0.0
  0
ARC
  5
2262
330
2
100
AcDbEntity
  8
0
100
AcDbCircle
 10
99.40613851089228
 20
235.5095056894581
 30
0.0
 40
1.3
100
AcDbArc
 50
4.999999999999743
 51
74.11914999171973
  0
LINE
  5
2263
330
2
100
AcDbEntity
  8
0
100
AcDbLine
 10
99.32886758046334
 20
236.6558345025894
 30
0.0
 11
99.34912775729925
 21
236.866811248051
 31
0.0
  0
LINE
  5
2264
330
2
100
AcDbEntity
  8
0
100
AcDbLine
 10
100.7991277572992
 20
234.5033929652117
 30
0.0
 11
100.7011916184114
 21
235.62280815503
 31
0.0
  0
LINE
  5
2265
330
2
100
AcDbEntity
  8
0
100
AcDbLine
 10
101.2991277572993
 20
236.5033929652117
 30
0.0
 11
100.2441051469196
 21
236.5033929652117
 31
0.0
  0
SPLINE
  5
2266
330
2
100
AcDbEntity
  8
0
100
AcDbSpline
210
0.0
220
0.0
230
1.0
 70
     8
 71
     3
 72
    11
 73
     7
 74
     0
 42
0.0000000001
 43
0.0000000001
 40
0.0
 40
0.0
 40
0.0
 40
0.0
 40
0.4601364636755307
 40
1.04988694485363
 40
1.713742833862792
 40
2.320347933405154
 40
2.320347933405154
 40
2.320347933405154
 40
2.320347933405179
 10
97.58662775775428
 20
235.5863929652117
 30
0.0
 10
97.60904541486212
 20
235.7414164048916
 30
0.0
 10
97.66019547009541
 20
236.0951312228091
 30
0.0
 10
98.09608063162897
 20
236.5198588944108
 30
0.0
 10
98.70113134663643
 20
236.7390460743767
 30
0.0
 10
99.12631597081224
 20
236.670054774766
 30
0.0
 10
99.32886758046334
 20
236.6558345025894
 30
0.0
  0
LINE
  5
2267
330
2
100
AcDbEntity
  8
0
100
AcDbLine
 10
143.7991277572992
 20
236.0033929652116
 30
0.0
 11
143.7991277572992
 21
194.0033779652117
 31
0.0
  0
LINE
  5
2268
330
2
100
AcDbEntity
  8
0
100
AcDbLine
 10
141.2991277572992
 20
192.0033779652117
 30
0.0
 11
141.2991277572992
 21
190.5033779652116
 31
0.0
  0
LINE
  5
2269
330
2
100
AcDbEntity
  8
0
100
AcDbLine
 10
141.7991277572992
 20
192.0033779652117
 30
0.0
 11
143.7991277572992
 21
194.0033779652117
 31
0.0
  0
ARC
  5
226A
330
2
100
AcDbEntity
  8
0
100
AcDbCircle
 10
140.2991277572994
 20
228.1033929652118
 30
0.0
 40
9.0
100
AcDbArc
 50
74.11914999171973
 51
105.8808500082802
  0
SPLINE
  5
226B
330
2
100
AcDbEntity
  8
0
100
AcDbSpline
210
0.0
220
0.0
230
1.0
 70
     8
 71
     3
 72
    11
 73
     7
 74
     0
 42
0.0000000001
 43
0.0000000001
 40
0.0
 40
0.0
 40
0.0
 40
0.0
 40
0.4601364636755307
 40
1.04988694485363
 40
1.713742833862792
 40
2.320347933405154
 40
2.320347933405154
 40
2.320347933405154
 40
2.320347933405179
 10
140.0116277568443
 20
235.5863929652117
 30
0.0
 10
139.9892100997365
 20
235.7414164048916
 30
0.0
 10
139.9380600445032
 20
236.0951312228091
 30
0.0
 10
139.5021748829696
 20
236.5198588944108
 30
0.0
 10
138.8971241679622
 20
236.7390460743767
 30
0.0
 10
138.4719395437864
 20
236.670054774766
 30
0.0
 10
138.2693879341353
 20
236.6558345025894
 30
0.0
  0
LINE
  5
226C
330
2
100
AcDbEntity
  8
0
100
AcDbLine
 10
136.2991277572992
 20
234.5033929652116
 30
0.0
 11
143.7991277572992
 21
234.5033929652117
 31
0.0
  0
LINE
  5
226D
330
2
100
AcDbEntity
  8
0
100
AcDbLine
 10
136.7991277572994
 20
234.5033929652117
 30
0.0
 11
136.8970638961872
 21
235.62280815503
 31
0.0
  0
LINE
  5
226E
330
2
100
AcDbEntity
  8
0
100
AcDbLine
 10
138.2693879341353
 20
236.6558345025894
 30
0.0
 11
138.2491277572993
 21
236.866811248051
 31
0.0
  0
ARC
  5
226F
330
2
100
AcDbEntity
  8
0
100
AcDbCircle
 10
138.1921170037063
 20
235.5095056894581
 30
0.0
 40
1.3
100
AcDbArc
 50
105.8808500082802
 51
175.0000000000002
  0
LINE
  5
2270
330
2
100
AcDbEntity
  8
0
100
AcDbLine
 10
136.2991277572992
 20
236.5033929652117
 30
0.0
 11
137.3541503676789
 21
236.5033929652117
 31
0.0
  0
LINE
  5
2271
330
2
100
AcDbEntity
  8
0
100
AcDbLine
 10
135.7991277572992
 20
237.0033929652116
 30
0.0
 11
136.2991277572992
 21
236.5033929652117
 31
0.0
  0
LINE
  5
2272
330
2
100
AcDbEntity
  8
0
100
AcDbLine
 10
136.2991277572992
 20
234.5033929652116
 30
0.0
 11
136.2991277572992
 21
236.5033929652117
 31
0.0
  0
LINE
  5
2273
330
2
100
AcDbEntity
  8
0
100
AcDbLine
 10
141.6370365733258
 20
237.0033929652116
 30
0.0
 11
142.7991277572992
 21
237.0033929652116
 31
0.0
  0
LINE
  5
2274
330
2
100
AcDbEntity
  8
0
100
AcDbLine
 10
143.7991277572992
 20
234.5033929652117
 30
0.0
 11
143.7011916184114
 21
235.62280815503
 31
0.0
  0
ARC
  5
2275
330
2
100
AcDbEntity
  8
0
100
AcDbCircle
 10
142.4061385108922
 20
235.5095056894581
 30
0.0
 40
1.3
100
AcDbArc
 50
4.999999999999743
 51
74.11914999171973
  0
LINE
  5
2276
330
2
100
AcDbEntity
  8
0
100
AcDbLine
 10
142.3288675804634
 20
236.6558345025894
 30
0.0
 11
142.3491277572994
 21
236.866811248051
 31
0.0
  0
LINE
  5
2277
330
2
100
AcDbEntity
  8
0
100
AcDbLine
 10
140.5866277577544
 20
235.5863929652117
 30
0.0
 11
140.0116277568443
 21
235.5863929652117
 31
0.0
  0
SPLINE
  5
2278
330
2
100
AcDbEntity
  8
0
100
AcDbSpline
210
0.0
220
0.0
230
1.0
 70
     8
 71
     3
 72
    11
 73
     7
 74
     0
 42
0.0000000001
 43
0.0000000001
 40
0.0
 40
0.0
 40
0.0
 40
0.0
 40
0.4601364636755307
 40
1.04988694485363
 40
1.713742833862792
 40
2.320347933405154
 40
2.320347933405154
 40
2.320347933405154
 40
2.320347933405179
 10
140.5866277577544
 20
235.5863929652117
 30
0.0
 10
140.6090454148622
 20
235.7414164048916
 30
0.0
 10
140.6601954700955
 20
236.0951312228091
 30
0.0
 10
141.0960806316291
 20
236.5198588944108
 30
0.0
 10
141.7011313466366
 20
236.7390460743767
 30
0.0
 10
142.1263159708124
 20
236.670054774766
 30
0.0
 10
142.3288675804634
 20
236.6558345025894
 30
0.0
  0
LINE
  5
2279
330
2
100
AcDbEntity
  8
0
100
AcDbLine
 10
142.7991277572992
 20
237.0033929652116
 30
0.0
 11
143.7991277572992
 21
236.0033929652116
 31
0.0
  0
LINE
  5
227A
330
2
100
AcDbEntity
  8
0
100
AcDbLine
 10
379.3475393156591
 20
236.0033929652116
 30
0.0
 11
379.3475393156591
 21
194.0033779652117
 31
0.0
  0
LINE
  5
227C
330
2
100
AcDbEntity
  8
0
100
AcDbLine
 10
379.3475393156591
 20
194.0033779652117
 30
0.0
 11
380.7592705091837
 21
192.591646771687
 31
0.0
  0
ARC
  5
227D
330
2
100
AcDbEntity
  8
0
100
AcDbCircle
 10
382.847539315659
 20
228.1033929652118
 30
0.0
 40
9.0
100
AcDbArc
 50
74.11914999171973
 51
105.8808500082802
  0
SPLINE
  5
227E
330
2
100
AcDbEntity
  8
0
100
AcDbSpline
210
0.0
220
0.0
230
1.0
 70
     8
 71
     3
 72
    11
 73
     7
 74
     0
 42
0.0000000001
 43
0.0000000001
 40
0.0
 40
0.0
 40
0.0
 40
0.0
 40
0.4601364636755307
 40
1.04988694485363
 40
1.713742833862792
 40
2.320347933405154
 40
2.320347933405154
 40
2.320347933405154
 40
2.320347933405179
 10
382.560039315204
 20
235.5863929652117
 30
0.0
 10
382.5376216580961
 20
235.7414164048917
 30
0.0
 10
382.4864716028628
 20
236.0951312228093
 30
0.0
 10
382.0505864413293
 20
236.5198588944109
 30
0.0
 10
381.4455357263218
 20
236.7390460743767
 30
0.0
 10
381.020351102146
 20
236.670054774766
 30
0.0
 10
380.8177994924949
 20
236.6558345025895
 30
0.0
  0
LINE
  5
227F
330
2
100
AcDbEntity
  8
0
100
AcDbLine
 10
386.847539315659
 20
234.5033929652117
 30
0.0
 11
379.3475393156591
 21
234.5033929652119
 31
0.0
  0
LINE
  5
2280
330
2
100
AcDbEntity
  8
0
100
AcDbLine
 10
381.5096304996325
 20
237.0033929652117
 30
0.0
 11
380.347539315659
 21
237.0033929652117
 31
0.0
  0
LINE
  5
2281
330
2
100
AcDbEntity
  8
0
100
AcDbLine
 10
379.3475393156591
 20
234.5033929652119
 30
0.0
 11
379.4454754545469
 21
235.6228081550301
 31
0.0
  0
ARC
  5
2282
330
2
100
AcDbEntity
  8
0
100
AcDbCircle
 10
380.7405285620662
 20
235.5095056894582
 30
0.0
 40
1.3
100
AcDbArc
 50
105.8808500082802
 51
175.0000000000002
  0
LINE
  5
2283
330
2
100
AcDbEntity
  8
0
100
AcDbLine
 10
380.8177994924949
 20
236.6558345025895
 30
0.0
 11
380.797539315659
 21
236.866811248051
 31
0.0
  0
LINE
  5
2284
330
2
100
AcDbEntity
  8
0
100
AcDbLine
 10
380.347539315659
 20
237.0033929652117
 30
0.0
 11
379.3475393156591
 21
236.0033929652118
 31
0.0
  0
LINE
  5
2285
330
2
100
AcDbEntity
  8
0
100
AcDbLine
 10
387.3475393156591
 20
237.0033929652117
 30
0.0
 11
386.847539315659
 21
236.5033929652117
 31
0.0
  0
LINE
  5
2286
330
2
100
AcDbEntity
  8
0
100
AcDbLine
 10
386.347539315659
 20
234.5033929652119
 30
0.0
 11
386.2496031767712
 21
235.6228081550301
 31
0.0
  0
LINE
  5
2287
330
2
100
AcDbEntity
  8
0
100
AcDbLine
 10
386.847539315659
 20
234.5033929652117
 30
0.0
 11
386.847539315659
 21
236.5033929652119
 31
0.0
  0
SPLINE
  5
2288
330
2
100
AcDbEntity
  8
0
100
AcDbSpline
210
0.0
220
0.0
230
1.0
 70
     8
 71
     3
 72
    11
 73
     7
 74
     0
 42
0.0000000001
 43
0.0000000001
 40
0.0
 40
0.0
 40
0.0
 40
0.0
 40
0.4601364636755307
 40
1.04988694485363
 40
1.713742833862792
 40
2.320347933405154
 40
2.320347933405154
 40
2.320347933405154
 40
2.320347933405179
 10
383.1350393161141
 20
235.5863929652117
 30
0.0
 10
383.1574569732218
 20
235.7414164048917
 30
0.0
 10
383.2086070284551
 20
236.0951312228093
 30
0.0
 10
383.6444921899888
 20
236.5198588944109
 30
0.0
 10
384.2495429049962
 20
236.7390460743767
 30
0.0
 10
384.674727529172
 20
236.670054774766
 30
0.0
 10
384.8772791388231
 20
236.6558345025895
 30
0.0
  0
LINE
  5
2289
330
2
100
AcDbEntity
  8
0
100
AcDbLine
 10
384.8772791388231
 20
236.6558345025895
 30
0.0
 11
384.897539315659
 21
236.866811248051
 31
0.0
  0
LINE
  5
228A
330
2
100
AcDbEntity
  8
0
100
AcDbLine
 10
382.560039315204
 20
235.5863929652117
 30
0.0
 11
383.1350393161141
 21
235.5863929652117
 31
0.0
  0
LINE
  5
228B
330
2
100
AcDbEntity
  8
0
100
AcDbLine
 10
386.847539315659
 20
236.5033929652117
 30
0.0
 11
385.7925167052794
 21
236.5033929652117
 31
0.0
  0
ARC
  5
228C
330
2
100
AcDbEntity
  8
0
100
AcDbCircle
 10
384.954550069252
 20
235.5095056894582
 30
0.0
 40
1.3
100
AcDbArc
 50
4.999999999999743
 51
74.11914999171973
  0
LINE
  5
2292
330
2
100
AcDbEntity
  8
0
100
AcDbLine
 10
429.3475243156591
 20
236.0033929652116
 30
0.0
 11
429.3475243156591
 21
194.0033779652117
 31
0.0
  0
LINE
  5
2295
330
2
100
AcDbEntity
  8
0
100
AcDbLine
 10
427.9357933794664
 20
192.591647029019
 30
0.0
 11
429.3475243156591
 21
194.0033779652117
 31
0.0
  0
LINE
  5
2296
330
2
100
AcDbEntity
  8
0
100
AcDbLine
 10
421.8475393156591
 20
234.5033929652117
 30
0.0
 11
429.347539315659
 21
234.5033929652119
 31
0.0
  0
SPLINE
  5
2297
330
2
100
AcDbEntity
  8
0
100
AcDbSpline
210
0.0
220
0.0
230
1.0
 70
     8
 71
     3
 72
    11
 73
     7
 74
     0
 42
0.0000000001
 43
0.0000000001
 40
0.0
 40
0.0
 40
0.0
 40
0.0
 40
0.4601364636755307
 40
1.04988694485363
 40
1.713742833862792
 40
2.320347933405154
 40
2.320347933405154
 40
2.320347933405154
 40
2.320347933405179
 10
425.560039315204
 20
235.5863929652117
 30
0.0
 10
425.5376216580962
 20
235.7414164048917
 30
0.0
 10
425.486471602863
 20
236.0951312228093
 30
0.0
 10
425.0505864413294
 20
236.5198588944109
 30
0.0
 10
424.4455357263219
 20
236.7390460743767
 30
0.0
 10
424.0203511021461
 20
236.670054774766
 30
0.0
 10
423.817799492495
 20
236.6558345025895
 30
0.0
  0
ARC
  5
2298
330
2
100
AcDbEntity
  8
0
100
AcDbCircle
 10
425.8475393156592
 20
228.1033929652118
 30
0.0
 40
9.0
100
AcDbArc
 50
74.11914999171973
 51
105.8808500082802
  0
LINE
  5
2299
330
2
100
AcDbEntity
  8
0
100
AcDbLine
 10
421.347539315659
 20
237.0033929652117
 30
0.0
 11
421.8475393156591
 21
236.5033929652117
 31
0.0
  0
LINE
  5
229A
330
2
100
AcDbEntity
  8
0
100
AcDbLine
 10
421.8475393156591
 20
234.5033929652117
 30
0.0
 11
421.8475393156591
 21
236.5033929652119
 31
0.0
  0
ARC
  5
229B
330
2
100
AcDbEntity
  8
0
100
AcDbCircle
 10
423.7405285620662
 20
235.5095056894582
 30
0.0
 40
1.3
100
AcDbArc
 50
105.8808500082802
 51
175.0000000000002
  0
LINE
  5
229C
330
2
100
AcDbEntity
  8
0
100
AcDbLine
 10
423.817799492495
 20
236.6558345025895
 30
0.0
 11
423.7975393156591
 21
236.866811248051
 31
0.0
  0
LINE
  5
229D
330
2
100
AcDbEntity
  8
0
100
AcDbLine
 10
422.3475393156592
 20
234.5033929652119
 30
0.0
 11
422.445475454547
 21
235.6228081550301
 31
0.0
  0
LINE
  5
229E
330
2
100
AcDbEntity
  8
0
100
AcDbLine
 10
421.8475393156591
 20
236.5033929652117
 30
0.0
 11
422.9025619260387
 21
236.5033929652117
 31
0.0
  0
LINE
  5
229F
330
2
100
AcDbEntity
  8
0
100
AcDbLine
 10
428.347539315659
 20
237.0033929652117
 30
0.0
 11
429.347539315659
 21
236.0033929652118
 31
0.0
  0
SPLINE
  5
22A0
330
2
100
AcDbEntity
  8
0
100
AcDbSpline
210
0.0
220
0.0
230
1.0
 70
     8
 71
     3
 72
    11
 73
     7
 74
     0
 42
0.0000000001
 43
0.0000000001
 40
0.0
 40
0.0
 40
0.0
 40
0.0
 40
0.4601364636755307
 40
1.04988694485363
 40
1.713742833862792
 40
2.320347933405154
 40
2.320347933405154
 40
2.320347933405154
 40
2.320347933405179
 10
426.1350393161142
 20
235.5863929652117
 30
0.0
 10
426.157456973222
 20
235.7414164048917
 30
0.0
 10
426.2086070284554
 20
236.0951312228093
 30
0.0
 10
426.6444921899888
 20
236.5198588944109
 30
0.0
 10
427.2495429049963
 20
236.7390460743767
 30
0.0
 10
427.6747275291722
 20
236.670054774766
 30
0.0
 10
427.8772791388233
 20
236.6558345025895
 30
0.0
  0
LINE
  5
22A1
330
2
100
AcDbEntity
  8
0
100
AcDbLine
 10
426.1350393161142
 20
235.5863929652117
 30
0.0
 11
425.560039315204
 21
235.5863929652117
 31
0.0
  0
LINE
  5
22A2
330
2
100
AcDbEntity
  8
0
100
AcDbLine
 10
427.8772791388233
 20
236.6558345025895
 30
0.0
 11
427.8975393156591
 21
236.866811248051
 31
0.0
  0
ARC
  5
22A3
330
2
100
AcDbEntity
  8
0
100
AcDbCircle
 10
427.954550069252
 20
235.5095056894582
 30
0.0
 40
1.3
100
AcDbArc
 50
4.999999999999743
 51
74.11914999171973
  0
LINE
  5
22A4
330
2
100
AcDbEntity
  8
0
100
AcDbLine
 10
429.347539315659
 20
234.5033929652119
 30
0.0
 11
429.2496031767712
 21
235.6228081550301
 31
0.0
  0
LINE
  5
22A5
330
2
100
AcDbEntity
  8
0
100
AcDbLine
 10
427.1854481316856
 20
237.0033929652117
 30
0.0
 11
428.347539315659
 21
237.0033929652117
 31
0.0
  0
LINE
  5
22A7
330
2
100
AcDbEntity
  8
0
100
AcDbLine
 10
762.7376907495188
 20
236.0033929652116
 30
0.0
 11
727.7376907495188
 21
236.0033929652116
 31
0.0
  0
LINE
  5
22A8
330
2
100
AcDbEntity
  8
0
100
AcDbLine
 10
770.2376977495188
 20
205.0033779652117
 30
0.0
 11
720.2376907495188
 21
205.0033779652117
 31
0.0
  0
LINE
  5
22A9
330
2
100
AcDbEntity
  8
0
100
AcDbLine
 10
770.2376977495188
 20
194.0033779652117
 30
0.0
 11
720.2376907495188
 21
194.0033779652117
 31
0.0
  0
LINE
  5
22AA
330
2
100
AcDbEntity
  8
0
100
AcDbLine
 10
770.2376977495188
 20
204.0033779652117
 30
0.0
 11
720.2376907495188
 21
204.0033779652117
 31
0.0
  0
LINE
  5
22AB
330
2
100
AcDbEntity
  8
0
100
AcDbLine
 10
768.7376977495188
 20
192.0033779652117
 30
0.0
 11
722.2376907495188
 21
192.0033779652117
 31
0.0
  0
LINE
  5
22AC
330
2
100
AcDbEntity
  8
0
100
AcDbLine
 10
765.3997819334922
 20
237.0033929652116
 30
0.0
 11
725.0755995655452
 21
237.0033929652116
 31
0.0
  0
LINE
  5
22AD
330
2
100
AcDbEntity
  8
CENTER
100
AcDbLine
 10
775.2812977307273
 20
220.0033779652116
 30
0.0
 11
715.1940837683103
 21
220.0033779652116
 31
0.0
  0
LINE
  5
22AE
330
2
100
AcDbEntity
  8
0
100
AcDbLine
 10
720.2376907495188
 20
236.0033929652116
 30
0.0
 11
720.2376907495188
 21
194.0033779652117
 31
0.0
  0
LINE
  5
22AF
330
2
100
AcDbEntity
  8
CENTER
100
AcDbLine
 10
745.2376907495188
 20
185.6138819652118
 30
0.0
 11
745.2376907495188
 21
242.3908929652117
 31
0.0
  0
LINE
  5
22B0
330
2
100
AcDbEntity
  8
0
100
AcDbLine
 10
722.7376907495188
 20
192.0033779652117
 30
0.0
 11
722.7376907495188
 21
190.5033779652116
 31
0.0
  0
LINE
  5
22B1
330
2
100
AcDbEntity
  8
0
100
AcDbLine
 10
722.2376907495188
 20
192.0033779652117
 30
0.0
 11
720.2376907495188
 21
194.0033779652117
 31
0.0
  0
LINE
  5
22B2
330
2
100
AcDbEntity
  8
0
100
AcDbLine
 10
727.7376907495188
 20
236.5033929652117
 30
0.0
 11
726.6826681391392
 21
236.5033929652117
 31
0.0
  0
LINE
  5
22B3
330
2
100
AcDbEntity
  8
0
100
AcDbLine
 10
727.7376907495188
 20
234.5033929652116
 30
0.0
 11
720.2376907495188
 21
234.5033929652117
 31
0.0
  0
SPLINE
  5
22B4
330
2
100
AcDbEntity
  8
0
100
AcDbSpline
210
0.0
220
0.0
230
1.0
 70
     8
 71
     3
 72
    11
 73
     7
 74
     0
 42
0.0000000001
 43
0.0000000001
 40
0.0
 40
0.0
 40
0.0
 40
0.0
 40
0.4601364636755307
 40
1.04988694485363
 40
1.713742833862792
 40
2.320347933405154
 40
2.320347933405154
 40
2.320347933405154
 40
2.320347933405179
 10
723.4501907490637
 20
235.5863929652117
 30
0.0
 10
723.4277730919558
 20
235.7414164048916
 30
0.0
 10
723.3766230367225
 20
236.0951312228091
 30
0.0
 10
722.9407378751889
 20
236.5198588944108
 30
0.0
 10
722.3356871601815
 20
236.7390460743767
 30
0.0
 10
721.9105025360057
 20
236.670054774766
 30
0.0
 10
721.7079509263546
 20
236.6558345025894
 30
0.0
  0
ARC
  5
22B5
330
2
100
AcDbEntity
  8
0
100
AcDbCircle
 10
723.7376907495187
 20
228.1033929652118
 30
0.0
 40
9.0
100
AcDbArc
 50
74.11914999171973
 51
105.8808500082802
  0
LINE
  5
22B6
330
2
100
AcDbEntity
  8
0
100
AcDbLine
 10
720.2376907495188
 20
234.5033929652117
 30
0.0
 11
720.3356268884066
 21
235.62280815503
 31
0.0
  0
LINE
  5
22B7
330
2
100
AcDbEntity
  8
0
100
AcDbLine
 10
721.7079509263546
 20
236.6558345025894
 30
0.0
 11
721.6876907495186
 21
236.866811248051
 31
0.0
  0
LINE
  5
22B8
330
2
100
AcDbEntity
  8
0
100
AcDbLine
 10
722.3997819334922
 20
237.0033929652116
 30
0.0
 11
721.2376907495188
 21
237.0033929652116
 31
0.0
  0
LINE
  5
22B9
330
2
100
AcDbEntity
  8
0
100
AcDbLine
 10
721.2376907495188
 20
237.0033929652116
 30
0.0
 11
720.2376907495188
 21
236.0033929652116
 31
0.0
  0
ARC
  5
22BA
330
2
100
AcDbEntity
  8
0
100
AcDbCircle
 10
721.6306799959259
 20
235.5095056894581
 30
0.0
 40
1.3
100
AcDbArc
 50
105.8808500082802
 51
175.0000000000002
  0
SPLINE
  5
22BB
330
2
100
AcDbEntity
  8
0
100
AcDbSpline
210
0.0
220
0.0
230
1.0
 70
     8
 71
     3
 72
    11
 73
     7
 74
     0
 42
0.0000000001
 43
0.0000000001
 40
0.0
 40
0.0
 40
0.0
 40
0.0
 40
0.4601364636755307
 40
1.04988694485363
 40
1.713742833862792
 40
2.320347933405154
 40
2.320347933405154
 40
2.320347933405154
 40
2.320347933405179
 10
724.0251907499737
 20
235.5863929652117
 30
0.0
 10
724.0476084070816
 20
235.7414164048916
 30
0.0
 10
724.0987584623148
 20
236.0951312228091
 30
0.0
 10
724.5346436238484
 20
236.5198588944108
 30
0.0
 10
725.1396943388559
 20
236.7390460743767
 30
0.0
 10
725.5648789630318
 20
236.670054774766
 30
0.0
 10
725.7674305726827
 20
236.6558345025894
 30
0.0
  0
LINE
  5
22BC
330
2
100
AcDbEntity
  8
0
100
AcDbLine
 10
723.4501907490637
 20
235.5863929652117
 30
0.0
 11
724.0251907499737
 21
235.5863929652117
 31
0.0
  0
ARC
  5
22BD
330
2
100
AcDbEntity
  8
0
100
AcDbCircle
 10
725.8447015031117
 20
235.5095056894581
 30
0.0
 40
1.3
100
AcDbArc
 50
4.999999999999743
 51
74.11914999171973
  0
LINE
  5
22BE
330
2
100
AcDbEntity
  8
0
100
AcDbLine
 10
727.2376907495186
 20
234.5033929652117
 30
0.0
 11
727.1397546106308
 21
235.62280815503
 31
0.0
  0
LINE
  5
22BF
330
2
100
AcDbEntity
  8
0
100
AcDbLine
 10
725.7674305726827
 20
236.6558345025894
 30
0.0
 11
725.7876907495187
 21
236.866811248051
 31
0.0
  0
LINE
  5
22C0
330
2
100
AcDbEntity
  8
0
100
AcDbLine
 10
727.7376907495188
 20
234.5033929652116
 30
0.0
 11
727.7376907495188
 21
236.5033929652117
 31
0.0
  0
LINE
  5
22C1
330
2
100
AcDbEntity
  8
0
100
AcDbLine
 10
728.2376907495188
 20
237.0033929652116
 30
0.0
 11
727.7376907495188
 21
236.5033929652117
 31
0.0
  0
LINE
  5
22C2
330
2
100
AcDbEntity
  8
0
100
AcDbLine
 10
770.2376977495188
 20
236.0033929652116
 30
0.0
 11
770.2376977495188
 21
194.0033779652117
 31
0.0
  0
LINE
  5
22C4
330
2
100
AcDbEntity
  8
0
100
AcDbLine
 10
768.7376977495188
 20
192.0033779652117
 30
0.0
 11
768.7376977495188
 21
190.5033779652116
 31
0.0
  0
LINE
  5
22C5
330
2
100
AcDbEntity
  8
0
100
AcDbLine
 10
770.2376977495188
 20
194.0033779652117
 30
0.0
 11
768.2376977495188
 21
192.0033779652117
 31
0.0
  0
SPLINE
  5
22C6
330
2
100
AcDbEntity
  8
0
100
AcDbSpline
210
0.0
220
0.0
230
1.0
 70
     8
 71
     3
 72
    11
 73
     7
 74
     0
 42
0.0000000001
 43
0.0000000001
 40
0.0
 40
0.0
 40
0.0
 40
0.0
 40
0.4601364636755307
 40
1.04988694485363
 40
1.713742833862792
 40
2.320347933405154
 40
2.320347933405154
 40
2.320347933405154
 40
2.320347933405179
 10
766.4501907490638
 20
235.5863929652117
 30
0.0
 10
766.4277730919559
 20
235.7414164048916
 30
0.0
 10
766.3766230367228
 20
236.0951312228091
 30
0.0
 10
765.9407378751891
 20
236.5198588944108
 30
0.0
 10
765.3356871601816
 20
236.7390460743767
 30
0.0
 10
764.9105025360058
 20
236.670054774766
 30
0.0
 10
764.7079509263548
 20
236.6558345025894
 30
0.0
  0
ARC
  5
22C7
330
2
100
AcDbEntity
  8
0
100
AcDbCircle
 10
766.7376907495188
 20
228.1033929652118
 30
0.0
 40
9.0
100
AcDbArc
 50
74.11914999171973
 51
105.8808500082802
  0
LINE
  5
22C8
330
2
100
AcDbEntity
  8
0
100
AcDbLine
 10
762.7376907495188
 20
234.5033929652116
 30
0.0
 11
770.2376907495188
 21
234.5033929652117
 31
0.0
  0
LINE
  5
22C9
330
2
100
AcDbEntity
  8
0
100
AcDbLine
 10
763.2376907495188
 20
234.5033929652117
 30
0.0
 11
763.3356268884067
 21
235.62280815503
 31
0.0
  0
LINE
  5
22CA
330
2
100
AcDbEntity
  8
0
100
AcDbLine
 10
762.7376907495188
 20
234.5033929652116
 30
0.0
 11
762.7376907495188
 21
236.5033929652117
 31
0.0
  0
LINE
  5
22CB
330
2
100
AcDbEntity
  8
0
100
AcDbLine
 10
762.2376907495188
 20
237.0033929652116
 30
0.0
 11
762.7376907495188
 21
236.5033929652117
 31
0.0
  0
LINE
  5
22CC
330
2
100
AcDbEntity
  8
0
100
AcDbLine
 10
764.7079509263548
 20
236.6558345025894
 30
0.0
 11
764.6876907495189
 21
236.866811248051
 31
0.0
  0
LINE
  5
22CD
330
2
100
AcDbEntity
  8
0
100
AcDbLine
 10
762.7376907495188
 20
236.5033929652117
 30
0.0
 11
763.7927133598984
 21
236.5033929652117
 31
0.0
  0
ARC
  5
22CE
330
2
100
AcDbEntity
  8
0
100
AcDbCircle
 10
764.6306799959258
 20
235.5095056894581
 30
0.0
 40
1.3
100
AcDbArc
 50
105.8808500082802
 51
175.0000000000002
  0
LINE
  5
22CF
330
2
100
AcDbEntity
  8
0
100
AcDbLine
 10
771.1126977495188
 20
209.5033779652117
 30
0.0
 11
769.1126977495188
 21
209.5033779652117
 31
0.0
  0
LINE
  5
22D0
330
2
100
AcDbEntity
  8
0
100
AcDbLine
 10
771.1126977495188
 20
230.5033779652116
 30
0.0
 11
769.1126977495188
 21
230.5033779652116
 31
0.0
  0
ARC
  5
22D1
330
2
100
AcDbEntity
  8
0
100
AcDbCircle
 10
768.8447015031117
 20
235.5095056894581
 30
0.0
 40
1.3
100
AcDbArc
 50
4.999999999999743
 51
74.11914999171973
  0
LINE
  5
22D2
330
2
100
AcDbEntity
  8
0
100
AcDbLine
 10
769.2376907495188
 20
237.0033929652116
 30
0.0
 11
770.2376907495188
 21
236.0033929652116
 31
0.0
  0
LINE
  5
22D3
330
2
100
AcDbEntity
  8
0
100
AcDbLine
 10
767.0251907499739
 20
235.5863929652117
 30
0.0
 11
766.4501907490638
 21
235.5863929652117
 31
0.0
  0
LINE
  5
22D4
330
2
100
AcDbEntity
  8
0
100
AcDbLine
 10
768.7674305726829
 20
236.6558345025894
 30
0.0
 11
768.7876907495189
 21
236.866811248051
 31
0.0
  0
LINE
  5
22D5
330
2
100
AcDbEntity
  8
0
100
AcDbLine
 10
768.0755995655453
 20
237.0033929652116
 30
0.0
 11
769.2376907495188
 21
237.0033929652116
 31
0.0
  0
SPLINE
  5
22D6
330
2
100
AcDbEntity
  8
0
100
AcDbSpline
210
0.0
220
0.0
230
1.0
 70
     8
 71
     3
 72
    11
 73
     7
 74
     0
 42
0.0000000001
 43
0.0000000001
 40
0.0
 40
0.0
 40
0.0
 40
0.0
 40
0.4601364636755307
 40
1.04988694485363
 40
1.713742833862792
 40
2.320347933405154
 40
2.320347933405154
 40
2.320347933405154
 40
2.320347933405179
 10
767.0251907499739
 20
235.5863929652117
 30
0.0
 10
767.0476084070817
 20
235.7414164048916
 30
0.0
 10
767.0987584623151
 20
236.0951312228091
 30
0.0
 10
767.5346436238486
 20
236.5198588944108
 30
0.0
 10
768.1396943388561
 20
236.7390460743767
 30
0.0
 10
768.5648789630318
 20
236.670054774766
 30
0.0
 10
768.7674305726829
 20
236.6558345025894
 30
0.0
  0
LINE
  5
22D7
330
2
100
AcDbEntity
  8
0
100
AcDbLine
 10
770.2376907495188
 20
234.5033929652117
 30
0.0
 11
770.1397546106309
 21
235.62280815503
 31
0.0
  0
LINE
  5
22DA
330
2
100
AcDbEntity
  8
0
100
AcDbLine
 10
768.2377977495187
 20
348.5956809168644
 30
0.0
 11
722.2378887495188
 21
348.5956809168644
 31
0.0
  0
LINE
  5
22DB
330
2
100
AcDbEntity
  8
0
100
AcDbLine
 10
768.2377977495187
 20
398.5956809168644
 30
0.0
 11
722.2378887495188
 21
398.5956809168644
 31
0.0
  0
LINE
  5
22DD
330
2
100
AcDbEntity
  8
0
100
AcDbLine
 10
720.2378887495187
 20
396.5956809168644
 30
0.0
 11
720.2378887495187
 21
350.5956809168644
 31
0.0
  0
LINE
  5
22E0
330
2
100
AcDbEntity
  8
CENTER
100
AcDbLine
 10
745.2376907495188
 20
403.639287898073
 30
0.0
 11
745.2376907495188
 21
343.552073935656
 31
0.0
  0
ARC
  5
22E1
330
2
100
AcDbEntity
  8
0
100
AcDbCircle
 10
723.7376907495188
 20
352.0956809168644
 30
0.0
 40
4.0
100
AcDbArc
 50
0.0
 51
90.0
  0
ARC
  5
22E2
330
2
100
AcDbEntity
  8
0
100
AcDbCircle
 10
721.7079907495189
 20
354.1253809168645
 30
0.0
 40
1.742199999999999
100
AcDbArc
 50
269.9986903345035
 51
0.0013096654997424
  0
ARC
  5
22E3
330
2
100
AcDbEntity
  8
0
100
AcDbCircle
 10
721.7079907495189
 20
350.0659809168646
 30
0.0
 40
1.742199999999999
100
AcDbArc
 50
359.9986903345002
 51
90.00130966549974
  0
LINE
  5
22E4
330
2
100
AcDbEntity
  8
0
100
AcDbLine
 10
723.7378887495188
 20
356.0956809168644
 30
0.0
 11
720.2378887495187
 21
356.0956809168644
 31
0.0
  0
CIRCLE
  5
22E5
330
2
100
AcDbEntity
  8
0
100
AcDbCircle
 10
723.7376907495188
 20
352.0956809168644
 30
0.0
 40
3.500000000000028
  0
ARC
  5
22E6
330
2
100
AcDbEntity
  8
0
100
AcDbCircle
 10
723.7376907495188
 20
352.0956809168644
 30
0.0
 40
2.049999999999998
100
AcDbArc
 50
180.0
 51
188.0619600839818
  0
ARC
  5
22E7
330
2
100
AcDbEntity
  8
0
100
AcDbCircle
 10
723.7376907495188
 20
352.0956809168644
 30
0.0
 40
2.049999999999998
100
AcDbArc
 50
171.9380399160181
 51
180.0
  0
LINE
  5
22E8
330
2
100
AcDbEntity
  8
0
100
AcDbLine
 10
720.2378887495187
 20
350.5956809168644
 30
0.0
 11
722.2378887495188
 21
348.5956809168644
 31
0.0
  0
LINE
  5
22E9
330
2
100
AcDbEntity
  8
0
100
AcDbLine
 10
720.2378887495187
 20
350.5956809168644
 30
0.0
 11
722.2378887495188
 21
348.5956809168644
 31
0.0
  0
LINE
  5
22EA
330
2
100
AcDbEntity
  8
0
100
AcDbLine
 10
720.2376907495188
 20
350.5956809168644
 30
0.0
 11
722.2378887495188
 21
348.5956809168644
 31
0.0
  0
ARC
  5
22EB
330
2
100
AcDbEntity
  8
0
100
AcDbCircle
 10
723.7376907495188
 20
352.0956809168644
 30
0.0
 40
2.049999999999998
100
AcDbArc
 50
90.0
 51
98.06196008398165
  0
ARC
  5
22EC
330
2
100
AcDbEntity
  8
0
100
AcDbCircle
 10
723.7376907495188
 20
352.0956809168644
 30
0.0
 40
2.049999999999998
100
AcDbArc
 50
81.93803991601836
 51
90.0
  0
ARC
  5
22ED
330
2
100
AcDbEntity
  8
0
100
AcDbCircle
 10
723.7376907495188
 20
352.0956809168644
 30
0.0
 40
2.049999999999998
100
AcDbArc
 50
261.9380399160178
 51
270.0
  0
ARC
  5
22EE
330
2
100
AcDbEntity
  8
0
100
AcDbCircle
 10
723.7376907495188
 20
352.0956809168644
 30
0.0
 40
2.049999999999998
100
AcDbArc
 50
270.0
 51
278.061960083982
  0
ARC
  5
22EF
330
2
100
AcDbEntity
  8
0
100
AcDbCircle
 10
725.7673907495189
 20
354.1253809168645
 30
0.0
 40
1.742199999999999
100
AcDbArc
 50
179.9986903345002
 51
270.0013096654964
  0
ARC
  5
22F0
330
2
100
AcDbEntity
  8
0
100
AcDbCircle
 10
725.7673907495189
 20
350.0659809168646
 30
0.0
 40
1.742199999999999
100
AcDbArc
 50
89.9986903345035
 51
180.0013096654997
  0
ARC
  5
22F1
330
2
100
AcDbEntity
  8
0
100
AcDbCircle
 10
723.7376907495188
 20
352.0956809168644
 30
0.0
 40
2.049999999999998
100
AcDbArc
 50
351.9380399160181
 51
0.0
  0
ARC
  5
22F2
330
2
100
AcDbEntity
  8
0
100
AcDbCircle
 10
723.7376907495188
 20
352.0956809168644
 30
0.0
 40
2.049999999999998
100
AcDbArc
 50
0.0
 51
8.061960083981876
  0
LINE
  5
22F3
330
2
100
AcDbEntity
  8
0
100
AcDbLine
 10
727.7378887495188
 20
350.5956809168644
 30
0.0
 11
762.7377977495187
 21
350.5956809168644
 31
0.0
  0
LINE
  5
22F4
330
2
100
AcDbEntity
  8
0
100
AcDbLine
 10
727.7378887495188
 20
352.0956809168644
 30
0.0
 11
727.7378887495188
 21
348.5958649168645
 31
0.0
  0
ARC
  5
22F5
330
2
100
AcDbEntity
  8
0
100
AcDbCircle
 10
723.7376907495188
 20
395.0957729168644
 30
0.0
 40
4.0
100
AcDbArc
 50
270.0
 51
0.0
  0
CIRCLE
  5
22F6
330
2
100
AcDbEntity
  8
0
100
AcDbCircle
 10
723.7376907495188
 20
395.0957729168644
 30
0.0
 40
3.500000000000028
  0
ARC
  5
22F7
330
2
100
AcDbEntity
  8
0
100
AcDbCircle
 10
723.7376907495188
 20
395.0957729168644
 30
0.0
 40
2.049999999999998
100
AcDbArc
 50
180.0
 51
188.0619600839818
  0
ARC
  5
22F8
330
2
100
AcDbEntity
  8
0
100
AcDbCircle
 10
723.7376907495188
 20
395.0957729168644
 30
0.0
 40
2.049999999999998
100
AcDbArc
 50
351.9380399160181
 51
0.0
  0
ARC
  5
22F9
330
2
100
AcDbEntity
  8
0
100
AcDbCircle
 10
725.7673907495189
 20
393.0660729168646
 30
0.0
 40
1.742199999999999
100
AcDbArc
 50
89.9986903345035
 51
180.0013096654997
  0
ARC
  5
22FA
330
2
100
AcDbEntity
  8
0
100
AcDbCircle
 10
721.7079907495189
 20
393.0660729168646
 30
0.0
 40
1.742199999999999
100
AcDbArc
 50
359.9986903345002
 51
90.00130966549974
  0
LINE
  5
22FB
330
2
100
AcDbEntity
  8
0
100
AcDbLine
 10
722.2378887495188
 20
391.0956809168644
 30
0.0
 11
722.2378887495188
 21
356.0956809168644
 31
0.0
  0
LINE
  5
22FC
330
2
100
AcDbEntity
  8
0
100
AcDbLine
 10
723.7378887495188
 20
391.0956809168644
 30
0.0
 11
720.2378887495187
 21
391.0956809168644
 31
0.0
  0
ARC
  5
22FD
330
2
100
AcDbEntity
  8
0
100
AcDbCircle
 10
723.7376907495188
 20
395.0957729168644
 30
0.0
 40
2.049999999999998
100
AcDbArc
 50
261.9380399160178
 51
270.0
  0
ARC
  5
22FE
330
2
100
AcDbEntity
  8
0
100
AcDbCircle
 10
723.7376907495188
 20
395.0957729168644
 30
0.0
 40
2.049999999999998
100
AcDbArc
 50
270.0
 51
278.061960083982
  0
ARC
  5
22FF
330
2
100
AcDbEntity
  8
0
100
AcDbCircle
 10
721.7079907495189
 20
397.1254729168645
 30
0.0
 40
1.742199999999999
100
AcDbArc
 50
269.9986903345035
 51
0.0013096654997424
  0
ARC
  5
2300
330
2
100
AcDbEntity
  8
0
100
AcDbCircle
 10
723.7376907495188
 20
395.0957729168644
 30
0.0
 40
2.049999999999998
100
AcDbArc
 50
171.9380399160181
 51
180.0
  0
LINE
  5
2301
330
2
100
AcDbEntity
  8
0
100
AcDbLine
 10
720.2378887495187
 20
396.5956809168644
 30
0.0
 11
722.2378887495188
 21
398.5956809168644
 31
0.0
  0
LINE
  5
2302
330
2
100
AcDbEntity
  8
0
100
AcDbLine
 10
722.2378887495188
 20
398.5956809168644
 30
0.0
 11
720.2378887495187
 21
396.5956809168644
 31
0.0
  0
ARC
  5
2303
330
2
100
AcDbEntity
  8
0
100
AcDbCircle
 10
723.7376907495188
 20
395.0957729168644
 30
0.0
 40
2.049999999999998
100
AcDbArc
 50
90.0
 51
98.06196008398165
  0
ARC
  5
2304
330
2
100
AcDbEntity
  8
0
100
AcDbCircle
 10
723.7376907495188
 20
395.0957729168644
 30
0.0
 40
2.049999999999998
100
AcDbArc
 50
81.93803991601836
 51
90.0
  0
ARC
  5
2305
330
2
100
AcDbEntity
  8
0
100
AcDbCircle
 10
725.7673907495189
 20
397.1254729168645
 30
0.0
 40
1.742199999999999
100
AcDbArc
 50
179.9986903345002
 51
270.0013096654964
  0
ARC
  5
2306
330
2
100
AcDbEntity
  8
0
100
AcDbCircle
 10
723.7376907495188
 20
395.0957729168644
 30
0.0
 40
2.049999999999998
100
AcDbArc
 50
0.0
 51
8.061960083981876
  0
LINE
  5
2307
330
2
100
AcDbEntity
  8
0
100
AcDbLine
 10
727.7378887495188
 20
396.5956809168644
 30
0.0
 11
762.7377977495187
 21
396.5956809168644
 31
0.0
  0
LINE
  5
2308
330
2
100
AcDbEntity
  8
0
100
AcDbLine
 10
727.7378887495188
 20
395.0957729168644
 30
0.0
 11
727.7378887495188
 21
398.5956809168644
 31
0.0
  0
LINE
  5
2309
330
2
100
AcDbEntity
  8
0
100
AcDbLine
 10
770.2377977495188
 20
396.5956809168644
 30
0.0
 11
770.2377977495188
 21
350.5956809168644
 31
0.0
  0
ARC
  5
230B
330
2
100
AcDbEntity
  8
0
100
AcDbCircle
 10
764.7080977495188
 20
354.1253809168645
 30
0.0
 40
1.742199999999999
100
AcDbArc
 50
269.9986903345035
 51
0.0013096654997424
  0
ARC
  5
230C
330
2
100
AcDbEntity
  8
0
100
AcDbCircle
 10
764.7080977495188
 20
350.0659809168646
 30
0.0
 40
1.742199999999999
100
AcDbArc
 50
359.9986903345002
 51
90.00130966549974
  0
ARC
  5
230D
330
2
100
AcDbEntity
  8
0
100
AcDbCircle
 10
766.7377977495188
 20
352.0956809168644
 30
0.0
 40
4.0
100
AcDbArc
 50
90.0
 51
180.0
  0
CIRCLE
  5
230E
330
2
100
AcDbEntity
  8
0
100
AcDbCircle
 10
766.7377977495188
 20
352.0956809168644
 30
0.0
 40
3.500000000000028
  0
LINE
  5
230F
330
2
100
AcDbEntity
  8
0
100
AcDbLine
 10
762.7377977495187
 20
352.0956809168644
 30
0.0
 11
762.7377977495187
 21
348.5958649168645
 31
0.0
  0
ARC
  5
2310
330
2
100
AcDbEntity
  8
0
100
AcDbCircle
 10
766.7377977495188
 20
352.0956809168644
 30
0.0
 40
2.049999999999998
100
AcDbArc
 50
180.0
 51
188.0619600839818
  0
ARC
  5
2311
330
2
100
AcDbEntity
  8
0
100
AcDbCircle
 10
766.7377977495188
 20
352.0956809168644
 30
0.0
 40
2.049999999999998
100
AcDbArc
 50
171.9380399160181
 51
180.0
  0
LINE
  5
2312
330
2
100
AcDbEntity
  8
0
100
AcDbLine
 10
770.2377977495188
 20
350.5956809168644
 30
0.0
 11
768.2377977495187
 21
348.5956809168644
 31
0.0
  0
LINE
  5
2313
330
2
100
AcDbEntity
  8
0
100
AcDbLine
 10
770.2377977495188
 20
350.5956809168644
 30
0.0
 11
768.2377977495187
 21
348.5956809168644
 31
0.0
  0
LINE
  5
2314
330
2
100
AcDbEntity
  8
0
100
AcDbLine
 10
766.7377977495188
 20
356.0956809168644
 30
0.0
 11
770.2377977495188
 21
356.0956809168644
 31
0.0
  0
ARC
  5
2315
330
2
100
AcDbEntity
  8
0
100
AcDbCircle
 10
766.7377977495188
 20
352.0956809168644
 30
0.0
 40
2.049999999999998
100
AcDbArc
 50
90.0
 51
98.06196008398165
  0
ARC
  5
2316
330
2
100
AcDbEntity
  8
0
100
AcDbCircle
 10
766.7377977495188
 20
352.0956809168644
 30
0.0
 40
2.049999999999998
100
AcDbArc
 50
81.93803991601836
 51
90.0
  0
ARC
  5
2317
330
2
100
AcDbEntity
  8
0
100
AcDbCircle
 10
766.7377977495188
 20
352.0956809168644
 30
0.0
 40
2.049999999999998
100
AcDbArc
 50
261.9380399160178
 51
270.0
  0
ARC
  5
2318
330
2
100
AcDbEntity
  8
0
100
AcDbCircle
 10
766.7377977495188
 20
352.0956809168644
 30
0.0
 40
2.049999999999998
100
AcDbArc
 50
270.0
 51
278.061960083982
  0
ARC
  5
2319
330
2
100
AcDbEntity
  8
0
100
AcDbCircle
 10
766.7377977495188
 20
352.0956809168644
 30
0.0
 40
2.049999999999998
100
AcDbArc
 50
351.9380399160181
 51
0.0
  0
ARC
  5
231A
330
2
100
AcDbEntity
  8
0
100
AcDbCircle
 10
766.7377977495188
 20
352.0956809168644
 30
0.0
 40
2.049999999999998
100
AcDbArc
 50
0.0
 51
8.061960083981876
  0
ARC
  5
231B
330
2
100
AcDbEntity
  8
0
100
AcDbCircle
 10
768.767497749519
 20
354.1253809168645
 30
0.0
 40
1.742199999999999
100
AcDbArc
 50
179.9986903345002
 51
270.0013096654964
  0
ARC
  5
231C
330
2
100
AcDbEntity
  8
0
100
AcDbCircle
 10
768.767497749519
 20
350.0659809168646
 30
0.0
 40
1.742199999999999
100
AcDbArc
 50
89.9986903345035
 51
180.0013096654997
  0
ARC
  5
231D
330
2
100
AcDbEntity
  8
0
100
AcDbCircle
 10
764.7080977495188
 20
397.1254729168645
 30
0.0
 40
1.742199999999999
100
AcDbArc
 50
269.9986903345035
 51
0.0013096654997424
  0
ARC
  5
231E
330
2
100
AcDbEntity
  8
0
100
AcDbCircle
 10
766.7377977495188
 20
395.0957729168644
 30
0.0
 40
4.0
100
AcDbArc
 50
180.0
 51
270.0
  0
CIRCLE
  5
231F
330
2
100
AcDbEntity
  8
0
100
AcDbCircle
 10
766.7377977495188
 20
395.0957729168644
 30
0.0
 40
3.500000000000028
  0
ARC
  5
2320
330
2
100
AcDbEntity
  8
0
100
AcDbCircle
 10
764.7080977495188
 20
393.0660729168646
 30
0.0
 40
1.742199999999999
100
AcDbArc
 50
359.9986903345002
 51
90.00130966549974
  0
ARC
  5
2321
330
2
100
AcDbEntity
  8
0
100
AcDbCircle
 10
766.7377977495188
 20
395.0957729168644
 30
0.0
 40
2.049999999999998
100
AcDbArc
 50
180.0
 51
188.0619600839818
  0
LINE
  5
2322
330
2
100
AcDbEntity
  8
0
100
AcDbLine
 10
762.7377977495187
 20
395.0957729168644
 30
0.0
 11
762.7377977495187
 21
398.5956809168644
 31
0.0
  0
ARC
  5
2323
330
2
100
AcDbEntity
  8
0
100
AcDbCircle
 10
766.7377977495188
 20
395.0957729168644
 30
0.0
 40
2.049999999999998
100
AcDbArc
 50
171.9380399160181
 51
180.0
  0
ARC
  5
2324
330
2
100
AcDbEntity
  8
0
100
AcDbCircle
 10
766.7377977495188
 20
395.0957729168644
 30
0.0
 40
2.049999999999998
100
AcDbArc
 50
351.9380399160181
 51
0.0
  0
ARC
  5
2325
330
2
100
AcDbEntity
  8
0
100
AcDbCircle
 10
768.767497749519
 20
393.0660729168646
 30
0.0
 40
1.742199999999999
100
AcDbArc
 50
89.9986903345035
 51
180.0013096654997
  0
LINE
  5
2326
330
2
100
AcDbEntity
  8
0
100
AcDbLine
 10
768.2377977495187
 20
391.0956809168644
 30
0.0
 11
768.2377977495187
 21
356.0956809168644
 31
0.0
  0
LINE
  5
2327
330
2
100
AcDbEntity
  8
0
100
AcDbLine
 10
766.7377977495188
 20
391.0956809168644
 30
0.0
 11
770.2377977495188
 21
391.0956809168644
 31
0.0
  0
ARC
  5
2328
330
2
100
AcDbEntity
  8
0
100
AcDbCircle
 10
766.7377977495188
 20
395.0957729168644
 30
0.0
 40
2.049999999999998
100
AcDbArc
 50
261.9380399160178
 51
270.0
  0
ARC
  5
2329
330
2
100
AcDbEntity
  8
0
100
AcDbCircle
 10
766.7377977495188
 20
395.0957729168644
 30
0.0
 40
2.049999999999998
100
AcDbArc
 50
270.0
 51
278.061960083982
  0
LINE
  5
232A
330
2
100
AcDbEntity
  8
0
100
AcDbLine
 10
770.2377977495188
 20
396.5956809168644
 30
0.0
 11
768.2377977495187
 21
398.5956809168644
 31
0.0
  0
ARC
  5
232B
330
2
100
AcDbEntity
  8
0
100
AcDbCircle
 10
766.7377977495188
 20
395.0957729168644
 30
0.0
 40
2.049999999999998
100
AcDbArc
 50
90.0
 51
98.06196008398165
  0
ARC
  5
232C
330
2
100
AcDbEntity
  8
0
100
AcDbCircle
 10
766.7377977495188
 20
395.0957729168644
 30
0.0
 40
2.049999999999998
100
AcDbArc
 50
81.93803991601836
 51
90.0
  0
ARC
  5
232D
330
2
100
AcDbEntity
  8
0
100
AcDbCircle
 10
766.7377977495188
 20
395.0957729168644
 30
0.0
 40
2.049999999999998
100
AcDbArc
 50
0.0
 51
8.061960083981876
  0
ARC
  5
232E
330
2
100
AcDbEntity
  8
0
100
AcDbCircle
 10
768.767497749519
 20
397.1254729168645
 30
0.0
 40
1.742199999999999
100
AcDbArc
 50
179.9986903345002
 51
270.0013096654964
  0
LINE
  5
23A5
330
2
100
AcDbEntity
  8
0
100
AcDbLine
 10
720.2378887495188
 20
396.5956809168644
 30
0.0
 11
685.1791037495188
 21
396.5956809168644
 31
0.0
  0
LINE
  5
23A6
330
2
100
AcDbEntity
  8
0
100
AcDbLine
 10
720.2378887495188
 20
350.5956809168645
 30
0.0
 11
685.1791037495188
 21
350.5956809168645
 31
0.0
  0
ENDSEC
  0
SECTION
  2
OBJECTS
  0
DICTIONARY
  5
7
330
0
100
AcDbDictionary
  3
ACAD_GROUP
350
75
  3
ACAD_LAYOUT
350
61
  3
ACAD_MLINESTYLE
350
76
  3
ACAD_PLOTSETTINGS
350
77
  3
ACAD_PLOTSTYLENAME
350
6
  3
ACADDIM
350
480
  3
ACDBHEADERROUNDTRIPXREC
350
248D
  3
ACDBVARIABLEDICTIONARY
350
102
  3
DWGPROPS
350
3D2
  0
DICTIONARY
  5
24AE
330
2
100
AcDbDictionary
280
     1
  3
ACAD_LAYOUTSELFREF
360
24AF
  0
DICTIONARY
  5
24B0
330
2487
100
AcDbDictionary
280
     1
  3
ACAD_LAYOUTSELFREF
360
24B1
  0
DICTIONARY
  5
75
102
{ACAD_REACTORS
330
7
102
}
330
7
100
AcDbDictionary
  0
DICTIONARY
  5
61
102
{ACAD_REACTORS
330
7
102
}
330
7
100
AcDbDictionary
  0
DICTIONARY
  5
76
102
{ACAD_REACTORS
330
7
102
}
330
7
100
AcDbDictionary
  3
STANDARD
350
78
  0
DICTIONARY
  5
77
102
{ACAD_REACTORS
330
7
102
}
330
7
100
AcDbDictionary
  0
ACDBDICTIONARYWDFLT
  5
6
102
{ACAD_REACTORS
330
7
102
}
330
7
100
AcDbDictionary
281
     1
  3
Normal
350
5
100
AcDbDictionaryWithDefault
340
5
  0
XRECORD
  5
480
102
{ACAD_REACTORS
330
7
102
}
330
7
100
AcDbXrecord
 90
   990106
  3

 60
     0
 61
     0
 62
     1
 63
     3
 64
     1
 65
     0
 66
     0
 67
     3
 68
     1
 69
     0
 70
     0
 71
     0
 72
     0
 40
0.0
170
     2
340
0
  0
DICTIONARY
  5
248D
102
{ACAD_REACTORS
330
7
102
}
330
7
100
AcDbDictionary
  3
CEPSNTYPE
350
2497
  3
DIMSTYLEDATA
350
249B
  3
FINGERPRINTGUID
350
2498
  3
HYPERLINKBASE
350
2490
  3
INSUNITS
350
2496
  3
LAYOUTDICT
350
2492
  3
LWETCUNION
350
2495
  3
PLOTSETDICT
350
2493
  3
PLOTSTYLNAMDICT
350
2494
  3
PSVPSCALE
350
249A
  3
PUCSBASE
350
249E
  3
PUCSORGBACK
350
24A4
  3
PUCSORGBOTTOM
350
24A0
  3
PUCSORGFRONT
350
24A3
  3
PUCSORGLEFT
350
24A1
  3
PUCSORGRIGHT
350
24A2
  3
PUCSORGTOP
350
249F
  3
PUCSORTHOREF
350
249C
  3
PUCSORTHOVIEW
350
249D
  3
STYLESHEET
350
2491
  3
TSTACKALIGN
350
248E
  3
TSTACKSIZE
350
248F
  3
UCSBASE
350
24A7
  3
UCSORGBACK
350
24AD
  3
UCSORGBOTTOM
350
24A9
  3
UCSORGFRONT
350
24AC
  3
UCSORGLEFT
350
24AA
  3
UCSORGRIGHT
350
24AB
  3
UCSORGTOP
350
24A8
  3
UCSORTHOREF
350
24A5
  3
UCSORTHOVIEW
350
24A6
  3
VERSIONGUID
350
2499
  0
DICTIONARY
  5
102
102
{ACAD_REACTORS
330
7
102
}
330
7
100
AcDbDictionary
  3
DIMASSOC
350
103
  0
XRECORD
  5
3D2
102
{ACAD_REACTORS
330
7
102
}
330
7
100
AcDbXrecord
  1
DWGPROPS COOKIE
  2

  3

  4

  6

  7

  8

  9

300
=
301
=
302
=
303
=
304
=
305
=
306
=
307
=
308
=
309
=
 40
0.5353330671296296
 41
2452052.431989363
 42
2453406.550756377
  1

 90
        0
  0
XRECORD
  5
24AF
102
{ACAD_REACTORS
330
24AE
102
}
330
24AE
100
AcDbXrecord
340
2
  0
XRECORD
  5
24B1
102
{ACAD_REACTORS
330
24B0
102
}
330
24B0
100
AcDbXrecord
340
2487
  0
MLINESTYLE
  5
78
102
{ACAD_REACTORS
330
76
102
}
330
76
100
AcDbMlineStyle
  2
STANDARD
 70
     0
  3

 62
     0
 51
90.0
 52
90.0
 71
     2
 49
0.5
 62
   256
  6
BYLAYER
 49
-0.5
 62
   256
  6
BYLAYER
  0
ACDBPLACEHOLDER
  5
5
102
{ACAD_REACTORS
330
6
102
}
330
6
100
AcDbPlaceHolder
280
     0
  0
XRECORD
  5
2497
102
{ACAD_REACTORS
330
248D
102
}
330
248D
100
AcDbXrecord
 90
        0
  0
XRECORD
  5
249B
102
{ACAD_REACTORS
330
248D
102
}
330
248D
100
AcDbXrecord
1000
DSTYLE
1002
{
1070
   179
 70
     2
1070
   277
 70
     6
1002
}
  0
XRECORD
  5
2498
102
{ACAD_REACTORS
330
248D
102
}
330
248D
100
AcDbXrecord
  1
{6385560B-F4B1-4644-A7C2-A3E32AC3D232}
  0
XRECORD
  5
2490
102
{ACAD_REACTORS
330
248D
102
}
330
248D
100
AcDbXrecord
  1

  0
XRECORD
  5
2496
102
{ACAD_REACTORS
330
248D
102
}
330
248D
100
AcDbXrecord
 90
        0
  0
XRECORD
  5
2492
102
{ACAD_REACTORS
330
248D
102
}
330
248D
100
AcDbXrecord
340
61
  0
XRECORD
  5
2495
102
{ACAD_REACTORS
330
248D
102
}
330
248D
100
AcDbXrecord
 90
    10781
  0
XRECORD
  5
2493
102
{ACAD_REACTORS
330
248D
102
}
330
248D
100
AcDbXrecord
340
77
  0
XRECORD
  5
2494
102
{ACAD_REACTORS
330
248D
102
}
330
248D
100
AcDbXrecord
340
6
  0
XRECORD
  5
249A
102
{ACAD_REACTORS
330
248D
102
}
330
248D
100
AcDbXrecord
 40
0.0
  0
XRECORD
  5
249E
102
{ACAD_REACTORS
330
248D
102
}
330
248D
100
AcDbXrecord
340
0
  0
XRECORD
  5
24A4
102
{ACAD_REACTORS
330
248D
102
}
330
248D
100
AcDbXrecord
 10
0.0
 20
0.0
 30
0.0
  0
XRECORD
  5
24A0
102
{ACAD_REACTORS
330
248D
102
}
330
248D
100
AcDbXrecord
 10
0.0
 20
0.0
 30
0.0
  0
XRECORD
  5
24A3
102
{ACAD_REACTORS
330
248D
102
}
330
248D
100
AcDbXrecord
 10
0.0
 20
0.0
 30
0.0
  0
XRECORD
  5
24A1
102
{ACAD_REACTORS
330
248D
102
}
330
248D
100
AcDbXrecord
 10
0.0
 20
0.0
 30
0.0
  0
XRECORD
  5
24A2
102
{ACAD_REACTORS
330
248D
102
}
330
248D
100
AcDbXrecord
 10
0.0
 20
0.0
 30
0.0
  0
XRECORD
  5
249F
102
{ACAD_REACTORS
330
248D
102
}
330
248D
100
AcDbXrecord
 10
0.0
 20
0.0
 30
0.0
  0
XRECORD
  5
249C
102
{ACAD_REACTORS
330
248D
102
}
330
248D
100
AcDbXrecord
340
0
  0
XRECORD
  5
249D
102
{ACAD_REACTORS
330
248D
102
}
330
248D
100
AcDbXrecord
 70
     0
  0
XRECORD
  5
2491
102
{ACAD_REACTORS
330
248D
102
}
330
248D
100
AcDbXrecord
  1
Sekkei.ctb
  0
XRECORD
  5
248E
102
{ACAD_REACTORS
330
248D
102
}
330
248D
100
AcDbXrecord
 90
        1
  0
XRECORD
  5
248F
102
{ACAD_REACTORS
330
248D
102
}
330
248D
100
AcDbXrecord
 90
       70
  0
XRECORD
  5
24A7
102
{ACAD_REACTORS
330
248D
102
}
330
248D
100
AcDbXrecord
340
0
  0
XRECORD
  5
24AD
102
{ACAD_REACTORS
330
248D
102
}
330
248D
100
AcDbXrecord
 10
0.0
 20
0.0
 30
0.0
  0
XRECORD
  5
24A9
102
{ACAD_REACTORS
330
248D
102
}
330
248D
100
AcDbXrecord
 10
0.0
 20
0.0
 30
0.0
  0
XRECORD
  5
24AC
102
{ACAD_REACTORS
330
248D
102
}
330
248D
100
AcDbXrecord
 10
0.0
 20
0.0
 30
0.0
  0
XRECORD
  5
24AA
102
{ACAD_REACTORS
330
248D
102
}
330
248D
100
AcDbXrecord
 10
0.0
 20
0.0
 30
0.0
  0
XRECORD
  5
24AB
102
{ACAD_REACTORS
330
248D
102
}
330
248D
100
AcDbXrecord
 10
0.0
 20
0.0
 30
0.0
  0
XRECORD
  5
24A8
102
{ACAD_REACTORS
330
248D
102
}
330
248D
100
AcDbXrecord
 10
0.0
 20
0.0
 30
0.0
  0
XRECORD
  5
24A5
102
{ACAD_REACTORS
330
248D
102
}
330
248D
100
AcDbXrecord
340
0
  0
XRECORD
  5
24A6
102
{ACAD_REACTORS
330
248D
102
}
330
248D
100
AcDbXrecord
 70
     0
  0
XRECORD
  5
2499
102
{ACAD_REACTORS
330
248D
102
}
330
248D
100
AcDbXrecord
  1
{058F6717-87CD-4595-B74A-A302A44D5EEE}
  0
DICTIONARYVAR
  5
103
102
{ACAD_REACTORS
330
102
102
}
330
102
100
DictionaryVariables
280
     0
  1
1
  0
ENDSEC
  0
EOF
