  0
SECTION
  2
HEADER
  9
$ACADVER
  1
AC1014
  9
$ACADMAINTVER
 70
     9
  9
$DWGCODEPAGE
  3
ANSI_932
  9
$INSBASE
 10
0.0
 20
0.0
 30
0.0
  9
$EXTMIN
 10
20.69953195763025
 20
23.43466964194242
 30
0.0
  9
$EXTMAX
 10
742.522520743669
 20
416.3116396420879
 30
0.0
  9
$LIMMIN
 10
-65.0797862319796
 20
-45.44199033974791
  9
$LIMMAX
 10
1007.684298778275
 20
510.7302467445811
  9
$ORTHOMODE
 70
     1
  9
$REGENMODE
 70
     1
  9
$FILLMODE
 70
     1
  9
$QTEXTMODE
 70
     0
  9
$MIRRTEXT
 70
     0
  9
$DRAGMODE
 70
     2
  9
$LTSCALE
 40
3.0
  9
$OSMODE
 70
    37
  9
$ATTMODE
 70
     1
  9
$TEXTSIZE
 40
2.0
  9
$TRACEWID
 40
1.0
  9
$TEXTSTYLE
  7
STANDARD
  9
$CLAYER
  8
0
  9
$CELTYPE
  6
BYLAYER
  9
$CECOLOR
 62
   256
  9
$CELTSCALE
 40
1.0
  9
$DELOBJ
 70
     1
  9
$DISPSILH
 70
     0
  9
$DIMSCALE
 40
3.0
  9
$DIMASZ
 40
1.8
  9
$DIMEXO
 40
0.625
  9
$DIMDLI
 40
3.75
  9
$DIMRND
 40
0.0
  9
$DIMDLE
 40
0.0
  9
$DIMEXE
 40
0.8
  9
$DIMTP
 40
0.0
  9
$DIMTM
 40
0.0
  9
$DIMTXT
 40
1.8
  9
$DIMCEN
 40
2.5
  9
$DIMTSZ
 40
0.0
  9
$DIMTOL
 70
     0
  9
$DIMLIM
 70
     0
  9
$DIMTIH
 70
     0
  9
$DIMTOH
 70
     0
  9
$DIMSE1
 70
     0
  9
$DIMSE2
 70
     0
  9
$DIMTAD
 70
     1
  9
$DIMZIN
 70
     8
  9
$DIMBLK
  1

  9
$DIMASO
 70
     1
  9
$DIMSHO
 70
     1
  9
$DIMPOST
  1

  9
$DIMAPOST
  1

  9
$DIMALT
 70
     0
  9
$DIMALTD
 70
     4
  9
$DIMALTF
 40
0.0394
  9
$DIMLFAC
 40
1.0
  9
$DIMTOFL
 70
     1
  9
$DIMTVP
 40
0.0
  9
$DIMTIX
 70
     0
  9
$DIMSOXD
 70
     0
  9
$DIMSAH
 70
     0
  9
$DIMBLK1
  1

  9
$DIMBLK2
  1

  9
$DIMSTYLE
  2
STANDARD
  9
$DIMCLRD
 70
     0
  9
$DIMCLRE
 70
     0
  9
$DIMCLRT
 70
     0
  9
$DIMTFAC
 40
1.0
  9
$DIMGAP
 40
0.75
  9
$DIMJUST
 70
     0
  9
$DIMSD1
 70
     0
  9
$DIMSD2
 70
     0
  9
$DIMTOLJ
 70
     1
  9
$DIMTZIN
 70
     0
  9
$DIMALTZ
 70
     0
  9
$DIMALTTZ
 70
     0
  9
$DIMFIT
 70
     3
  9
$DIMUPT
 70
     0
  9
$DIMUNIT
 70
     8
  9
$DIMDEC
 70
     2
  9
$DIMTDEC
 70
     2
  9
$DIMALTU
 70
     8
  9
$DIMALTTD
 70
     4
  9
$DIMTXSTY
  7
STANDARD
  9
$DIMAUNIT
 70
     0
  9
$LUNITS
 70
     2
  9
$LUPREC
 70
     3
  9
$SKETCHINC
 40
1.0
  9
$FILLETRAD
 40
10.0
  9
$AUNITS
 70
     0
  9
$AUPREC
 70
     2
  9
$MENU
  1
.
  9
$ELEVATION
 40
0.0
  9
$PELEVATION
 40
0.0
  9
$THICKNESS
 40
0.0
  9
$LIMCHECK
 70
     0
  9
$BLIPMODE
 70
     0
  9
$CHAMFERA
 40
0.0
  9
$CHAMFERB
 40
0.0
  9
$CHAMFERC
 40
20.0
  9
$CHAMFERD
 40
0.0
  9
$SKPOLY
 70
     0
  9
$TDCREATE
 40
2453557.501156863
  9
$TDUPDATE
 40
2453615.575371632
  9
$TDINDWG
 40
0.5190345023
  9
$TDUSRTIMER
 40
0.5190345023
  9
$USRTIMER
 70
     1
  9
$ANGBASE
 50
0.0
  9
$ANGDIR
 70
     0
  9
$PDMODE
 70
     0
  9
$PDSIZE
 40
-10.0
  9
$PLINEWID
 40
0.0
  9
$COORDS
 70
     2
  9
$SPLFRAME
 70
     0
  9
$SPLINETYPE
 70
     6
  9
$SPLINESEGS
 70
     8
  9
$ATTDIA
 70
     0
  9
$ATTREQ
 70
     1
  9
$HANDLING
 70
-16383
  9
$HANDSEED
  5
34CC
  9
$SURFTAB1
 70
     6
  9
$SURFTAB2
 70
     6
  9
$SURFTYPE
 70
     6
  9
$SURFU
 70
     6
  9
$SURFV
 70
     6
  9
$UCSNAME
  2

  9
$UCSORG
 10
0.0
 20
0.0
 30
0.0
  9
$UCSXDIR
 10
1.0
 20
0.0
 30
0.0
  9
$UCSYDIR
 10
0.0
 20
1.0
 30
0.0
  9
$PUCSNAME
  2

  9
$PUCSORG
 10
0.0
 20
0.0
 30
0.0
  9
$PUCSXDIR
 10
1.0
 20
0.0
 30
0.0
  9
$PUCSYDIR
 10
0.0
 20
1.0
 30
0.0
  9
$USERI1
 70
     0
  9
$USERI2
 70
     0
  9
$USERI3
 70
     0
  9
$USERI4
 70
     0
  9
$USERI5
 70
     0
  9
$USERR1
 40
0.0
  9
$USERR2
 40
0.0
  9
$USERR3
 40
0.0
  9
$USERR4
 40
0.0
  9
$USERR5
 40
0.0
  9
$WORLDVIEW
 70
     1
  9
$SHADEDGE
 70
     3
  9
$SHADEDIF
 70
    70
  9
$TILEMODE
 70
     1
  9
$MAXACTVP
 70
    48
  9
$PINSBASE
 10
0.0
 20
0.0
 30
0.0
  9
$PLIMCHECK
 70
     0
  9
$PEXTMIN
 10
3.0
 20
3.999999999999998
 30
0.0
  9
$PEXTMAX
 10
280.0
 20
194.0
 30
0.0
  9
$PLIMMIN
 10
-5.873748779296875
 20
-5.873749732971191
  9
$PLIMMAX
 10
291.05224609375
 20
204.0995779037475
  9
$UNITMODE
 70
     0
  9
$VISRETAIN
 70
     1
  9
$PLINEGEN
 70
     0
  9
$PSLTSCALE
 70
     0
  9
$TREEDEPTH
 70
  3020
  9
$PICKSTYLE
 70
     1
  9
$CMLSTYLE
  2
STANDARD
  9
$CMLJUST
 70
     0
  9
$CMLSCALE
 40
1.0
  9
$PROXYGRAPHICS
 70
     1
  9
$MEASUREMENT
 70
     0
  0
ENDSEC
  0
SECTION
  2
CLASSES
  0
CLASS
  1
DICTIONARYVAR
  2
AcDbDictionaryVar
  3
AutoCAD 2000
 90
        0
280
     0
281
     0
  0
CLASS
  1
ACDBDICTIONARYWDFLT
  2
AcDbDictionaryWithDefault
  3
AutoCAD 2000
 90
        0
280
     0
281
     0
  0
CLASS
  1
ACDBPLACEHOLDER
  2
AcDbPlaceHolder
  3
AutoCAD 2000
 90
        0
280
     0
281
     0
  0
CLASS
  1
LAYOUT
  2
AcDbLayout
  3
AutoCAD 2000
 90
        0
280
     0
281
     0
  0
CLASS
  1
LONG_TRANSACTION
  2
AcDbLongTransaction
  3
AutoCAD 2000
 90
        0
280
     0
281
     0
  0
CLASS
  1
LWPOLYLINE
  2
AcDbPolyline
  3
AutoCAD 2000
 90
        0
280
     0
281
     1
  0
CLASS
  1
HATCH
  2
AcDbHatch
  3
AutoCAD 2000
 90
        0
280
     0
281
     1
  0
CLASS
  1
XRECORD
  2
AcDbXrecord
  3
AutoCAD 2000
 90
        0
280
     0
281
     0
  0
ENDSEC
  0
SECTION
  2
TABLES
  0
TABLE
  2
VPORT
  5
6E
330
0
100
AcDbSymbolTable
 70
     2
  0
VPORT
  5
349D
330
6E
100
AcDbSymbolTableRecord
100
AcDbViewportTableRecord
  2
*ACTIVE
 70
     0
 10
0.0
 20
0.0
 11
1.0
 21
1.0
 12
392.1986752923681
 22
228.6554675141109
 13
0.0
 23
0.0
 14
10.0
 24
10.0
 15
18.0
 25
18.0
 16
0.0
 26
0.0
 36
1.0
 17
0.0
 27
0.0
 37
0.0
 40
476.5691325385612
 41
1.566970091027308
 42
50.0
 43
0.0
 44
0.0
 50
0.0
 51
0.0
 71
     0
 72
   100
 73
     1
 74
     3
 75
     0
 76
     0
 77
     0
 78
     0
  0
ENDTAB
  0
TABLE
  2
LTYPE
  5
69
330
0
100
AcDbSymbolTable
 70
     6
  0
LTYPE
  5
6A
330
69
100
AcDbSymbolTableRecord
100
AcDbLinetypeTableRecord
  2
BYBLOCK
 70
     0
  3

 72
    65
 73
     0
 40
0.0
  0
LTYPE
  5
6B
330
69
100
AcDbSymbolTableRecord
100
AcDbLinetypeTableRecord
  2
BYLAYER
 70
     0
  3

 72
    65
 73
     0
 40
0.0
  0
LTYPE
  5
8
330
69
100
AcDbSymbolTableRecord
100
AcDbLinetypeTableRecord
  2
CONTINUOUS
 70
     0
  3
Solid line
 72
    65
 73
     0
 40
0.0
  0
LTYPE
  5
27C
330
69
100
AcDbSymbolTableRecord
100
AcDbLinetypeTableRecord
  2
SEKKEI_A2_
 70
     0
  3
center(A2)  ____ _ ____ _ ____ _ ____ _ ____ _ 
 72
    65
 73
     4
 40
14.28749999999999
 49
9.525
 74
     0
 49
-1.587499999999999
 74
     0
 49
1.587499999999999
 74
     0
 49
-1.587499999999999
 74
     0
  0
LTYPE
  5
2B4
330
69
100
AcDbSymbolTableRecord
100
AcDbLinetypeTableRecord
  2
HIDDEN2
 70
     0
  3
Hidden (.5x) _ _ _ _ _ _ _ _ _ _ _ _ _ _ _ _ _
 72
    65
 73
     2
 40
4.762499999999999
 49
3.174999999999999
 74
     0
 49
-1.587499999999999
 74
     0
  0
LTYPE
  5
477
330
69
100
AcDbSymbolTableRecord
100
AcDbLinetypeTableRecord
  2
SEKKEI-P_A4_
 70
     0
  3
Phantom(A4)  ____ _ _ ____ _ _ ____ _ _ _____
 72
    65
 73
     6
 40
15.0
 49
7.5
 74
     0
 49
-1.5
 74
     0
 49
1.5
 74
     0
 49
-1.5
 74
     0
 49
1.5
 74
     0
 49
-1.5
 74
     0
  0
LTYPE
  5
48F
330
69
100
AcDbSymbolTableRecord
100
AcDbLinetypeTableRecord
  2
SEKKEI_H
 70
     0
  3
Hidden-S _ _ _ _ _ _ _ _ _ _ _ _ _ _ _ _ _
 72
    65
 73
     2
 40
2.381249999999999
 49
1.587499999999999
 74
     0
 49
-0.79375
 74
     0
  0
LTYPE
  5
494
330
69
100
AcDbSymbolTableRecord
100
AcDbLinetypeTableRecord
  2
SEKKEI_P_S
 70
     0
  3
Phantom_S   __ _ _ __ _ _ __ _ _ ___
 72
    65
 73
     6
 40
7.5
 49
3.75
 74
     0
 49
-0.75
 74
     0
 49
0.75
 74
     0
 49
-0.75
 74
     0
 49
0.75
 74
     0
 49
-0.75
 74
     0
  0
ENDTAB
  0
TABLE
  2
LAYER
  5
66
330
0
100
AcDbSymbolTable
 70
    10
  0
LAYER
  5
5E
330
66
100
AcDbSymbolTableRecord
100
AcDbLayerTableRecord
  2
0
 70
     0
 62
     7
  6
CONTINUOUS
  0
LAYER
  5
3E
330
66
100
AcDbSymbolTableRecord
100
AcDbLayerTableRecord
  2
CENTER
 70
     0
 62
     3
  6
SEKKEI_A2_
  0
LAYER
  5
4
330
66
100
AcDbSymbolTableRecord
100
AcDbLayerTableRecord
  2
WAKU
 70
     0
 62
     5
  6
CONTINUOUS
  0
LAYER
  5
E4
330
66
100
AcDbSymbolTableRecord
100
AcDbLayerTableRecord
  2
TEXT
 70
     0
 62
     4
  6
CONTINUOUS
  0
LAYER
  5
135
330
66
100
AcDbSymbolTableRecord
100
AcDbLayerTableRecord
  2
DEFPOINTS
 70
     0
 62
     7
  6
CONTINUOUS
  0
LAYER
  5
2B5
330
66
100
AcDbSymbolTableRecord
100
AcDbLayerTableRecord
  2
HIDS
 70
     0
 62
     1
  6
HIDDEN2
  0
LAYER
  5
2BA
330
66
100
AcDbSymbolTableRecord
100
AcDbLayerTableRecord
  2
HOJO
 70
     0
 62
     4
  6
CONTINUOUS
  0
LAYER
  5
3FA
330
66
100
AcDbSymbolTableRecord
100
AcDbLayerTableRecord
  2
TITLE
 70
     0
 62
     4
  6
CONTINUOUS
  0
LAYER
  5
478
330
66
100
AcDbSymbolTableRecord
100
AcDbLayerTableRecord
  2
PHAS
 70
     0
 62
     2
  6
SEKKEI-P_A4_
  0
ENDTAB
  0
TABLE
  2
STYLE
  5
67
330
0
100
AcDbSymbolTable
 70
     1
  0
STYLE
  5
16
330
67
100
AcDbSymbolTableRecord
100
AcDbTextStyleTableRecord
  2
STANDARD
 70
     0
 40
0.0
 41
1.0
 50
0.0
 71
     0
 42
2.0
  3
simplex.shx
  4
extfont.shx
  0
ENDTAB
  0
TABLE
  2
VIEW
  5
6C
330
0
100
AcDbSymbolTable
 70
     0
  0
ENDTAB
  0
TABLE
  2
UCS
  5
6D
330
0
100
AcDbSymbolTable
 70
     0
  0
ENDTAB
  0
TABLE
  2
APPID
  5
70
330
0
100
AcDbSymbolTable
 70
     2
  0
APPID
  5
71
330
70
100
AcDbSymbolTableRecord
100
AcDbRegAppTableRecord
  2
ACAD
 70
     0
  0
APPID
  5
34C1
330
70
100
AcDbSymbolTableRecord
100
AcDbRegAppTableRecord
  2
CONTENTBLOCKICON
 70
     0
  0
ENDTAB
  0
TABLE
  2
DIMSTYLE
  5
72
330
0
100
AcDbSymbolTable
 70
     1
  0
DIMSTYLE
105
73
330
72
100
AcDbSymbolTableRecord
100
AcDbDimStyleTableRecord
  2
STANDARD
 70
     0
  3

  4

  5

  6

  7

 40
3.0
 41
1.8
 42
0.625
 43
3.75
 44
0.8
 45
0.0
 46
0.0
 47
0.0
 48
0.0
140
1.8
141
2.5
142
0.0
143
0.0394
144
1.0
145
0.0
146
1.0
147
0.75
 71
     0
 72
     0
 73
     0
 74
     0
 75
     0
 76
     0
 77
     1
 78
     8
170
     0
171
     4
172
     1
173
     0
174
     0
175
     0
176
     0
177
     0
178
     0
270
     8
271
     2
272
     2
273
     8
274
     4
340
16
275
     0
280
     0
281
     0
282
     0
283
     1
284
     0
285
     0
286
     0
287
     3
288
     0
  0
ENDTAB
  0
TABLE
  2
BLOCK_RECORD
  5
1
330
0
100
AcDbSymbolTable
 70
    61
  0
BLOCK_RECORD
  5
2
102
{ACAD_XDICTIONARY
360
34BF
102
}
330
1
100
AcDbSymbolTableRecord
100
AcDbBlockTableRecord
  2
*MODEL_SPACE
  0
BLOCK_RECORD
  5
2D57
102
{ACAD_XDICTIONARY
360
34C2
102
}
330
1
100
AcDbSymbolTableRecord
100
AcDbBlockTableRecord
  2
*PAPER_SPACE
  0
BLOCK_RECORD
  5
40C
330
1
100
AcDbSymbolTableRecord
100
AcDbBlockTableRecord
  2
外寸枠A4テンプレート
1001
CONTENTBLOCKICON
1071
        0
1004
2800000020000000200000000100080000000000000400000000000000000000000000000000000000000000000080000080000000808000800000008000800080800000C0C0C000C0DCC000F0CAA6000020400000206000002080000020A0000020C0000020E00000400000004020000040400000406000004080000040A0
1004
000040C0000040E00000600000006020000060400000606000006080000060A0000060C0000060E00000800000008020000080400000806000008080000080A0000080C0000080E00000A0000000A0200000A0400000A0600000A0800000A0A00000A0C00000A0E00000C0000000C0200000C0400000C0600000C0800000C0
1004
A00000C0C00000C0E00000E0000000E0200000E0400000E0600000E0800000E0A00000E0C00000E0E00040000000400020004000400040006000400080004000A0004000C0004000E00040200000402020004020400040206000402080004020A0004020C0004020E000404000004040200040404000404060004040800040
1004
40A0004040C0004040E00040600000406020004060400040606000406080004060A0004060C0004060E00040800000408020004080400040806000408080004080A0004080C0004080E00040A0000040A0200040A0400040A0600040A0800040A0A00040A0C00040A0E00040C0000040C0200040C0400040C0600040C08000
1004
40C0A00040C0C00040C0E00040E0000040E0200040E0400040E0600040E0800040E0A00040E0C00040E0E00080000000800020008000400080006000800080008000A0008000C0008000E00080200000802020008020400080206000802080008020A0008020C0008020E00080400000804020008040400080406000804080
1004
008040A0008040C0008040E00080600000806020008060400080606000806080008060A0008060C0008060E00080800000808020008080400080806000808080008080A0008080C0008080E00080A0000080A0200080A0400080A0600080A0800080A0A00080A0C00080A0E00080C0000080C0200080C0400080C0600080C0
1004
800080C0A00080C0C00080C0E00080E0000080E0200080E0400080E0600080E0800080E0A00080E0C00080E0E000C0000000C0002000C0004000C0006000C0008000C000A000C000C000C000E000C0200000C0202000C0204000C0206000C0208000C020A000C020C000C020E000C0400000C0402000C0404000C0406000C0
1004
408000C040A000C040C000C040E000C0600000C0602000C0604000C0606000C0608000C060A000C060C000C060E000C0800000C0802000C0804000C0806000C0808000C080A000C080C000C080E000C0A00000C0A02000C0A04000C0A06000C0A08000C0A0A000C0A0C000C0A0E000C0C00000C0C02000C0C04000C0C06000
1004
C0C08000C0C0A000F0FBFF00A4A0A000808080000000FF0000FF000000FFFF00FF000000FF00FF00FFFF0000FFFFFF0000000000000000000000000000000000000000000000000000000000000000000000000000000000000000000000000000000000000000000000000000000000000000000000000000000000000000
1004
000000000000000000000000000000000000000000000000000000000000000000000000000000000000000000000000000000000000000000000000000000000000000000000000000000000000000000000000000000000000000000000000000000000000000000000000000000000000FCFCFCFCFCFCFCFCFCFCFCFCFC
1004
FCFCFCFCFCFCFCFCFEFEFEFDFDFCFDFDFD0000FC0000000000000000000000000000000000000000FDFDFDFDFDFDFDFDFD0000FC0000000000000000000000000000000000000000FDFDFEFEFEFEFDFDFD0000FC0000000000000000000000000000000000000000FDFCFEFEFEFEFCFCFC0000FC0000000000000000000000
1004
0000000000000000000000000000000000FC0000FC00000000000000000000000000000000000000000000000000000000FC0000FC00000000000000000000000000000000000000000000000000000000FC0000FC00000000000000000000000000000000000000000000000000000000FC0000FC00000000000000000000
1004
000000000000000000000000000000000000FC0000FC00000000000000000000000000000000000000000000000000000000FC0000FC00000000000000000000000000000000000000000000000000000000FC0000FC00000000000000000000000000000000000000000000000000000000FC0000FC000000000000000000
1004
00000000000000000000000000000000000000FC0000FC00000000000000000000000000000000000000000000000000000000FC0000FC00000000000000000000000000000000000000000000000000000000FC0000FC00000000000000000000000000000000000000000000000000000000FC0000FC0000000000000000
1004
0000000000000000000000000000000000000000FC0000FC00000000000000000000000000000000000000000000000000000000FC0000FC00000000000000000000000000000000000000000000FCFCFCFCFCFCFC0000FCFCFCFCFCFCFCFCFCFCFCFCFCFCFCFCFCFCFCFCFCFCFCFCFDFCFCFCFCFC00000000000000000000
1004
00000000000000000000000000000000000000000000000000000000000000000000000000000000000000000000000000000000000000000000000000000000000000000000000000000000000000000000000000000000000000000000000000000000000000000000000000000000000000000000000000000000000000
1004
0000000000000000000000000000000000000000000000000000000000000000000000000000000000000000000000000000000000000000
  0
BLOCK_RECORD
  5
2D16
330
1
100
AcDbSymbolTableRecord
100
AcDbBlockTableRecord
  2
1
  0
BLOCK_RECORD
  5
2DDD
330
1
100
AcDbSymbolTableRecord
100
AcDbBlockTableRecord
  2
GSPEC_F2S-12-10-240
  0
BLOCK_RECORD
  5
2E0F
330
1
100
AcDbSymbolTableRecord
100
AcDbBlockTableRecord
  2
GSPEC_F2S-12-10-120
  0
BLOCK_RECORD
  5
2EDD
330
1
100
AcDbSymbolTableRecord
100
AcDbBlockTableRecord
  2
MSPEC_T40-75
  0
BLOCK_RECORD
  5
2F03
330
1
100
AcDbSymbolTableRecord
100
AcDbBlockTableRecord
  2
MSPEC_S15-75
  0
BLOCK_RECORD
  5
2F29
330
1
100
AcDbSymbolTableRecord
100
AcDbBlockTableRecord
  2
MSPEC_S15W-75
  0
BLOCK_RECORD
  5
2F4F
330
1
100
AcDbSymbolTableRecord
100
AcDbBlockTableRecord
  2
MSPEC_S25-75
  0
BLOCK_RECORD
  5
2F75
330
1
100
AcDbSymbolTableRecord
100
AcDbBlockTableRecord
  2
MSPEC_S25W-75
  0
ENDTAB
  0
ENDSEC
  0
SECTION
  2
BLOCKS
  0
BLOCK
  5
5D
330
2
100
AcDbEntity
  8
0
100
AcDbBlockBegin
  2
*MODEL_SPACE
 70
     0
 10
0.0
 20
0.0
 30
0.0
  3
*MODEL_SPACE
  1

  0
ENDBLK
  5
5F
330
2
100
AcDbEntity
  8
0
100
AcDbBlockEnd
  0
BLOCK
  5
2D65
330
2D57
100
AcDbEntity
 67
     1
  8
0
100
AcDbBlockBegin
  2
*PAPER_SPACE
 70
     0
 10
0.0
 20
0.0
 30
0.0
  3
*PAPER_SPACE
  1

  0
ENDBLK
  5
2D66
330
2D57
100
AcDbEntity
 67
     1
  8
0
100
AcDbBlockEnd
  0
BLOCK
  5
463
330
40C
100
AcDbEntity
  8
0
100
AcDbBlockBegin
  2
外寸枠A4テンプレート
 70
     2
 10
0.0
 20
0.0
 30
0.0
  3
外寸枠A4テンプレート
  1

  0
LWPOLYLINE
  5
40D
330
40C
100
AcDbEntity
  8
WAKU
100
AcDbPolyline
 90
        4
 70
     1
 43
0.0
 10
3.0
 20
4.0
 10
280.0
 20
4.0
 10
280.0
 20
194.0
 10
3.0
 20
194.0
  0
LWPOLYLINE
  5
40E
330
40C
100
AcDbEntity
  8
WAKU
100
AcDbPolyline
 90
        4
 70
     1
 43
0.0
 10
3.0
 20
4.0
 10
280.0
 20
4.0
 10
280.0
 20
194.0
 10
3.0
 20
194.0
  0
LINE
  5
40F
330
40C
100
AcDbEntity
  8
WAKU
100
AcDbLine
 10
280.0
 20
182.0
 30
0.0
 11
226.4018178786999
 21
182.0
 31
0.0
  0
TEXT
  5
410
330
40C
100
AcDbEntity
  8
WAKU
 62
     6
100
AcDbText
 10
228.3816999999999
 20
190.11095
 30
0.0
 40
2.1213
  1
REVISIONS
 41
0.7
100
AcDbText
  0
LINE
  5
411
330
40C
100
AcDbEntity
  8
WAKU
100
AcDbLine
 10
226.4018178786999
 20
194.0
 30
0.0
 11
226.4018178786999
 21
181.9999999999999
 31
0.0
  0
LINE
  5
412
330
40C
100
AcDbEntity
  8
WAKU
 62
     6
100
AcDbLine
 10
203.6331999999998
 20
29.0030567071
 30
0.0
 11
280.0
 21
29.0030567071
 31
0.0
  0
LINE
  5
413
330
40C
100
AcDbEntity
  8
WAKU
 62
     6
100
AcDbLine
 10
203.6331999999998
 20
24.47761529289999
 30
0.0
 11
280.0
 21
24.47761529289999
 31
0.0
  0
LINE
  5
414
330
40C
100
AcDbEntity
  8
WAKU
 62
     6
100
AcDbLine
 10
203.6331999999998
 20
19.9521752929
 30
0.0
 11
280.0
 21
19.9521752929
 31
0.0
  0
LINE
  5
415
330
40C
100
AcDbEntity
  8
WAKU
 62
     6
100
AcDbLine
 10
203.6331999999998
 20
15.42673599999999
 30
0.0
 11
280.0
 21
15.42673599999999
 31
0.0
  0
LINE
  5
416
330
40C
100
AcDbEntity
  8
WAKU
 62
     6
100
AcDbLine
 10
203.6331999999998
 20
29.0030567071
 30
0.0
 11
280.0
 21
29.0030567071
 31
0.0
  0
LINE
  5
417
330
40C
100
AcDbEntity
  8
WAKU
 62
     6
100
AcDbLine
 10
203.6331999999998
 20
24.47761529289999
 30
0.0
 11
280.0
 21
24.47761529289999
 31
0.0
  0
LINE
  5
418
330
40C
100
AcDbEntity
  8
WAKU
 62
     6
100
AcDbLine
 10
203.6331999999998
 20
19.9521752929
 30
0.0
 11
280.0
 21
19.9521752929
 31
0.0
  0
LINE
  5
419
330
40C
100
AcDbEntity
  8
WAKU
 62
     6
100
AcDbLine
 10
203.6331999999998
 20
15.42673599999999
 30
0.0
 11
280.0
 21
15.42673599999999
 31
0.0
  0
LINE
  5
41A
330
40C
100
AcDbEntity
  8
WAKU
 62
     6
100
AcDbLine
 10
203.6331999999998
 20
29.0030567071
 30
0.0
 11
280.0
 21
29.0030567071
 31
0.0
  0
LINE
  5
41B
330
40C
100
AcDbEntity
  8
WAKU
 62
     6
100
AcDbLine
 10
203.6331999999998
 20
24.47761529289999
 30
0.0
 11
280.0
 21
24.47761529289999
 31
0.0
  0
LINE
  5
41C
330
40C
100
AcDbEntity
  8
WAKU
 62
     6
100
AcDbLine
 10
203.6331999999998
 20
19.9521752929
 30
0.0
 11
280.0
 21
19.9521752929
 31
0.0
  0
LINE
  5
41D
330
40C
100
AcDbEntity
  8
WAKU
 62
     6
100
AcDbLine
 10
203.6331999999998
 20
15.42673599999999
 30
0.0
 11
280.0
 21
15.42673599999999
 31
0.0
  0
LINE
  5
41E
330
40C
100
AcDbEntity
  8
WAKU
100
AcDbLine
 10
203.6331999999998
 20
38.053936
 30
0.0
 11
280.0
 21
38.053936
 31
0.0
  0
LINE
  5
41F
330
40C
100
AcDbEntity
  8
WAKU
100
AcDbLine
 10
203.6331999999998
 20
38.053936
 30
0.0
 11
280.0
 21
38.053936
 31
0.0
  0
LINE
  5
420
330
40C
100
AcDbEntity
  8
WAKU
100
AcDbLine
 10
203.6331999999998
 20
38.053936
 30
0.0
 11
280.0
 21
38.053936
 31
0.0
  0
TEXT
  5
421
330
40C
100
AcDbEntity
  8
WAKU
 62
     6
100
AcDbText
 10
231.4464545235218
 20
12.856420429
 30
0.0
 40
1.76775
  1
SCALE
 41
0.7
100
AcDbText
  0
TEXT
  5
422
330
40C
100
AcDbEntity
  8
TEXT
100
AcDbText
 10
228.8293221750166
 20
29.96641277760619
 30
0.0
 40
2.5
  1
外　形　寸　法　図
100
AcDbText
  0
ATTDEF
  5
423
330
40C
100
AcDbEntity
  8
TEXT
100
AcDbText
 10
241.8165999999999
 20
35.58735183158626
 30
0.0
 40
2.500000000000001
  1

 72
     4
 11
241.8165999999999
 21
35.58735183158626
 31
0.0
100
AcDbAttributeDefinition
  3
タイトル
  2
T　I　T　L　E
 70
     0
  0
LINE
  5
424
330
40C
100
AcDbEntity
  8
WAKU
100
AcDbLine
 10
203.6331999999998
 20
38.053936
 30
0.0
 11
203.6331999999998
 21
3.999999999999998
 31
0.0
  0
LINE
  5
425
330
40C
100
AcDbEntity
  8
WAKU
100
AcDbLine
 10
203.6331999999998
 20
38.053936
 30
0.0
 11
203.6331999999998
 21
3.999999999999998
 31
0.0
  0
LINE
  5
426
330
40C
100
AcDbEntity
  8
WAKU
100
AcDbLine
 10
203.6331999999998
 20
38.053936
 30
0.0
 11
203.6331999999998
 21
3.999999999999998
 31
0.0
  0
TEXT
  5
427
330
40C
100
AcDbEntity
  8
WAKU
 62
     6
100
AcDbText
 10
204.7645642425999
 20
25.805189179
 30
0.0
 40
2.1213
  1
DRAWING  NO.
 41
0.7
100
AcDbText
  0
TEXT
  5
428
330
40C
100
AcDbEntity
  8
WAKU
 62
     6
100
AcDbText
 10
204.7645642425999
 20
16.75430988609998
 30
0.0
 40
2.1213
  1
NOTICE
 41
0.7
100
AcDbText
  0
TEXT
  5
429
330
40C
100
AcDbEntity
  8
WAKU
 62
     6
100
AcDbText
 10
204.8446469479863
 20
12.674695729
 30
0.0
 40
1.8097340625
  1
APPROVE
 41
0.512174
100
AcDbText
  0
TEXT
  5
42A
330
40C
100
AcDbEntity
  8
WAKU
 62
     6
100
AcDbText
 10
204.7645642425999
 20
21.279749179
 30
0.0
 40
2.1213
  1
USER
 41
0.7
100
AcDbText
  0
TEXT
  5
42B
330
40C
100
AcDbEntity
  8
WAKU
 62
     6
100
AcDbText
 10
222.3147516895863
 20
12.6973292929
 30
0.0
 40
1.7832163983
  1
DESIGN
 41
0.5729449999999999
100
AcDbText
  0
LINE
  5
42C
330
40C
100
AcDbEntity
  8
WAKU
 62
     6
100
AcDbLine
 10
212.3823646725999
 20
15.42673599999999
 30
0.0
 11
212.3823646725999
 21
3.999999999999998
 31
0.0
  0
LINE
  5
42D
330
40C
100
AcDbEntity
  8
WAKU
 62
     6
100
AcDbLine
 10
212.3823646725999
 20
15.42673599999999
 30
0.0
 11
212.3823646725999
 21
3.999999999999998
 31
0.0
  0
LINE
  5
42E
330
40C
100
AcDbEntity
  8
WAKU
 62
     6
100
AcDbLine
 10
212.3823646725999
 20
15.42673599999999
 30
0.0
 11
212.3823646725999
 21
3.999999999999998
 31
0.0
  0
LINE
  5
42F
330
40C
100
AcDbEntity
  8
WAKU
 62
     6
100
AcDbLine
 10
221.1033047415999
 20
15.42673599999999
 30
0.0
 11
221.1033047415999
 21
3.999999999999998
 31
0.0
  0
LINE
  5
430
330
40C
100
AcDbEntity
  8
WAKU
 62
     6
100
AcDbLine
 10
221.1033047415999
 20
15.42673599999999
 30
0.0
 11
221.1033047415999
 21
3.999999999999998
 31
0.0
  0
LINE
  5
431
330
40C
100
AcDbEntity
  8
WAKU
 62
     6
100
AcDbLine
 10
221.1033047415999
 20
15.42673599999999
 30
0.0
 11
221.1033047415999
 21
3.999999999999998
 31
0.0
  0
TEXT
  5
432
330
40C
100
AcDbEntity
  8
WAKU
 62
     6
100
AcDbText
 10
213.5938010140863
 20
12.674695729
 30
0.0
 40
1.76775
  1
CHECK
 41
0.7
100
AcDbText
  0
LINE
  5
433
330
40C
100
AcDbEntity
  8
WAKU
 62
     6
100
AcDbLine
 10
229.8241790502999
 20
15.42673599999999
 30
0.0
 11
229.8241790502999
 21
3.999999999999998
 31
0.0
  0
LINE
  5
434
330
40C
100
AcDbEntity
  8
WAKU
 62
     6
100
AcDbLine
 10
229.8241790502999
 20
15.42673599999999
 30
0.0
 11
229.8241790502999
 21
3.999999999999998
 31
0.0
  0
LINE
  5
435
330
40C
100
AcDbEntity
  8
WAKU
 62
     6
100
AcDbLine
 10
229.8241790502999
 20
15.42673599999999
 30
0.0
 11
229.8241790502999
 21
3.999999999999998
 31
0.0
  0
TEXT
  5
436
330
40C
100
AcDbEntity
  8
WAKU
 62
     6
100
AcDbText
 10
204.7645642425999
 20
35.31568488609999
 30
0.0
 40
2.1213
  1
TITLE
 41
0.7
100
AcDbText
  0
ATTDEF
  5
437
330
40C
100
AcDbEntity
  8
TEXT
100
AcDbText
 10
234.056163734276
 20
8.134449518875573
 30
0.0
 40
2.0
  1

 72
     4
 11
234.056163734276
 21
8.134449518875573
 31
0.0
100
AcDbAttributeDefinition
  3
SCALE
  2
FREE
 70
     0
  0
ATTDEF
  5
438
330
40C
100
AcDbEntity
  8
TEXT
100
AcDbText
 10
207.865184683976
 20
8.134449518875573
 30
0.0
 40
2.500000000000004
  1

 72
     4
 11
207.865184683976
 21
8.134449518875573
 31
0.0
100
AcDbAttributeDefinition
  3
承認
  2
海野
 70
     0
  0
ATTDEF
  5
439
330
40C
100
AcDbEntity
  8
TEXT
100
AcDbText
 10
225.335289425576
 20
8.134449518875575
 30
0.0
 40
2.500000000000004
  1

 72
     4
 11
225.335289425576
 21
8.134449518875575
 31
0.0
100
AcDbAttributeDefinition
  3
作成
  2
鳥居
 70
     0
  0
ATTDEF
  5
43A
330
40C
100
AcDbEntity
  8
TEXT
100
AcDbText
 10
216.614349356576
 20
8.134449518875575
 30
0.0
 40
2.500000000000004
  1

 72
     4
 11
216.614349356576
 21
8.134449518875575
 31
0.0
100
AcDbAttributeDefinition
  3
確認
  2
永坂
 70
     0
  0
LINE
  5
43B
330
40C
100
AcDbEntity
  8
WAKU
 62
     6
100
AcDbLine
 10
238.6487948283999
 20
8.638576
 30
0.0
 11
280.0
 21
8.638576
 31
0.0
  0
LINE
  5
43C
330
40C
100
AcDbEntity
  8
WAKU
 62
     6
100
AcDbLine
 10
238.6487948283999
 20
8.638576
 30
0.0
 11
280.0
 21
8.638576
 31
0.0
  0
LINE
  5
43D
330
40C
100
AcDbEntity
  8
WAKU
 62
     6
100
AcDbLine
 10
238.6487948283999
 20
8.638576
 30
0.0
 11
280.0
 21
8.638576
 31
0.0
  0
TEXT
  5
43E
330
40C
100
AcDbEntity
  8
WAKU
 62
     6
100
AcDbText
 10
241.15294501234
 20
5.246258800300003
 30
0.0
 40
2.1213
  1
NISSEI  CORPORATION
100
AcDbText
  0
LINE
  5
43F
330
40C
100
AcDbEntity
  8
WAKU
100
AcDbLine
 10
246.5683127070999
 20
13.02259600000001
 30
0.0
 11
250.5280769496998
 21
14.01253599999999
 31
0.0
  0
LINE
  5
440
330
40C
100
AcDbEntity
  8
WAKU
100
AcDbLine
 10
246.5683127070999
 20
13.02259600000001
 30
0.0
 11
250.5280769496998
 21
14.01253599999999
 31
0.0
  0
LINE
  5
441
330
40C
100
AcDbEntity
  8
WAKU
100
AcDbLine
 10
246.5683127070999
 20
13.02259600000001
 30
0.0
 11
250.5280769496998
 21
14.01253599999999
 31
0.0
  0
LINE
  5
442
330
40C
100
AcDbEntity
  8
WAKU
100
AcDbLine
 10
246.5683127070999
 20
11.0427152929
 30
0.0
 11
250.5280769496998
 21
10.052776
 31
0.0
  0
LINE
  5
443
330
40C
100
AcDbEntity
  8
WAKU
100
AcDbLine
 10
246.5683127070999
 20
11.0427152929
 30
0.0
 11
250.5280769496998
 21
10.052776
 31
0.0
  0
LINE
  5
444
330
40C
100
AcDbEntity
  8
WAKU
100
AcDbLine
 10
246.5683127070999
 20
11.0427152929
 30
0.0
 11
250.5280769496998
 21
10.052776
 31
0.0
  0
LINE
  5
445
330
40C
100
AcDbEntity
  8
CENTER
 62
     6
100
AcDbLine
 10
239.4478107573998
 20
12.0326567071
 30
0.0
 11
251.3624499999998
 21
12.0326567071
 31
0.0
  0
LINE
  5
446
330
40C
100
AcDbEntity
  8
CENTER
 62
     6
100
AcDbLine
 10
239.4478107573998
 20
12.0326567071
 30
0.0
 11
251.3624499999998
 21
12.0326567071
 31
0.0
  0
LINE
  5
447
330
40C
100
AcDbEntity
  8
CENTER
 62
     6
100
AcDbLine
 10
239.4478107573998
 20
12.0326567071
 30
0.0
 11
251.3624499999998
 21
12.0326567071
 31
0.0
  0
LINE
  5
448
330
40C
100
AcDbEntity
  8
WAKU
 62
     6
100
AcDbLine
 10
238.6487948283999
 20
15.42673599999999
 30
0.0
 11
238.6487948283999
 21
3.999999999999998
 31
0.0
  0
LINE
  5
449
330
40C
100
AcDbEntity
  8
WAKU
 62
     6
100
AcDbLine
 10
238.6487948283999
 20
15.42673599999999
 30
0.0
 11
238.6487948283999
 21
3.999999999999998
 31
0.0
  0
LINE
  5
44A
330
40C
100
AcDbEntity
  8
WAKU
 62
     6
100
AcDbLine
 10
238.6487948283999
 20
15.42673599999999
 30
0.0
 11
238.6487948283999
 21
3.999999999999998
 31
0.0
  0
CIRCLE
  5
44B
330
40C
100
AcDbEntity
  8
WAKU
100
AcDbCircle
 10
242.0428769496999
 20
12.0326567071
 30
0.0
 40
0.9899399999999999
  0
CIRCLE
  5
44C
330
40C
100
AcDbEntity
  8
WAKU
100
AcDbCircle
 10
242.0428769496999
 20
12.0326567071
 30
0.0
 40
0.9899399999999999
  0
CIRCLE
  5
44D
330
40C
100
AcDbEntity
  8
WAKU
100
AcDbCircle
 10
242.0428769496999
 20
12.0326567071
 30
0.0
 40
0.9899399999999999
  0
CIRCLE
  5
44E
330
40C
100
AcDbEntity
  8
WAKU
100
AcDbCircle
 10
242.0428769496999
 20
12.0326567071
 30
0.0
 40
1.979879999999999
  0
CIRCLE
  5
44F
330
40C
100
AcDbEntity
  8
WAKU
100
AcDbCircle
 10
242.0428769496999
 20
12.0326567071
 30
0.0
 40
1.979879999999999
  0
CIRCLE
  5
450
330
40C
100
AcDbEntity
  8
WAKU
100
AcDbCircle
 10
242.0428769496999
 20
12.0326567071
 30
0.0
 40
1.979879999999999
  0
LINE
  5
451
330
40C
100
AcDbEntity
  8
WAKU
100
AcDbLine
 10
246.5683127070999
 20
13.02259600000001
 30
0.0
 11
246.5683127070999
 21
11.0427152929
 31
0.0
  0
LINE
  5
452
330
40C
100
AcDbEntity
  8
WAKU
100
AcDbLine
 10
246.5683127070999
 20
13.02259600000001
 30
0.0
 11
246.5683127070999
 21
11.0427152929
 31
0.0
  0
LINE
  5
453
330
40C
100
AcDbEntity
  8
WAKU
100
AcDbLine
 10
246.5683127070999
 20
13.02259600000001
 30
0.0
 11
246.5683127070999
 21
11.0427152929
 31
0.0
  0
LINE
  5
454
330
40C
100
AcDbEntity
  8
CENTER
 62
     6
100
AcDbLine
 10
242.0428769496999
 20
14.96005
 30
0.0
 11
242.0428769496999
 21
9.267895000000009
 31
0.0
  0
LINE
  5
455
330
40C
100
AcDbEntity
  8
CENTER
 62
     6
100
AcDbLine
 10
242.0428769496999
 20
14.96005
 30
0.0
 11
242.0428769496999
 21
9.267895000000009
 31
0.0
  0
LINE
  5
456
330
40C
100
AcDbEntity
  8
CENTER
 62
     6
100
AcDbLine
 10
242.0428769496999
 20
14.96005
 30
0.0
 11
242.0428769496999
 21
9.267895000000009
 31
0.0
  0
TEXT
  5
457
330
40C
100
AcDbEntity
  8
TEXT
100
AcDbText
 10
257.3078171288039
 20
9.492177985111482
 30
0.0
 40
2.0
  1
mm
100
AcDbText
  0
LINE
  5
458
330
40C
100
AcDbEntity
  8
WAKU
 62
     6
100
AcDbLine
 10
252.2251127070999
 20
15.42673599999999
 30
0.0
 11
252.2251127070999
 21
8.638576
 31
0.0
  0
LINE
  5
459
330
40C
100
AcDbEntity
  8
WAKU
 62
     6
100
AcDbLine
 10
252.2251127070999
 20
15.42673599999999
 30
0.0
 11
252.2251127070999
 21
8.638576
 31
0.0
  0
LINE
  5
45A
330
40C
100
AcDbEntity
  8
WAKU
 62
     6
100
AcDbLine
 10
252.2251127070999
 20
15.42673599999999
 30
0.0
 11
252.2251127070999
 21
8.638576
 31
0.0
  0
LINE
  5
45B
330
40C
100
AcDbEntity
  8
WAKU
100
AcDbLine
 10
250.5280769496998
 20
14.01253599999999
 30
0.0
 11
250.5280769496998
 21
10.052776
 31
0.0
  0
LINE
  5
45C
330
40C
100
AcDbEntity
  8
WAKU
100
AcDbLine
 10
250.5280769496998
 20
14.01253599999999
 30
0.0
 11
250.5280769496998
 21
10.052776
 31
0.0
  0
LINE
  5
45D
330
40C
100
AcDbEntity
  8
WAKU
100
AcDbLine
 10
250.5280769496998
 20
14.01253599999999
 30
0.0
 11
250.5280769496998
 21
10.052776
 31
0.0
  0
TEXT
  5
45E
330
40C
100
AcDbEntity
  8
WAKU
 62
     6
100
AcDbText
 10
253.4130357573999
 20
13.0508792929
 30
0.0
 40
1.76775
  1
UNIT
 41
0.7
100
AcDbText
  0
TEXT
  5
45F
330
40C
100
AcDbEntity
  8
WAKU
 62
     6
100
AcDbText
 10
266.9893642426
 20
13.0508792929
 30
0.0
 40
1.76775
  1
DATE
 41
0.7
100
AcDbText
  0
LINE
  5
460
330
40C
100
AcDbEntity
  8
WAKU
 62
     6
100
AcDbLine
 10
265.7448611715999
 20
15.42673599999999
 30
0.0
 11
265.7448611715999
 21
8.638576
 31
0.0
  0
LINE
  5
461
330
40C
100
AcDbEntity
  8
WAKU
 62
     6
100
AcDbLine
 10
265.7448611715999
 20
15.42673599999999
 30
0.0
 11
265.7448611715999
 21
8.638576
 31
0.0
  0
LINE
  5
462
330
40C
100
AcDbEntity
  8
WAKU
 62
     6
100
AcDbLine
 10
265.7448611715999
 20
15.42673599999999
 30
0.0
 11
265.7448611715999
 21
8.638576
 31
0.0
  0
ENDBLK
  5
464
330
40C
100
AcDbEntity
  8
0
100
AcDbBlockEnd
  0
BLOCK
  5
2D18
330
2D16
100
AcDbEntity
  8
0
100
AcDbBlockBegin
  2
1
 70
     0
 10
0.0
 20
0.0
 30
0.0
  3
1
  1

  0
TEXT
  5
2D17
330
2D16
100
AcDbEntity
  8
0
100
AcDbText
 10
0.0
 20
0.0
 30
0.0
 40
2.0
  1
注。出力軸キーは JIS B 1301-1976平行キーに依ります。
100
AcDbText
  0
ENDBLK
  5
2D19
330
2D16
100
AcDbEntity
  8
0
100
AcDbBlockEnd
  0
BLOCK
  5
2DFA
330
2DDD
100
AcDbEntity
  8
0
100
AcDbBlockBegin
  2
GSPEC_F2S-12-10-240
 70
     0
 10
0.0
 20
0.0
 30
0.0
  3
GSPEC_F2S-12-10-240
  1

  0
LINE
  5
2DDE
330
2DDD
100
AcDbEntity
  8
0
100
AcDbLine
 10
131.0
 20
13.25149999999988
 30
0.0
 11
183.0
 21
13.25149999999988
 31
0.0
  0
LINE
  5
2DDF
330
2DDD
100
AcDbEntity
  8
0
100
AcDbLine
 10
131.0
 20
9.715999999999894
 30
0.0
 11
183.0
 21
9.715999999999894
 31
0.0
  0
LINE
  5
2DE0
330
2DDD
100
AcDbEntity
  8
0
100
AcDbLine
 10
131.0
 20
16.78699999999986
 30
0.0
 11
183.0
 21
16.78699999999986
 31
0.0
  0
LINE
  5
2DE1
330
2DDD
100
AcDbEntity
  8
0
100
AcDbLine
 10
131.0
 20
34.46450000000001
 30
0.0
 11
183.0
 21
34.46450000000001
 31
0.0
  0
LINE
  5
2DE2
330
2DDD
100
AcDbEntity
  8
0
100
AcDbLine
 10
131.0
 20
30.929
 30
0.0
 11
183.0
 21
30.92899999999997
 31
0.0
  0
LINE
  5
2DE3
330
2DDD
100
AcDbEntity
  8
0
100
AcDbLine
 10
131.0
 20
38.0
 30
0.0
 11
183.0
 21
38.0
 31
0.0
  0
LINE
  5
2DE4
330
2DDD
100
AcDbEntity
  8
0
100
AcDbLine
 10
131.0
 20
9.715999999999894
 30
0.0
 11
131.0
 21
38.0
 31
0.0
  0
TEXT
  5
2DE5
330
2DDD
100
AcDbEntity
  8
0
100
AcDbText
 10
131.6780944417463
 20
13.95859999999987
 30
0.0
 40
2.0
  1
潤滑
100
AcDbText
  0
TEXT
  5
2DE6
330
2DDD
100
AcDbEntity
  8
0
100
AcDbText
 10
131.6780944417462
 20
10.32954220928042
 30
0.0
 40
2.0
  1
塗色
100
AcDbText
  0
TEXT
  5
2DE7
330
2DDD
100
AcDbEntity
  8
0
100
AcDbText
 10
131.6780944417462
 20
22.84191832202132
 30
0.0
 40
2.0
  1
減速比
100
AcDbText
  0
TEXT
  5
2DE8
330
2DDD
100
AcDbEntity
  8
0
100
AcDbText
 10
131.6780944417462
 20
31.6361
 30
0.0
 40
2.0
  1
枠番
100
AcDbText
  0
TEXT
  5
2DE9
330
2DDD
100
AcDbEntity
  8
0
100
AcDbText
 10
131.6780944417462
 20
35.17159999999998
 30
0.0
 40
2.0
  1
名称
100
AcDbText
  0
LINE
  5
2DEA
330
2DDD
100
AcDbEntity
  8
0
100
AcDbLine
 10
183.0
 20
9.715999999999894
 30
0.0
 11
183.0
 21
38.0
 31
0.0
  0
LINE
  5
2DEB
330
2DDD
100
AcDbEntity
  8
0
100
AcDbLine
 10
142.5
 20
9.715999999999894
 30
0.0
 11
142.5
 21
38.0
 31
0.0
  0
TEXT
  5
2DEC
330
2DDD
100
AcDbEntity
  8
0
100
AcDbText
 10
143.3531994322572
 20
28.10060000000001
 30
0.0
 40
2.0
  1
1/10 1/15 1/20 1/25
100
AcDbText
  0
TEXT
  5
2DED
330
2DDD
100
AcDbEntity
  8
0
100
AcDbText
 10
143.3531994322572
 20
24.56510000000003
 30
0.0
 40
2.0
  1
1/30 1/40 1/50 1/60
100
AcDbText
  0
TEXT
  5
2DEE
330
2DDD
100
AcDbEntity
  8
0
100
AcDbText
 10
143.3531994322572
 20
10.42309999999986
 30
0.0
 40
2.0
  1
グレー（マンセル値 9B6/0.5）
100
AcDbText
  0
LINE
  5
2DEF
330
2DDD
100
AcDbEntity
  8
0
100
AcDbLine
 10
142.5
 20
27.39349999999999
 30
0.0
 11
183.0
 21
27.39349999999999
 31
0.0
  0
TEXT
  5
2DF0
330
2DDD
100
AcDbEntity
  8
0
100
AcDbText
 10
143.3531994322572
 20
13.95859999999987
 30
0.0
 40
2.0
  1
グリース
100
AcDbText
  0
LINE
  5
2DF1
330
2DDD
100
AcDbEntity
  8
0
100
AcDbLine
 10
150.4725366217368
 20
39.41419999999999
 30
0.0
 11
163.5274633782631
 21
39.41419999999999
 31
0.0
  0
LINE
  5
2DF2
330
2DDD
100
AcDbEntity
  8
0
100
AcDbLine
 10
150.4725366217368
 20
40.12129999999999
 30
0.0
 11
163.5274633782631
 21
40.12129999999999
 31
0.0
  0
TEXT
  5
2DF3
330
2DDD
100
AcDbEntity
  8
0
100
AcDbText
 10
151.1299348544099
 20
40.47485
 30
0.0
 40
2.0
  1
減速機仕様
100
AcDbText
  0
TEXT
  5
2DF4
330
2DDD
100
AcDbEntity
  8
0
100
AcDbText
 10
143.3531994322572
 20
31.6361
 30
0.0
 40
2.0
  1
12
100
AcDbText
  0
TEXT
  5
2DF5
330
2DDD
100
AcDbEntity
  8
0
100
AcDbText
 10
143.3531994322572
 20
35.17159999999998
 30
0.0
 40
2.0
  1
GTR
100
AcDbText
  0
TEXT
  5
2DF6
330
2DDD
100
AcDbEntity
  8
0
100
AcDbText
 10
143.3531994322572
 20
21.02960000000004
 30
0.0
 40
2.0
  1
1/80 1/100 1/120
100
AcDbText
  0
LINE
  5
2DF7
330
2DDD
100
AcDbEntity
  8
0
100
AcDbLine
 10
142.5
 20
23.85799999999995
 30
0.0
 11
183.0
 21
23.85799999999994
 31
0.0
  0
LINE
  5
2DF8
330
2DDD
100
AcDbEntity
  8
0
100
AcDbLine
 10
142.5
 20
20.32249999999991
 30
0.0
 11
183.0
 21
20.3224999999999
 31
0.0
  0
TEXT
  5
2DF9
330
2DDD
100
AcDbEntity
  8
0
100
AcDbText
 10
143.3531994322572
 20
17.4941
 30
0.0
 40
2.0
  1
1/160 1/200 1/240
100
AcDbText
  0
ENDBLK
  5
2DFB
330
2DDD
100
AcDbEntity
  8
0
100
AcDbBlockEnd
  0
BLOCK
  5
2E2A
330
2E0F
100
AcDbEntity
  8
0
100
AcDbBlockBegin
  2
GSPEC_F2S-12-10-120
 70
     0
 10
0.0
 20
0.0
 30
0.0
  3
GSPEC_F2S-12-10-120
  1

  0
LINE
  5
2E10
330
2E0F
100
AcDbEntity
  8
0
100
AcDbLine
 10
131.0
 20
16.78699999999992
 30
0.0
 11
183.0
 21
16.78699999999992
 31
0.0
  0
LINE
  5
2E11
330
2E0F
100
AcDbEntity
  8
0
100
AcDbLine
 10
131.0
 20
13.25149999999993
 30
0.0
 11
183.0
 21
13.25149999999993
 31
0.0
  0
LINE
  5
2E12
330
2E0F
100
AcDbEntity
  8
0
100
AcDbLine
 10
131.0
 20
20.3224999999999
 30
0.0
 11
183.0
 21
20.3224999999999
 31
0.0
  0
LINE
  5
2E13
330
2E0F
100
AcDbEntity
  8
0
100
AcDbLine
 10
131.0
 20
34.46450000000001
 30
0.0
 11
183.0
 21
34.46450000000001
 31
0.0
  0
LINE
  5
2E14
330
2E0F
100
AcDbEntity
  8
0
100
AcDbLine
 10
131.0
 20
30.929
 30
0.0
 11
183.0
 21
30.92899999999997
 31
0.0
  0
LINE
  5
2E15
330
2E0F
100
AcDbEntity
  8
0
100
AcDbLine
 10
131.0
 20
38.0
 30
0.0
 11
183.0
 21
38.0
 31
0.0
  0
LINE
  5
2E16
330
2E0F
100
AcDbEntity
  8
0
100
AcDbLine
 10
131.0
 20
13.25149999999993
 30
0.0
 11
131.0
 21
38.0
 31
0.0
  0
TEXT
  5
2E17
330
2E0F
100
AcDbEntity
  8
0
100
AcDbText
 10
131.6780944417463
 20
17.49409999999991
 30
0.0
 40
2.0
  1
潤滑
100
AcDbText
  0
TEXT
  5
2E18
330
2E0F
100
AcDbEntity
  8
0
100
AcDbText
 10
131.6780944417462
 20
13.86504220928046
 30
0.0
 40
2.0
  1
塗色
100
AcDbText
  0
TEXT
  5
2E19
330
2E0F
100
AcDbEntity
  8
0
100
AcDbText
 10
131.6780944417462
 20
24.60966832202135
 30
0.0
 40
2.0
  1
減速比
100
AcDbText
  0
TEXT
  5
2E1A
330
2E0F
100
AcDbEntity
  8
0
100
AcDbText
 10
131.6780944417462
 20
31.6361
 30
0.0
 40
2.0
  1
枠番
100
AcDbText
  0
TEXT
  5
2E1B
330
2E0F
100
AcDbEntity
  8
0
100
AcDbText
 10
131.6780944417462
 20
35.17159999999998
 30
0.0
 40
2.0
  1
名称
100
AcDbText
  0
LINE
  5
2E1C
330
2E0F
100
AcDbEntity
  8
0
100
AcDbLine
 10
183.0
 20
13.25149999999993
 30
0.0
 11
183.0
 21
38.0
 31
0.0
  0
LINE
  5
2E1D
330
2E0F
100
AcDbEntity
  8
0
100
AcDbLine
 10
142.5
 20
13.25149999999993
 30
0.0
 11
142.5
 21
38.0
 31
0.0
  0
TEXT
  5
2E1E
330
2E0F
100
AcDbEntity
  8
0
100
AcDbText
 10
143.3531994322572
 20
28.10060000000001
 30
0.0
 40
2.0
  1
1/10 1/15 1/20 1/25
100
AcDbText
  0
TEXT
  5
2E1F
330
2E0F
100
AcDbEntity
  8
0
100
AcDbText
 10
143.3531994322572
 20
24.56510000000003
 30
0.0
 40
2.0
  1
1/30 1/40 1/50 1/60
100
AcDbText
  0
TEXT
  5
2E20
330
2E0F
100
AcDbEntity
  8
0
100
AcDbText
 10
143.3531994322572
 20
13.9585999999999
 30
0.0
 40
2.0
  1
グレー（マンセル値 9B6/0.5）
100
AcDbText
  0
LINE
  5
2E21
330
2E0F
100
AcDbEntity
  8
0
100
AcDbLine
 10
142.5
 20
27.39349999999999
 30
0.0
 11
183.0
 21
27.39349999999999
 31
0.0
  0
TEXT
  5
2E22
330
2E0F
100
AcDbEntity
  8
0
100
AcDbText
 10
143.3531994322572
 20
17.49409999999991
 30
0.0
 40
2.0
  1
グリース
100
AcDbText
  0
LINE
  5
2E23
330
2E0F
100
AcDbEntity
  8
0
100
AcDbLine
 10
150.4725366217368
 20
39.41419999999999
 30
0.0
 11
163.5274633782631
 21
39.41419999999999
 31
0.0
  0
LINE
  5
2E24
330
2E0F
100
AcDbEntity
  8
0
100
AcDbLine
 10
150.4725366217368
 20
40.12129999999999
 30
0.0
 11
163.5274633782631
 21
40.12129999999999
 31
0.0
  0
TEXT
  5
2E25
330
2E0F
100
AcDbEntity
  8
0
100
AcDbText
 10
151.1299348544099
 20
40.47485
 30
0.0
 40
2.0
  1
減速機仕様
100
AcDbText
  0
TEXT
  5
2E26
330
2E0F
100
AcDbEntity
  8
0
100
AcDbText
 10
143.3531994322572
 20
31.6361
 30
0.0
 40
2.0
  1
12
100
AcDbText
  0
TEXT
  5
2E27
330
2E0F
100
AcDbEntity
  8
0
100
AcDbText
 10
143.3531994322572
 20
35.17159999999998
 30
0.0
 40
2.0
  1
GTR
100
AcDbText
  0
TEXT
  5
2E28
330
2E0F
100
AcDbEntity
  8
0
100
AcDbText
 10
143.3531994322572
 20
21.02960000000004
 30
0.0
 40
2.0
  1
1/80 1/100 1/120
100
AcDbText
  0
LINE
  5
2E29
330
2E0F
100
AcDbEntity
  8
0
100
AcDbLine
 10
142.5
 20
23.85799999999995
 30
0.0
 11
183.0
 21
23.85799999999994
 31
0.0
  0
ENDBLK
  5
2E2B
330
2E0F
100
AcDbEntity
  8
0
100
AcDbBlockEnd
  0
BLOCK
  5
2F00
330
2EDD
100
AcDbEntity
  8
0
100
AcDbBlockBegin
  2
MSPEC_T40-75
 70
     0
 10
0.0
 20
0.0
 30
0.0
  3
MSPEC_T40-75
  1

  0
LINE
  5
2EDE
330
2EDD
100
AcDbEntity
  8
0
100
AcDbLine
 10
126.0
 20
6.180499999999994
 30
0.0
 11
126.0
 21
37.99999999999997
 31
0.0
  0
TEXT
  5
2EDF
330
2EDD
100
AcDbEntity
  8
0
100
AcDbText
 10
86.35319943225727
 20
28.10060000000001
 30
0.0
 40
2.0
  1
40 W
100
AcDbText
  0
TEXT
  5
2EE0
330
2EDD
100
AcDbEntity
  8
0
100
AcDbText
 10
74.67809444174623
 20
28.10059999999998
 30
0.0
 40
2.0
  1
出力
100
AcDbText
  0
LINE
  5
2EE1
330
2EDD
100
AcDbEntity
  8
0
100
AcDbLine
 10
85.5
 20
6.180499999999994
 30
0.0
 11
85.5
 21
38.0
 31
0.0
  0
LINE
  5
2EE2
330
2EDD
100
AcDbEntity
  8
0
100
AcDbLine
 10
73.99999999999998
 20
6.180500000000023
 30
0.0
 11
74.0
 21
38.0
 31
0.0
  0
TEXT
  5
2EE3
330
2EDD
100
AcDbEntity
  8
0
100
AcDbText
 10
86.35319943225727
 20
13.95859999999993
 30
0.0
 40
2.0
  1
1500/1800/1800 rpm
100
AcDbText
  0
LINE
  5
2EE4
330
2EDD
100
AcDbEntity
  8
0
100
AcDbLine
 10
74.0
 20
6.180500000000023
 30
0.0
 11
126.0
 21
6.180499999999994
 31
0.0
  0
LINE
  5
2EE5
330
2EDD
100
AcDbEntity
  8
0
100
AcDbLine
 10
74.0
 20
9.716000000000008
 30
0.0
 11
126.0
 21
9.715999999999979
 31
0.0
  0
LINE
  5
2EE6
330
2EDD
100
AcDbEntity
  8
0
100
AcDbLine
 10
74.0
 20
13.25149999999999
 30
0.0
 11
126.0
 21
13.25149999999996
 31
0.0
  0
LINE
  5
2EE7
330
2EDD
100
AcDbEntity
  8
0
100
AcDbLine
 10
74.0
 20
23.85799999999994
 30
0.0
 11
126.0
 21
23.85799999999992
 31
0.0
  0
LINE
  5
2EE8
330
2EDD
100
AcDbEntity
  8
0
100
AcDbLine
 10
74.0
 20
16.78699999999997
 30
0.0
 11
126.0
 21
16.78699999999994
 31
0.0
  0
LINE
  5
2EE9
330
2EDD
100
AcDbEntity
  8
0
100
AcDbLine
 10
74.0
 20
20.32249999999996
 30
0.0
 11
126.0
 21
20.32249999999993
 31
0.0
  0
LINE
  5
2EEA
330
2EDD
100
AcDbEntity
  8
0
100
AcDbLine
 10
74.0
 20
27.39349999999999
 30
0.0
 11
126.0
 21
27.39349999999996
 31
0.0
  0
TEXT
  5
2EEB
330
2EDD
100
AcDbEntity
  8
0
100
AcDbText
 10
86.35319943225727
 20
24.56510000000003
 30
0.0
 40
2.0
  1
200/200/220 V
100
AcDbText
  0
TEXT
  5
2EEC
330
2EDD
100
AcDbEntity
  8
0
100
AcDbText
 10
86.35319943225727
 20
21.02959999999995
 30
0.0
 40
2.0
  1
50/60/60 Hz
100
AcDbText
  0
TEXT
  5
2EED
330
2EDD
100
AcDbEntity
  8
0
100
AcDbText
 10
74.67809444174623
 20
10.3295422092805
 30
0.0
 40
2.0
  1
定格
100
AcDbText
  0
TEXT
  5
2EEE
330
2EDD
100
AcDbEntity
  8
0
100
AcDbText
 10
74.67809444174623
 20
6.794042209280519
 30
0.0
 40
2.0
  1
絶縁
100
AcDbText
  0
TEXT
  5
2EEF
330
2EDD
100
AcDbEntity
  8
0
100
AcDbText
 10
86.35319943225727
 20
10.42309999999994
 30
0.0
 40
2.0
  1
連続
100
AcDbText
  0
TEXT
  5
2EF0
330
2EDD
100
AcDbEntity
  8
0
100
AcDbText
 10
86.35319943225727
 20
6.887599999999963
 30
0.0
 40
2.0
  1
E種
100
AcDbText
  0
TEXT
  5
2EF1
330
2EDD
100
AcDbEntity
  8
0
100
AcDbText
 10
74.67809444174623
 20
13.86504220928048
 30
0.0
 40
2.0
  1
回転速度
100
AcDbText
  0
TEXT
  5
2EF2
330
2EDD
100
AcDbEntity
  8
0
100
AcDbText
 10
74.67809444174633
 20
21.02959999999995
 30
0.0
 40
2.0
  1
周波数
100
AcDbText
  0
TEXT
  5
2EF3
330
2EDD
100
AcDbEntity
  8
0
100
AcDbText
 10
74.67809444174623
 20
17.4005422092805
 30
0.0
 40
2.0
  1
極数
100
AcDbText
  0
TEXT
  5
2EF4
330
2EDD
100
AcDbEntity
  8
0
100
AcDbText
 10
74.67809444174623
 20
24.56509999999997
 30
0.0
 40
2.0
  1
電圧
100
AcDbText
  0
TEXT
  5
2EF5
330
2EDD
100
AcDbEntity
  8
0
100
AcDbText
 10
86.35319943225727
 20
17.49409999999994
 30
0.0
 40
2.0
  1
4
100
AcDbText
  0
TEXT
  5
2EF6
330
2EDD
100
AcDbEntity
  8
0
100
AcDbText
 10
86.35319943225727
 20
31.6361
 30
0.0
 40
2.0
  1
全閉形　DT-75
100
AcDbText
  0
LINE
  5
2EF7
330
2EDD
100
AcDbEntity
  8
0
100
AcDbLine
 10
74.0
 20
38.0
 30
0.0
 11
126.0
 21
37.99999999999997
 31
0.0
  0
LINE
  5
2EF8
330
2EDD
100
AcDbEntity
  8
0
100
AcDbLine
 10
74.0
 20
30.929
 30
0.0
 11
126.0
 21
30.92899999999994
 31
0.0
  0
LINE
  5
2EF9
330
2EDD
100
AcDbEntity
  8
0
100
AcDbLine
 10
74.0
 20
34.46450000000001
 30
0.0
 11
126.0
 21
34.46449999999998
 31
0.0
  0
TEXT
  5
2EFA
330
2EDD
100
AcDbEntity
  8
0
100
AcDbText
 10
86.35319943225727
 20
35.17159999999998
 30
0.0
 40
2.0
  1
三相誘導電動機
100
AcDbText
  0
TEXT
  5
2EFB
330
2EDD
100
AcDbEntity
  8
0
100
AcDbText
 10
74.67809444174623
 20
31.6361
 30
0.0
 40
2.0
  1
型式
100
AcDbText
  0
TEXT
  5
2EFC
330
2EDD
100
AcDbEntity
  8
0
100
AcDbText
 10
74.67809444174623
 20
35.17159999999998
 30
0.0
 40
2.0
  1
名称
100
AcDbText
  0
LINE
  5
2EFD
330
2EDD
100
AcDbEntity
  8
0
100
AcDbLine
 10
93.80123573807338
 20
40.12129999999999
 30
0.0
 11
106.1987642619266
 21
40.12129999999999
 31
0.0
  0
LINE
  5
2EFE
330
2EDD
100
AcDbEntity
  8
0
100
AcDbLine
 10
93.80123573807338
 20
39.41419999999999
 30
0.0
 11
106.1987642619266
 21
39.41419999999999
 31
0.0
  0
TEXT
  5
2EFF
330
2EDD
100
AcDbEntity
  8
0
100
AcDbText
 10
93.99902987649658
 20
40.47485
 30
0.0
 40
2.0
  1
モータ仕様
100
AcDbText
  0
ENDBLK
  5
2F01
330
2EDD
100
AcDbEntity
  8
0
100
AcDbBlockEnd
  0
BLOCK
  5
2F26
330
2F03
100
AcDbEntity
  8
0
100
AcDbBlockBegin
  2
MSPEC_S15-75
 70
     0
 10
0.0
 20
0.0
 30
0.0
  3
MSPEC_S15-75
  1

  0
LINE
  5
2F04
330
2F03
100
AcDbEntity
  8
0
100
AcDbLine
 10
126.0
 20
6.180499999999994
 30
0.0
 11
126.0
 21
37.99999999999997
 31
0.0
  0
TEXT
  5
2F05
330
2F03
100
AcDbEntity
  8
0
100
AcDbText
 10
86.35319943225727
 20
28.10060000000001
 30
0.0
 40
2.0
  1
15 W
100
AcDbText
  0
TEXT
  5
2F06
330
2F03
100
AcDbEntity
  8
0
100
AcDbText
 10
74.67809444174623
 20
28.10059999999998
 30
0.0
 40
2.0
  1
出力
100
AcDbText
  0
LINE
  5
2F07
330
2F03
100
AcDbEntity
  8
0
100
AcDbLine
 10
85.5
 20
6.180499999999994
 30
0.0
 11
85.5
 21
38.0
 31
0.0
  0
LINE
  5
2F08
330
2F03
100
AcDbEntity
  8
0
100
AcDbLine
 10
73.99999999999998
 20
6.180500000000023
 30
0.0
 11
74.0
 21
38.0
 31
0.0
  0
TEXT
  5
2F09
330
2F03
100
AcDbEntity
  8
0
100
AcDbText
 10
86.35319943225727
 20
13.95859999999993
 30
0.0
 40
2.0
  1
1500/1800 rpm
100
AcDbText
  0
LINE
  5
2F0A
330
2F03
100
AcDbEntity
  8
0
100
AcDbLine
 10
74.0
 20
6.180500000000023
 30
0.0
 11
126.0
 21
6.180499999999994
 31
0.0
  0
LINE
  5
2F0B
330
2F03
100
AcDbEntity
  8
0
100
AcDbLine
 10
74.0
 20
9.716000000000008
 30
0.0
 11
126.0
 21
9.715999999999979
 31
0.0
  0
LINE
  5
2F0C
330
2F03
100
AcDbEntity
  8
0
100
AcDbLine
 10
74.0
 20
13.25149999999999
 30
0.0
 11
126.0
 21
13.25149999999996
 31
0.0
  0
LINE
  5
2F0D
330
2F03
100
AcDbEntity
  8
0
100
AcDbLine
 10
74.0
 20
23.85799999999994
 30
0.0
 11
126.0
 21
23.85799999999992
 31
0.0
  0
LINE
  5
2F0E
330
2F03
100
AcDbEntity
  8
0
100
AcDbLine
 10
74.0
 20
16.78699999999997
 30
0.0
 11
126.0
 21
16.78699999999994
 31
0.0
  0
LINE
  5
2F0F
330
2F03
100
AcDbEntity
  8
0
100
AcDbLine
 10
74.0
 20
20.32249999999996
 30
0.0
 11
126.0
 21
20.32249999999993
 31
0.0
  0
LINE
  5
2F10
330
2F03
100
AcDbEntity
  8
0
100
AcDbLine
 10
74.0
 20
27.39349999999999
 30
0.0
 11
126.0
 21
27.39349999999996
 31
0.0
  0
TEXT
  5
2F11
330
2F03
100
AcDbEntity
  8
0
100
AcDbText
 10
86.35319943225727
 20
24.56510000000003
 30
0.0
 40
2.0
  1
100 V
100
AcDbText
  0
TEXT
  5
2F12
330
2F03
100
AcDbEntity
  8
0
100
AcDbText
 10
86.35319943225727
 20
21.02959999999995
 30
0.0
 40
2.0
  1
50/60 Hz
100
AcDbText
  0
TEXT
  5
2F13
330
2F03
100
AcDbEntity
  8
0
100
AcDbText
 10
74.67809444174623
 20
10.3295422092805
 30
0.0
 40
2.0
  1
定格
100
AcDbText
  0
TEXT
  5
2F14
330
2F03
100
AcDbEntity
  8
0
100
AcDbText
 10
74.67809444174623
 20
6.794042209280519
 30
0.0
 40
2.0
  1
絶縁
100
AcDbText
  0
TEXT
  5
2F15
330
2F03
100
AcDbEntity
  8
0
100
AcDbText
 10
86.35319943225727
 20
10.42309999999994
 30
0.0
 40
2.0
  1
連続
100
AcDbText
  0
TEXT
  5
2F16
330
2F03
100
AcDbEntity
  8
0
100
AcDbText
 10
86.35319943225727
 20
6.887599999999963
 30
0.0
 40
2.0
  1
E種
100
AcDbText
  0
TEXT
  5
2F17
330
2F03
100
AcDbEntity
  8
0
100
AcDbText
 10
74.67809444174623
 20
13.86504220928048
 30
0.0
 40
2.0
  1
回転速度
100
AcDbText
  0
TEXT
  5
2F18
330
2F03
100
AcDbEntity
  8
0
100
AcDbText
 10
74.67809444174633
 20
21.02959999999995
 30
0.0
 40
2.0
  1
周波数
100
AcDbText
  0
TEXT
  5
2F19
330
2F03
100
AcDbEntity
  8
0
100
AcDbText
 10
74.67809444174623
 20
17.4005422092805
 30
0.0
 40
2.0
  1
極数
100
AcDbText
  0
TEXT
  5
2F1A
330
2F03
100
AcDbEntity
  8
0
100
AcDbText
 10
74.67809444174623
 20
24.56509999999997
 30
0.0
 40
2.0
  1
電圧
100
AcDbText
  0
TEXT
  5
2F1B
330
2F03
100
AcDbEntity
  8
0
100
AcDbText
 10
86.35319943225727
 20
17.49409999999994
 30
0.0
 40
2.0
  1
4
100
AcDbText
  0
TEXT
  5
2F1C
330
2F03
100
AcDbEntity
  8
0
100
AcDbText
 10
86.35319943225727
 20
31.6361
 30
0.0
 40
2.0
  1
全閉形（コンデンサラン）DS-75
 41
0.95
100
AcDbText
  0
LINE
  5
2F1D
330
2F03
100
AcDbEntity
  8
0
100
AcDbLine
 10
74.0
 20
38.0
 30
0.0
 11
126.0
 21
37.99999999999997
 31
0.0
  0
LINE
  5
2F1E
330
2F03
100
AcDbEntity
  8
0
100
AcDbLine
 10
74.0
 20
30.929
 30
0.0
 11
126.0
 21
30.92899999999994
 31
0.0
  0
LINE
  5
2F1F
330
2F03
100
AcDbEntity
  8
0
100
AcDbLine
 10
74.0
 20
34.46450000000001
 30
0.0
 11
126.0
 21
34.46449999999998
 31
0.0
  0
TEXT
  5
2F20
330
2F03
100
AcDbEntity
  8
0
100
AcDbText
 10
86.35319943225727
 20
35.17159999999998
 30
0.0
 40
2.0
  1
単相誘導電動機
100
AcDbText
  0
TEXT
  5
2F21
330
2F03
100
AcDbEntity
  8
0
100
AcDbText
 10
74.67809444174623
 20
31.6361
 30
0.0
 40
2.0
  1
型式
100
AcDbText
  0
TEXT
  5
2F22
330
2F03
100
AcDbEntity
  8
0
100
AcDbText
 10
74.67809444174623
 20
35.17159999999998
 30
0.0
 40
2.0
  1
名称
100
AcDbText
  0
LINE
  5
2F23
330
2F03
100
AcDbEntity
  8
0
100
AcDbLine
 10
93.80123573807338
 20
40.12129999999999
 30
0.0
 11
106.1987642619266
 21
40.12129999999999
 31
0.0
  0
LINE
  5
2F24
330
2F03
100
AcDbEntity
  8
0
100
AcDbLine
 10
93.80123573807338
 20
39.41419999999999
 30
0.0
 11
106.1987642619266
 21
39.41419999999999
 31
0.0
  0
TEXT
  5
2F25
330
2F03
100
AcDbEntity
  8
0
100
AcDbText
 10
93.99902987649658
 20
40.47485
 30
0.0
 40
2.0
  1
モータ仕様
100
AcDbText
  0
ENDBLK
  5
2F27
330
2F03
100
AcDbEntity
  8
0
100
AcDbBlockEnd
  0
BLOCK
  5
2F4C
330
2F29
100
AcDbEntity
  8
0
100
AcDbBlockBegin
  2
MSPEC_S15W-75
 70
     0
 10
0.0
 20
0.0
 30
0.0
  3
MSPEC_S15W-75
  1

  0
LINE
  5
2F2A
330
2F29
100
AcDbEntity
  8
0
100
AcDbLine
 10
126.0
 20
6.180499999999994
 30
0.0
 11
126.0
 21
37.99999999999997
 31
0.0
  0
TEXT
  5
2F2B
330
2F29
100
AcDbEntity
  8
0
100
AcDbText
 10
86.35319943225727
 20
28.10060000000001
 30
0.0
 40
2.0
  1
15 W
100
AcDbText
  0
TEXT
  5
2F2C
330
2F29
100
AcDbEntity
  8
0
100
AcDbText
 10
74.67809444174623
 20
28.10059999999998
 30
0.0
 40
2.0
  1
出力
100
AcDbText
  0
LINE
  5
2F2D
330
2F29
100
AcDbEntity
  8
0
100
AcDbLine
 10
85.5
 20
6.180499999999994
 30
0.0
 11
85.5
 21
38.0
 31
0.0
  0
LINE
  5
2F2E
330
2F29
100
AcDbEntity
  8
0
100
AcDbLine
 10
73.99999999999998
 20
6.180500000000023
 30
0.0
 11
74.0
 21
38.0
 31
0.0
  0
TEXT
  5
2F2F
330
2F29
100
AcDbEntity
  8
0
100
AcDbText
 10
86.35319943225727
 20
13.95859999999993
 30
0.0
 40
2.0
  1
1500/1800 rpm
100
AcDbText
  0
LINE
  5
2F30
330
2F29
100
AcDbEntity
  8
0
100
AcDbLine
 10
74.0
 20
6.180500000000023
 30
0.0
 11
126.0
 21
6.180499999999994
 31
0.0
  0
LINE
  5
2F31
330
2F29
100
AcDbEntity
  8
0
100
AcDbLine
 10
74.0
 20
9.716000000000008
 30
0.0
 11
126.0
 21
9.715999999999979
 31
0.0
  0
LINE
  5
2F32
330
2F29
100
AcDbEntity
  8
0
100
AcDbLine
 10
74.0
 20
13.25149999999999
 30
0.0
 11
126.0
 21
13.25149999999996
 31
0.0
  0
LINE
  5
2F33
330
2F29
100
AcDbEntity
  8
0
100
AcDbLine
 10
74.0
 20
23.85799999999994
 30
0.0
 11
126.0
 21
23.85799999999992
 31
0.0
  0
LINE
  5
2F34
330
2F29
100
AcDbEntity
  8
0
100
AcDbLine
 10
74.0
 20
16.78699999999997
 30
0.0
 11
126.0
 21
16.78699999999994
 31
0.0
  0
LINE
  5
2F35
330
2F29
100
AcDbEntity
  8
0
100
AcDbLine
 10
74.0
 20
20.32249999999996
 30
0.0
 11
126.0
 21
20.32249999999993
 31
0.0
  0
LINE
  5
2F36
330
2F29
100
AcDbEntity
  8
0
100
AcDbLine
 10
74.0
 20
27.39349999999999
 30
0.0
 11
126.0
 21
27.39349999999996
 31
0.0
  0
TEXT
  5
2F37
330
2F29
100
AcDbEntity
  8
0
100
AcDbText
 10
86.35319943225727
 20
24.56510000000003
 30
0.0
 40
2.0
  1
200 V
100
AcDbText
  0
TEXT
  5
2F38
330
2F29
100
AcDbEntity
  8
0
100
AcDbText
 10
86.35319943225727
 20
21.02959999999995
 30
0.0
 40
2.0
  1
50/60 Hz
100
AcDbText
  0
TEXT
  5
2F39
330
2F29
100
AcDbEntity
  8
0
100
AcDbText
 10
74.67809444174623
 20
10.3295422092805
 30
0.0
 40
2.0
  1
定格
100
AcDbText
  0
TEXT
  5
2F3A
330
2F29
100
AcDbEntity
  8
0
100
AcDbText
 10
74.67809444174623
 20
6.794042209280519
 30
0.0
 40
2.0
  1
絶縁
100
AcDbText
  0
TEXT
  5
2F3B
330
2F29
100
AcDbEntity
  8
0
100
AcDbText
 10
86.35319943225727
 20
10.42309999999994
 30
0.0
 40
2.0
  1
連続
100
AcDbText
  0
TEXT
  5
2F3C
330
2F29
100
AcDbEntity
  8
0
100
AcDbText
 10
86.35319943225727
 20
6.887599999999963
 30
0.0
 40
2.0
  1
E種
100
AcDbText
  0
TEXT
  5
2F3D
330
2F29
100
AcDbEntity
  8
0
100
AcDbText
 10
74.67809444174623
 20
13.86504220928048
 30
0.0
 40
2.0
  1
回転速度
100
AcDbText
  0
TEXT
  5
2F3E
330
2F29
100
AcDbEntity
  8
0
100
AcDbText
 10
74.67809444174633
 20
21.02959999999995
 30
0.0
 40
2.0
  1
周波数
100
AcDbText
  0
TEXT
  5
2F3F
330
2F29
100
AcDbEntity
  8
0
100
AcDbText
 10
74.67809444174623
 20
17.4005422092805
 30
0.0
 40
2.0
  1
極数
100
AcDbText
  0
TEXT
  5
2F40
330
2F29
100
AcDbEntity
  8
0
100
AcDbText
 10
74.67809444174623
 20
24.56509999999997
 30
0.0
 40
2.0
  1
電圧
100
AcDbText
  0
TEXT
  5
2F41
330
2F29
100
AcDbEntity
  8
0
100
AcDbText
 10
86.35319943225727
 20
17.49409999999994
 30
0.0
 40
2.0
  1
4
100
AcDbText
  0
TEXT
  5
2F42
330
2F29
100
AcDbEntity
  8
0
100
AcDbText
 10
86.35319943225727
 20
31.6361
 30
0.0
 40
2.0
  1
全閉形（コンデンサラン）DS-75
 41
0.95
100
AcDbText
  0
LINE
  5
2F43
330
2F29
100
AcDbEntity
  8
0
100
AcDbLine
 10
74.0
 20
38.0
 30
0.0
 11
126.0
 21
37.99999999999997
 31
0.0
  0
LINE
  5
2F44
330
2F29
100
AcDbEntity
  8
0
100
AcDbLine
 10
74.0
 20
30.929
 30
0.0
 11
126.0
 21
30.92899999999994
 31
0.0
  0
LINE
  5
2F45
330
2F29
100
AcDbEntity
  8
0
100
AcDbLine
 10
74.0
 20
34.46450000000001
 30
0.0
 11
126.0
 21
34.46449999999998
 31
0.0
  0
TEXT
  5
2F46
330
2F29
100
AcDbEntity
  8
0
100
AcDbText
 10
86.35319943225727
 20
35.17159999999998
 30
0.0
 40
2.0
  1
単相誘導電動機
100
AcDbText
  0
TEXT
  5
2F47
330
2F29
100
AcDbEntity
  8
0
100
AcDbText
 10
74.67809444174623
 20
31.6361
 30
0.0
 40
2.0
  1
型式
100
AcDbText
  0
TEXT
  5
2F48
330
2F29
100
AcDbEntity
  8
0
100
AcDbText
 10
74.67809444174623
 20
35.17159999999998
 30
0.0
 40
2.0
  1
名称
100
AcDbText
  0
LINE
  5
2F49
330
2F29
100
AcDbEntity
  8
0
100
AcDbLine
 10
93.80123573807338
 20
40.12129999999999
 30
0.0
 11
106.1987642619266
 21
40.12129999999999
 31
0.0
  0
LINE
  5
2F4A
330
2F29
100
AcDbEntity
  8
0
100
AcDbLine
 10
93.80123573807338
 20
39.41419999999999
 30
0.0
 11
106.1987642619266
 21
39.41419999999999
 31
0.0
  0
TEXT
  5
2F4B
330
2F29
100
AcDbEntity
  8
0
100
AcDbText
 10
93.99902987649658
 20
40.47485
 30
0.0
 40
2.0
  1
モータ仕様
100
AcDbText
  0
ENDBLK
  5
2F4D
330
2F29
100
AcDbEntity
  8
0
100
AcDbBlockEnd
  0
BLOCK
  5
2F72
330
2F4F
100
AcDbEntity
  8
0
100
AcDbBlockBegin
  2
MSPEC_S25-75
 70
     0
 10
0.0
 20
0.0
 30
0.0
  3
MSPEC_S25-75
  1

  0
LINE
  5
2F50
330
2F4F
100
AcDbEntity
  8
0
100
AcDbLine
 10
126.0
 20
6.180499999999994
 30
0.0
 11
126.0
 21
37.99999999999997
 31
0.0
  0
TEXT
  5
2F51
330
2F4F
100
AcDbEntity
  8
0
100
AcDbText
 10
86.35319943225727
 20
28.10060000000001
 30
0.0
 40
2.0
  1
25 W
100
AcDbText
  0
TEXT
  5
2F52
330
2F4F
100
AcDbEntity
  8
0
100
AcDbText
 10
74.67809444174623
 20
28.10059999999998
 30
0.0
 40
2.0
  1
出力
100
AcDbText
  0
LINE
  5
2F53
330
2F4F
100
AcDbEntity
  8
0
100
AcDbLine
 10
85.5
 20
6.180499999999994
 30
0.0
 11
85.5
 21
38.0
 31
0.0
  0
LINE
  5
2F54
330
2F4F
100
AcDbEntity
  8
0
100
AcDbLine
 10
73.99999999999998
 20
6.180500000000023
 30
0.0
 11
74.0
 21
38.0
 31
0.0
  0
TEXT
  5
2F55
330
2F4F
100
AcDbEntity
  8
0
100
AcDbText
 10
86.35319943225727
 20
13.95859999999993
 30
0.0
 40
2.0
  1
1500/1800 rpm
100
AcDbText
  0
LINE
  5
2F56
330
2F4F
100
AcDbEntity
  8
0
100
AcDbLine
 10
74.0
 20
6.180500000000023
 30
0.0
 11
126.0
 21
6.180499999999994
 31
0.0
  0
LINE
  5
2F57
330
2F4F
100
AcDbEntity
  8
0
100
AcDbLine
 10
74.0
 20
9.716000000000008
 30
0.0
 11
126.0
 21
9.715999999999979
 31
0.0
  0
LINE
  5
2F58
330
2F4F
100
AcDbEntity
  8
0
100
AcDbLine
 10
74.0
 20
13.25149999999999
 30
0.0
 11
126.0
 21
13.25149999999996
 31
0.0
  0
LINE
  5
2F59
330
2F4F
100
AcDbEntity
  8
0
100
AcDbLine
 10
74.0
 20
23.85799999999994
 30
0.0
 11
126.0
 21
23.85799999999992
 31
0.0
  0
LINE
  5
2F5A
330
2F4F
100
AcDbEntity
  8
0
100
AcDbLine
 10
74.0
 20
16.78699999999997
 30
0.0
 11
126.0
 21
16.78699999999994
 31
0.0
  0
LINE
  5
2F5B
330
2F4F
100
AcDbEntity
  8
0
100
AcDbLine
 10
74.0
 20
20.32249999999996
 30
0.0
 11
126.0
 21
20.32249999999993
 31
0.0
  0
LINE
  5
2F5C
330
2F4F
100
AcDbEntity
  8
0
100
AcDbLine
 10
74.0
 20
27.39349999999999
 30
0.0
 11
126.0
 21
27.39349999999996
 31
0.0
  0
TEXT
  5
2F5D
330
2F4F
100
AcDbEntity
  8
0
100
AcDbText
 10
86.35319943225727
 20
24.56510000000003
 30
0.0
 40
2.0
  1
100 V
100
AcDbText
  0
TEXT
  5
2F5E
330
2F4F
100
AcDbEntity
  8
0
100
AcDbText
 10
86.35319943225727
 20
21.02959999999995
 30
0.0
 40
2.0
  1
50/60 Hz
100
AcDbText
  0
TEXT
  5
2F5F
330
2F4F
100
AcDbEntity
  8
0
100
AcDbText
 10
74.67809444174623
 20
10.3295422092805
 30
0.0
 40
2.0
  1
定格
100
AcDbText
  0
TEXT
  5
2F60
330
2F4F
100
AcDbEntity
  8
0
100
AcDbText
 10
74.67809444174623
 20
6.794042209280519
 30
0.0
 40
2.0
  1
絶縁
100
AcDbText
  0
TEXT
  5
2F61
330
2F4F
100
AcDbEntity
  8
0
100
AcDbText
 10
86.35319943225727
 20
10.42309999999994
 30
0.0
 40
2.0
  1
連続
100
AcDbText
  0
TEXT
  5
2F62
330
2F4F
100
AcDbEntity
  8
0
100
AcDbText
 10
86.35319943225727
 20
6.887599999999963
 30
0.0
 40
2.0
  1
E種
100
AcDbText
  0
TEXT
  5
2F63
330
2F4F
100
AcDbEntity
  8
0
100
AcDbText
 10
74.67809444174623
 20
13.86504220928048
 30
0.0
 40
2.0
  1
回転速度
100
AcDbText
  0
TEXT
  5
2F64
330
2F4F
100
AcDbEntity
  8
0
100
AcDbText
 10
74.67809444174633
 20
21.02959999999995
 30
0.0
 40
2.0
  1
周波数
100
AcDbText
  0
TEXT
  5
2F65
330
2F4F
100
AcDbEntity
  8
0
100
AcDbText
 10
74.67809444174623
 20
17.4005422092805
 30
0.0
 40
2.0
  1
極数
100
AcDbText
  0
TEXT
  5
2F66
330
2F4F
100
AcDbEntity
  8
0
100
AcDbText
 10
74.67809444174623
 20
24.56509999999997
 30
0.0
 40
2.0
  1
電圧
100
AcDbText
  0
TEXT
  5
2F67
330
2F4F
100
AcDbEntity
  8
0
100
AcDbText
 10
86.35319943225727
 20
17.49409999999994
 30
0.0
 40
2.0
  1
4
100
AcDbText
  0
TEXT
  5
2F68
330
2F4F
100
AcDbEntity
  8
0
100
AcDbText
 10
86.35319943225727
 20
31.6361
 30
0.0
 40
2.0
  1
全閉形（コンデンサラン）DS-75
 41
0.95
100
AcDbText
  0
LINE
  5
2F69
330
2F4F
100
AcDbEntity
  8
0
100
AcDbLine
 10
74.0
 20
38.0
 30
0.0
 11
126.0
 21
37.99999999999997
 31
0.0
  0
LINE
  5
2F6A
330
2F4F
100
AcDbEntity
  8
0
100
AcDbLine
 10
74.0
 20
30.929
 30
0.0
 11
126.0
 21
30.92899999999994
 31
0.0
  0
LINE
  5
2F6B
330
2F4F
100
AcDbEntity
  8
0
100
AcDbLine
 10
74.0
 20
34.46450000000001
 30
0.0
 11
126.0
 21
34.46449999999998
 31
0.0
  0
TEXT
  5
2F6C
330
2F4F
100
AcDbEntity
  8
0
100
AcDbText
 10
86.35319943225727
 20
35.17159999999998
 30
0.0
 40
2.0
  1
単相誘導電動機
100
AcDbText
  0
TEXT
  5
2F6D
330
2F4F
100
AcDbEntity
  8
0
100
AcDbText
 10
74.67809444174623
 20
31.6361
 30
0.0
 40
2.0
  1
型式
100
AcDbText
  0
TEXT
  5
2F6E
330
2F4F
100
AcDbEntity
  8
0
100
AcDbText
 10
74.67809444174623
 20
35.17159999999998
 30
0.0
 40
2.0
  1
名称
100
AcDbText
  0
LINE
  5
2F6F
330
2F4F
100
AcDbEntity
  8
0
100
AcDbLine
 10
93.80123573807338
 20
40.12129999999999
 30
0.0
 11
106.1987642619266
 21
40.12129999999999
 31
0.0
  0
LINE
  5
2F70
330
2F4F
100
AcDbEntity
  8
0
100
AcDbLine
 10
93.80123573807338
 20
39.41419999999999
 30
0.0
 11
106.1987642619266
 21
39.41419999999999
 31
0.0
  0
TEXT
  5
2F71
330
2F4F
100
AcDbEntity
  8
0
100
AcDbText
 10
93.99902987649658
 20
40.47485
 30
0.0
 40
2.0
  1
モータ仕様
100
AcDbText
  0
ENDBLK
  5
2F73
330
2F4F
100
AcDbEntity
  8
0
100
AcDbBlockEnd
  0
BLOCK
  5
2F98
330
2F75
100
AcDbEntity
  8
0
100
AcDbBlockBegin
  2
MSPEC_S25W-75
 70
     0
 10
0.0
 20
0.0
 30
0.0
  3
MSPEC_S25W-75
  1

  0
LINE
  5
2F76
330
2F75
100
AcDbEntity
  8
0
100
AcDbLine
 10
126.0
 20
6.180499999999994
 30
0.0
 11
126.0
 21
37.99999999999997
 31
0.0
  0
TEXT
  5
2F77
330
2F75
100
AcDbEntity
  8
0
100
AcDbText
 10
86.35319943225727
 20
28.10060000000001
 30
0.0
 40
2.0
  1
25 W
100
AcDbText
  0
TEXT
  5
2F78
330
2F75
100
AcDbEntity
  8
0
100
AcDbText
 10
74.67809444174623
 20
28.10059999999998
 30
0.0
 40
2.0
  1
出力
100
AcDbText
  0
LINE
  5
2F79
330
2F75
100
AcDbEntity
  8
0
100
AcDbLine
 10
85.5
 20
6.180499999999994
 30
0.0
 11
85.5
 21
38.0
 31
0.0
  0
LINE
  5
2F7A
330
2F75
100
AcDbEntity
  8
0
100
AcDbLine
 10
73.99999999999998
 20
6.180500000000023
 30
0.0
 11
74.0
 21
38.0
 31
0.0
  0
TEXT
  5
2F7B
330
2F75
100
AcDbEntity
  8
0
100
AcDbText
 10
86.35319943225727
 20
13.95859999999993
 30
0.0
 40
2.0
  1
1500/1800 rpm
100
AcDbText
  0
LINE
  5
2F7C
330
2F75
100
AcDbEntity
  8
0
100
AcDbLine
 10
74.0
 20
6.180500000000023
 30
0.0
 11
126.0
 21
6.180499999999994
 31
0.0
  0
LINE
  5
2F7D
330
2F75
100
AcDbEntity
  8
0
100
AcDbLine
 10
74.0
 20
9.716000000000008
 30
0.0
 11
126.0
 21
9.715999999999979
 31
0.0
  0
LINE
  5
2F7E
330
2F75
100
AcDbEntity
  8
0
100
AcDbLine
 10
74.0
 20
13.25149999999999
 30
0.0
 11
126.0
 21
13.25149999999996
 31
0.0
  0
LINE
  5
2F7F
330
2F75
100
AcDbEntity
  8
0
100
AcDbLine
 10
74.0
 20
23.85799999999994
 30
0.0
 11
126.0
 21
23.85799999999992
 31
0.0
  0
LINE
  5
2F80
330
2F75
100
AcDbEntity
  8
0
100
AcDbLine
 10
74.0
 20
16.78699999999997
 30
0.0
 11
126.0
 21
16.78699999999994
 31
0.0
  0
LINE
  5
2F81
330
2F75
100
AcDbEntity
  8
0
100
AcDbLine
 10
74.0
 20
20.32249999999996
 30
0.0
 11
126.0
 21
20.32249999999993
 31
0.0
  0
LINE
  5
2F82
330
2F75
100
AcDbEntity
  8
0
100
AcDbLine
 10
74.0
 20
27.39349999999999
 30
0.0
 11
126.0
 21
27.39349999999996
 31
0.0
  0
TEXT
  5
2F83
330
2F75
100
AcDbEntity
  8
0
100
AcDbText
 10
86.35319943225727
 20
24.56510000000003
 30
0.0
 40
2.0
  1
200 V
100
AcDbText
  0
TEXT
  5
2F84
330
2F75
100
AcDbEntity
  8
0
100
AcDbText
 10
86.35319943225727
 20
21.02959999999995
 30
0.0
 40
2.0
  1
50/60 Hz
100
AcDbText
  0
TEXT
  5
2F85
330
2F75
100
AcDbEntity
  8
0
100
AcDbText
 10
74.67809444174623
 20
10.3295422092805
 30
0.0
 40
2.0
  1
定格
100
AcDbText
  0
TEXT
  5
2F86
330
2F75
100
AcDbEntity
  8
0
100
AcDbText
 10
74.67809444174623
 20
6.794042209280519
 30
0.0
 40
2.0
  1
絶縁
100
AcDbText
  0
TEXT
  5
2F87
330
2F75
100
AcDbEntity
  8
0
100
AcDbText
 10
86.35319943225727
 20
10.42309999999994
 30
0.0
 40
2.0
  1
連続
100
AcDbText
  0
TEXT
  5
2F88
330
2F75
100
AcDbEntity
  8
0
100
AcDbText
 10
86.35319943225727
 20
6.887599999999963
 30
0.0
 40
2.0
  1
E種
100
AcDbText
  0
TEXT
  5
2F89
330
2F75
100
AcDbEntity
  8
0
100
AcDbText
 10
74.67809444174623
 20
13.86504220928048
 30
0.0
 40
2.0
  1
回転速度
100
AcDbText
  0
TEXT
  5
2F8A
330
2F75
100
AcDbEntity
  8
0
100
AcDbText
 10
74.67809444174633
 20
21.02959999999995
 30
0.0
 40
2.0
  1
周波数
100
AcDbText
  0
TEXT
  5
2F8B
330
2F75
100
AcDbEntity
  8
0
100
AcDbText
 10
74.67809444174623
 20
17.4005422092805
 30
0.0
 40
2.0
  1
極数
100
AcDbText
  0
TEXT
  5
2F8C
330
2F75
100
AcDbEntity
  8
0
100
AcDbText
 10
74.67809444174623
 20
24.56509999999997
 30
0.0
 40
2.0
  1
電圧
100
AcDbText
  0
TEXT
  5
2F8D
330
2F75
100
AcDbEntity
  8
0
100
AcDbText
 10
86.35319943225727
 20
17.49409999999994
 30
0.0
 40
2.0
  1
4
100
AcDbText
  0
TEXT
  5
2F8E
330
2F75
100
AcDbEntity
  8
0
100
AcDbText
 10
86.35319943225727
 20
31.6361
 30
0.0
 40
2.0
  1
全閉形（コンデンサラン）DS-75
 41
0.95
100
AcDbText
  0
LINE
  5
2F8F
330
2F75
100
AcDbEntity
  8
0
100
AcDbLine
 10
74.0
 20
38.0
 30
0.0
 11
126.0
 21
37.99999999999997
 31
0.0
  0
LINE
  5
2F90
330
2F75
100
AcDbEntity
  8
0
100
AcDbLine
 10
74.0
 20
30.929
 30
0.0
 11
126.0
 21
30.92899999999994
 31
0.0
  0
LINE
  5
2F91
330
2F75
100
AcDbEntity
  8
0
100
AcDbLine
 10
74.0
 20
34.46450000000001
 30
0.0
 11
126.0
 21
34.46449999999998
 31
0.0
  0
TEXT
  5
2F92
330
2F75
100
AcDbEntity
  8
0
100
AcDbText
 10
86.35319943225727
 20
35.17159999999998
 30
0.0
 40
2.0
  1
単相誘導電動機
100
AcDbText
  0
TEXT
  5
2F93
330
2F75
100
AcDbEntity
  8
0
100
AcDbText
 10
74.67809444174623
 20
31.6361
 30
0.0
 40
2.0
  1
型式
100
AcDbText
  0
TEXT
  5
2F94
330
2F75
100
AcDbEntity
  8
0
100
AcDbText
 10
74.67809444174623
 20
35.17159999999998
 30
0.0
 40
2.0
  1
名称
100
AcDbText
  0
LINE
  5
2F95
330
2F75
100
AcDbEntity
  8
0
100
AcDbLine
 10
93.80123573807338
 20
40.12129999999999
 30
0.0
 11
106.1987642619266
 21
40.12129999999999
 31
0.0
  0
LINE
  5
2F96
330
2F75
100
AcDbEntity
  8
0
100
AcDbLine
 10
93.80123573807338
 20
39.41419999999999
 30
0.0
 11
106.1987642619266
 21
39.41419999999999
 31
0.0
  0
TEXT
  5
2F97
330
2F75
100
AcDbEntity
  8
0
100
AcDbText
 10
93.99902987649658
 20
40.47485
 30
0.0
 40
2.0
  1
モータ仕様
100
AcDbText
  0
ENDBLK
  5
2F99
330
2F75
100
AcDbEntity
  8
0
100
AcDbBlockEnd
  0
ENDSEC
  0
SECTION
  2
ENTITIES
  0
LINE
  5
7DC
330
2
100
AcDbEntity
  8
HIDS
100
AcDbLine
 10
324.5637398237783
 20
172.7722310404773
 30
0.0
 11
344.5637398237784
 21
172.7722310404773
 31
0.0
  0
LINE
  5
7DD
330
2
100
AcDbEntity
  8
HIDS
100
AcDbLine
 10
324.5637398237783
 20
180.7722310404773
 30
0.0
 11
344.5637398237784
 21
180.7722310404773
 31
0.0
  0
LINE
  5
7DE
330
2
100
AcDbEntity
  8
HOJO
100
AcDbLine
 10
324.5637398237783
 20
105.7722310404773
 30
0.0
 11
344.5637398237784
 21
105.7722310404773
 31
0.0
  0
LINE
  5
7DF
330
2
100
AcDbEntity
  8
HOJO
100
AcDbLine
 10
324.5637398237783
 20
113.7722310404773
 30
0.0
 11
344.5637398237784
 21
113.7722310404773
 31
0.0
  0
LINE
  5
7E0
330
2
100
AcDbEntity
  8
0
100
AcDbLine
 10
324.5637398237783
 20
113.1722330404773
 30
0.0
 11
393.0637398237784
 21
113.1722330404773
 31
0.0
  0
LINE
  5
7E1
330
2
100
AcDbEntity
  8
0
100
AcDbLine
 10
324.5637398237783
 20
106.3722290404773
 30
0.0
 11
393.0637398237784
 21
106.3722290404773
 31
0.0
  0
LINE
  5
7E2
330
2
100
AcDbEntity
  8
HIDS
100
AcDbLine
 10
324.5637398237783
 20
173.3722370404773
 30
0.0
 11
393.0637398237784
 21
173.3722370404773
 31
0.0
  0
LINE
  5
7E3
330
2
100
AcDbEntity
  8
HIDS
100
AcDbLine
 10
324.5637398237783
 20
180.1722250404773
 30
0.0
 11
393.0637398237784
 21
180.1722250404773
 31
0.0
  0
LINE
  5
7E4
330
2
100
AcDbEntity
  8
CENTER
100
AcDbLine
 10
309.5587658237784
 20
176.7722310404773
 30
0.0
 11
396.6075018237784
 21
176.7722310404773
 31
0.0
  0
LINE
  5
7E5
330
2
100
AcDbEntity
  8
CENTER
100
AcDbLine
 10
309.5587658237784
 20
109.7722310404773
 30
0.0
 11
396.6075018237784
 21
109.7722310404773
 31
0.0
  0
LINE
  5
7EF
330
2
100
AcDbEntity
  8
HIDS
100
AcDbLine
 10
331.5288278237783
 20
105.6393960404773
 30
0.0
 11
352.5637398237784
 21
105.2722310404773
 31
0.0
  0
LINE
  5
7F0
330
2
100
AcDbEntity
  8
HIDS
100
AcDbLine
 10
331.5288278237783
 20
180.9050590404773
 30
0.0
 11
352.5637398237784
 21
181.2722310404773
 31
0.0
  0
LINE
  5
7F1
330
2
100
AcDbEntity
  8
0
100
AcDbLine
 10
352.5637398237784
 20
102.7722310404773
 30
0.0
 11
312.0637398237783
 21
103.4791630404773
 31
0.0
  0
LINE
  5
7F2
330
2
100
AcDbEntity
  8
0
100
AcDbLine
 10
352.5637398237784
 20
183.7722310404773
 30
0.0
 11
312.0637398237783
 21
183.0653070404773
 31
0.0
  0
LINE
  5
7F3
330
2
100
AcDbEntity
  8
CENTER
100
AcDbLine
 10
295.8251228237784
 20
143.2722310404773
 30
0.0
 11
409.3023568237783
 21
143.2722310404773
 31
0.0
  0
CIRCLE
  5
7F4
330
2
100
AcDbEntity
  8
HOJO
100
AcDbCircle
 10
129.7755659258643
 20
176.7722310404773
 30
0.0
 40
4.0
  0
CIRCLE
  5
7F5
330
2
100
AcDbEntity
  8
0
100
AcDbCircle
 10
129.7755659258643
 20
176.7722310404773
 30
0.0
 40
4.25
  0
CIRCLE
  5
7F6
330
2
100
AcDbEntity
  8
HOJO
100
AcDbCircle
 10
215.7755659258643
 20
176.7722310404773
 30
0.0
 40
4.0
  0
CIRCLE
  5
7F7
330
2
100
AcDbEntity
  8
0
100
AcDbCircle
 10
215.7755659258643
 20
176.7722310404773
 30
0.0
 40
4.25
  0
LINE
  5
7F8
330
2
100
AcDbEntity
  8
0
100
AcDbLine
 10
29.72006192586445
 20
178.2722310404773
 30
0.0
 11
29.72006192586445
 21
108.2722310404773
 31
0.0
  0
LINE
  5
7F9
330
2
100
AcDbEntity
  8
0
100
AcDbLine
 10
29.22006192586446
 20
175.2722310404773
 30
0.0
 11
29.22006192586446
 21
111.2722310404773
 31
0.0
  0
LINE
  5
7FA
330
2
100
AcDbEntity
  8
0
100
AcDbLine
 10
49.72006192586445
 20
181.2722310404773
 30
0.0
 11
49.72006192586445
 21
105.2722310404773
 31
0.0
  0
ARC
  5
7FB
330
2
100
AcDbEntity
  8
0
100
AcDbCircle
 10
124.7755659258643
 20
173.2722310404773
 30
0.0
 40
2.0
100
AcDbArc
 50
180.0
 51
270.0
  0
ARC
  5
7FC
330
2
100
AcDbEntity
  8
0
100
AcDbCircle
 10
220.7755659258643
 20
173.2722310404773
 30
0.0
 40
2.0
100
AcDbArc
 50
270.0
 51
0.0
  0
ARC
  5
7FD
330
2
100
AcDbEntity
  8
0
100
AcDbCircle
 10
144.7755659258643
 20
174.2722310404773
 30
0.0
 40
2.0
100
AcDbArc
 50
319.3987049999997
 51
0.0
  0
LINE
  5
7FE
330
2
100
AcDbEntity
  8
0
100
AcDbLine
 10
136.3742139258644
 20
164.4706410404773
 30
0.0
 11
144.2940749258643
 21
173.7104940404773
 31
0.0
  0
ARC
  5
7FF
330
2
100
AcDbEntity
  8
0
100
AcDbCircle
 10
200.7755659258644
 20
174.2722310404773
 30
0.0
 40
2.0
100
AcDbArc
 50
180.0
 51
220.6012879999999
  0
LINE
  5
800
330
2
100
AcDbEntity
  8
0
100
AcDbLine
 10
209.1769329258643
 20
164.4706410404773
 30
0.0
 11
201.2570419258643
 21
173.7104940404773
 31
0.0
  0
LINE
  5
801
330
2
100
AcDbEntity
  8
CENTER
100
AcDbLine
 10
215.7755659258643
 20
184.7508690404773
 30
0.0
 11
215.7755659258643
 21
168.7935930404773
 31
0.0
  0
LINE
  5
802
330
2
100
AcDbEntity
  8
0
100
AcDbLine
 10
222.7755659258643
 20
109.7722310404773
 30
0.0
 11
222.7755659258643
 21
176.7722310404773
 31
0.0
  0
LINE
  5
804
330
2
100
AcDbEntity
  8
0
100
AcDbLine
 10
122.7755659258643
 20
176.7722310404773
 30
0.0
 11
122.7755659258643
 21
159.6006610404773
 31
0.0
  0
LINE
  5
805
330
2
100
AcDbEntity
  8
CENTER
100
AcDbLine
 10
183.7755659258643
 20
113.1653580404773
 30
0.0
 11
183.7755659258643
 21
173.3791040404773
 31
0.0
  0
LINE
  5
806
330
2
100
AcDbEntity
  8
0
100
AcDbLine
 10
312.0637398237783
 20
183.0653070404773
 30
0.0
 11
312.0637398237783
 21
103.4791630404773
 31
0.0
  0
ARC
  5
807
330
2
100
AcDbEntity
  8
HIDS
100
AcDbCircle
 10
326.5637398237783
 20
174.9739670404773
 30
0.0
 40
3.0
100
AcDbArc
 50
309.3567009999997
 51
0.0
  0
LINE
  5
809
330
2
100
AcDbEntity
  8
0
100
AcDbLine
 10
49.72006192586445
 20
113.0232690404773
 30
0.0
 11
122.7755659258643
 21
113.0232690404773
 31
0.0
  0
LINE
  5
80A
330
2
100
AcDbEntity
  8
0
100
AcDbLine
 10
49.72006192586445
 20
105.2722310404773
 30
0.0
 11
121.4168169258643
 21
105.2722310404773
 31
0.0
  0
LINE
  5
80B
330
2
100
AcDbEntity
  8
CENTER
100
AcDbLine
 10
230.3163369258643
 20
143.2722310404773
 30
0.0
 11
20.69953195763025
 21
143.2722310404773
 31
0.0
  0
TEXT
  5
80C
330
2
100
AcDbEntity
  8
TITLE
100
AcDbText
 10
22.27318266109364
 20
71.43466964194243
 30
0.0
 40
7.0
  1
F2SM-12-10~240-T15T
 41
0.75
100
AcDbText
  0
LINE
  5
80D
330
2
100
AcDbEntity
  8
0
100
AcDbLine
 10
31.30165892586433
 20
113.0232300404773
 30
0.0
 11
49.72006192586445
 21
113.0232300404773
 31
0.0
  0
LINE
  5
80E
330
2
100
AcDbEntity
  8
0
100
AcDbLine
 10
33.18415792586438
 20
105.2722310404773
 30
0.0
 11
49.72006192586445
 21
105.2722310404773
 31
0.0
  0
ARC
  5
80F
330
2
100
AcDbEntity
  8
0
100
AcDbCircle
 10
33.18415792586438
 20
108.2722310404773
 30
0.0
 40
3.0
100
AcDbArc
 50
209.9996030000002
 51
270.0
  0
LINE
  5
810
330
2
100
AcDbEntity
  8
0
100
AcDbLine
 10
30.58605892586433
 20
106.7722310404773
 30
0.0
 11
29.72006192586445
 21
108.2722310404773
 31
0.0
  0
LINE
  5
811
330
2
100
AcDbEntity
  8
0
100
AcDbLine
 10
29.22006192586446
 20
111.2722310404773
 30
0.0
 11
29.72006192586445
 21
110.7722310404773
 31
0.0
  0
CIRCLE
  5
812
330
2
100
AcDbEntity
  8
0
100
AcDbCircle
 10
183.7755659258643
 20
143.2722310404773
 30
0.0
 40
25.002001
  0
CIRCLE
  5
813
330
2
100
AcDbEntity
  8
0
100
AcDbCircle
 10
183.7755659258643
 20
143.2722310404773
 30
0.0
 40
23.0
  0
ARC
  5
814
330
2
100
AcDbEntity
  8
0
100
AcDbCircle
 10
206.9701769258644
 20
100.2084870404774
 30
0.0
 40
6.0
100
AcDbArc
 50
47.3640670000003
 51
120.358299
  0
LINE
  5
815
330
2
100
AcDbEntity
  8
0
100
AcDbLine
 10
208.2570419258643
 20
124.0738210404773
 30
0.0
 11
199.2570569258644
 21
113.5738130404773
 31
0.0
  0
LINE
  5
816
330
2
100
AcDbEntity
  8
0
100
AcDbLine
 10
209.1769329258643
 20
122.0738210404773
 30
0.0
 11
201.2570419258643
 21
112.8339680404773
 31
0.0
  0
LINE
  5
817
330
2
100
AcDbEntity
  8
0
100
AcDbLine
 10
208.2570419258643
 20
162.4706410404773
 30
0.0
 11
199.2570569258644
 21
172.9706410404773
 31
0.0
  0
LINE
  5
818
330
2
100
AcDbEntity
  8
0
100
AcDbLine
 10
129.7755659258643
 20
102.7722310404773
 30
0.0
 11
215.7755659258643
 21
102.7722310404773
 31
0.0
  0
CIRCLE
  5
81A
330
2
100
AcDbEntity
  8
0
100
AcDbCircle
 10
127.2755659258643
 20
119.7722310404773
 30
0.0
 40
3.5
  0
CIRCLE
  5
81B
330
2
100
AcDbEntity
  8
0
100
AcDbCircle
 10
127.2755659258643
 20
119.7722310404773
 30
0.0
 40
3.799999999999999
  0
ARC
  5
81C
330
2
100
AcDbEntity
  8
0
100
AcDbCircle
 10
127.2755659258643
 20
119.7722310404773
 30
0.0
 40
4.5
100
AcDbArc
 50
270.0
 51
90.0
  0
LINE
  5
81D
330
2
100
AcDbEntity
  8
0
100
AcDbLine
 10
137.2940749258643
 20
124.0738210404773
 30
0.0
 11
146.2940749258643
 21
113.5738130404773
 31
0.0
  0
LINE
  5
81E
330
2
100
AcDbEntity
  8
0
100
AcDbLine
 10
136.3742139258644
 20
122.0738210404773
 30
0.0
 11
144.2940749258643
 21
112.8339680404773
 31
0.0
  0
LINE
  5
81F
330
2
100
AcDbEntity
  8
0
100
AcDbLine
 10
122.7755659258643
 20
126.9438010404773
 30
0.0
 11
122.7755659258643
 21
109.7722310404773
 31
0.0
  0
ARC
  5
820
330
2
100
AcDbEntity
  8
0
100
AcDbCircle
 10
146.7755659258643
 20
111.0372380404774
 30
0.0
 40
2.0
100
AcDbArc
 50
180.0
 51
249.5126799999996
  0
LINE
  5
821
330
2
100
AcDbEntity
  8
0
100
AcDbLine
 10
146.6513289258643
 20
112.9661240404773
 30
0.0
 11
144.6513289258643
 21
112.2262720404773
 31
0.0
  0
ARC
  5
822
330
2
100
AcDbEntity
  8
0
100
AcDbCircle
 10
149.1762309258643
 20
112.7722310404773
 30
0.0
 40
10.0
100
AcDbArc
 50
247.6683579999997
 51
270.0
  0
ARC
  5
823
330
2
100
AcDbEntity
  8
0
100
AcDbCircle
 10
129.7755659258643
 20
109.7722310404773
 30
0.0
 40
7.0
100
AcDbArc
 50
180.0
 51
312.6359250000002
  0
CIRCLE
  5
825
330
2
100
AcDbEntity
  8
HOJO
100
AcDbCircle
 10
129.7755659258643
 20
109.7722310404773
 30
0.0
 40
4.0
  0
CIRCLE
  5
826
330
2
100
AcDbEntity
  8
0
100
AcDbCircle
 10
129.7755659258643
 20
109.7722310404773
 30
0.0
 40
4.25
  0
CIRCLE
  5
827
330
2
100
AcDbEntity
  8
0
100
AcDbCircle
 10
129.7755659258643
 20
109.7722310404773
 30
0.0
 40
3.399999999999999
  0
LINE
  5
829
330
2
100
AcDbEntity
  8
0
100
AcDbLine
 10
122.1119459258643
 20
105.1475360404773
 30
0.0
 11
127.3425829258643
 21
103.2086480404773
 31
0.0
  0
ARC
  5
82A
330
2
100
AcDbEntity
  8
0
100
AcDbCircle
 10
121.4168169258643
 20
103.2722310404773
 30
0.0
 40
2.0
100
AcDbArc
 50
69.66126999999999
 51
90.0
  0
ARC
  5
82B
330
2
100
AcDbEntity
  8
0
100
AcDbCircle
 10
124.7755659258643
 20
113.2722310404773
 30
0.0
 40
2.0
100
AcDbArc
 50
90.0
 51
180.0
  0
LINE
  5
82C
330
2
100
AcDbEntity
  8
0
100
AcDbLine
 10
124.7755659258643
 20
115.2722310404773
 30
0.0
 11
127.2755659258643
 21
115.2722310404773
 31
0.0
  0
ARC
  5
82D
330
2
100
AcDbEntity
  8
0
100
AcDbCircle
 10
138.5809549258643
 20
100.2084870404774
 30
0.0
 40
6.0
100
AcDbArc
 50
59.64169699999986
 51
132.6359250000002
  0
ARC
  5
82E
330
2
100
AcDbEntity
  8
0
100
AcDbCircle
 10
156.7755659258643
 20
131.2722310404773
 30
0.0
 40
30.0
100
AcDbArc
 50
239.6417009999999
 51
247.6683579999997
  0
ARC
  5
82F
330
2
100
AcDbEntity
  8
0
100
AcDbCircle
 10
142.7755659258643
 20
111.5323860404773
 30
0.0
 40
2.0
100
AcDbArc
 50
0.0
 51
40.60129500000027
  0
LINE
  5
830
330
2
100
AcDbEntity
  8
0
100
AcDbLine
 10
144.7755659258643
 20
111.5323860404773
 30
0.0
 11
144.7755659258643
 21
111.0372380404774
 31
0.0
  0
LINE
  5
831
330
2
100
AcDbEntity
  8
0
100
AcDbLine
 10
191.7755659258643
 20
107.7722310404773
 30
0.0
 11
153.7755659258643
 21
107.7722310404773
 31
0.0
  0
ARC
  5
832
330
2
100
AcDbEntity
  8
0
100
AcDbCircle
 10
148.7755659258643
 20
110.4073170404773
 30
0.0
 40
2.0
100
AcDbArc
 50
180.0
 51
255.5224909999995
  0
ARC
  5
833
330
2
100
AcDbEntity
  8
0
100
AcDbCircle
 10
153.7755659258643
 20
129.7722310404773
 30
0.0
 40
22.0
100
AcDbArc
 50
249.5126879999996
 51
270.0
  0
ARC
  5
834
330
2
100
AcDbEntity
  8
0
100
AcDbCircle
 10
144.7755659258643
 20
112.2722310404773
 30
0.0
 40
2.0
100
AcDbArc
 50
0.0
 51
40.60129500000027
  0
LINE
  5
835
330
2
100
AcDbEntity
  8
0
100
AcDbLine
 10
146.7755659258643
 20
112.2722310404773
 30
0.0
 11
146.7755659258643
 21
110.4073170404773
 31
0.0
  0
ARC
  5
836
330
2
100
AcDbEntity
  8
0
100
AcDbCircle
 10
196.3749009258643
 20
112.7722310404773
 30
0.0
 40
10.0
100
AcDbArc
 50
270.0
 51
292.3316420000002
  0
ARC
  5
837
330
2
100
AcDbEntity
  8
0
100
AcDbCircle
 10
198.7755659258643
 20
111.0372380404774
 30
0.0
 40
2.0
100
AcDbArc
 50
290.4873120000003
 51
0.0
  0
ARC
  5
838
330
2
100
AcDbEntity
  8
0
100
AcDbCircle
 10
196.7755659258643
 20
110.4073170404773
 30
0.0
 40
2.0
100
AcDbArc
 50
284.4775090000004
 51
0.0
  0
ARC
  5
839
330
2
100
AcDbEntity
  8
0
100
AcDbCircle
 10
191.7755659258643
 20
129.7722310404773
 30
0.0
 40
22.0
100
AcDbArc
 50
270.0
 51
290.4873049999995
  0
ARC
  5
83A
330
2
100
AcDbEntity
  8
0
100
AcDbCircle
 10
188.7755659258644
 20
131.2722310404773
 30
0.0
 40
30.0
100
AcDbArc
 50
292.3316420000002
 51
300.3583030000001
  0
LINE
  5
83B
330
2
100
AcDbEntity
  8
0
100
AcDbLine
 10
198.8998029258643
 20
112.9661240404773
 30
0.0
 11
200.8998029258644
 21
112.2262720404773
 31
0.0
  0
ARC
  5
83C
330
2
100
AcDbEntity
  8
0
100
AcDbCircle
 10
202.7755659258644
 20
111.5323860404773
 30
0.0
 40
2.0
100
AcDbArc
 50
139.398712
 51
180.0
  0
ARC
  5
83D
330
2
100
AcDbEntity
  8
0
100
AcDbCircle
 10
200.7755659258644
 20
112.2722310404773
 30
0.0
 40
2.0
100
AcDbArc
 50
139.398712
 51
180.0
  0
LINE
  5
83E
330
2
100
AcDbEntity
  8
0
100
AcDbLine
 10
198.7755659258643
 20
112.2722310404773
 30
0.0
 11
198.7755659258643
 21
110.4073170404773
 31
0.0
  0
LINE
  5
83F
330
2
100
AcDbEntity
  8
0
100
AcDbLine
 10
200.7755659258644
 20
111.5323860404773
 30
0.0
 11
200.7755659258644
 21
111.0372380404774
 31
0.0
  0
LINE
  5
840
330
2
100
AcDbEntity
  8
0
100
AcDbLine
 10
137.2940749258643
 20
162.4706410404773
 30
0.0
 11
146.2940749258643
 21
172.9706410404773
 31
0.0
  0
LINE
  5
841
330
2
100
AcDbEntity
  8
0
100
AcDbLine
 10
131.7755659258643
 20
156.7722310404773
 30
0.0
 11
131.7755659258643
 21
129.7722310404773
 31
0.0
  0
LINE
  5
842
330
2
100
AcDbEntity
  8
0
100
AcDbLine
 10
126.7755659258643
 20
132.6006610404773
 30
0.0
 11
126.7755659258643
 21
153.9438010404773
 31
0.0
  0
LINE
  5
843
330
2
100
AcDbEntity
  8
0
100
AcDbLine
 10
122.2755659258643
 20
168.9626910404773
 30
0.0
 11
122.2755659258643
 21
117.5817630404773
 31
0.0
  0
LINE
  5
844
330
2
100
AcDbEntity
  8
0
100
AcDbLine
 10
126.1897809258643
 20
131.1864460404773
 30
0.0
 11
123.3613509258643
 21
128.3580160404774
 31
0.0
  0
ARC
  5
846
330
2
100
AcDbEntity
  8
0
100
AcDbCircle
 10
124.7755659258643
 20
126.2722310404773
 30
0.0
 40
2.0
100
AcDbArc
 50
180.0
 51
270.0
  0
LINE
  5
847
330
2
100
AcDbEntity
  8
0
100
AcDbLine
 10
122.2755659258643
 20
117.5817630404773
 30
0.0
 11
122.7755659258643
 21
117.5817630404773
 31
0.0
  0
LINE
  5
848
330
2
100
AcDbEntity
  8
0
100
AcDbLine
 10
127.2755659258643
 20
117.9722430404773
 30
0.0
 11
128.7755659258643
 21
118.8382710404773
 31
0.0
  0
LINE
  5
849
330
2
100
AcDbEntity
  8
0
100
AcDbLine
 10
128.7755659258643
 20
120.7062210404773
 30
0.0
 11
128.7755659258643
 21
118.8382710404773
 31
0.0
  0
LINE
  5
84A
330
2
100
AcDbEntity
  8
0
100
AcDbLine
 10
127.2755659258643
 20
121.5722490404773
 30
0.0
 11
128.7755659258643
 21
120.7062210404773
 31
0.0
  0
LINE
  5
84B
330
2
100
AcDbEntity
  8
0
100
AcDbLine
 10
127.2755659258643
 20
121.5722490404773
 30
0.0
 11
125.7755659258643
 21
120.7062210404773
 31
0.0
  0
LINE
  5
84C
330
2
100
AcDbEntity
  8
0
100
AcDbLine
 10
125.7755659258643
 20
120.7062210404773
 30
0.0
 11
125.7755659258643
 21
118.8382710404773
 31
0.0
  0
LINE
  5
84D
330
2
100
AcDbEntity
  8
0
100
AcDbLine
 10
127.2755659258643
 20
117.9722430404773
 30
0.0
 11
125.7755659258643
 21
118.8382710404773
 31
0.0
  0
ARC
  5
84E
330
2
100
AcDbEntity
  8
0
100
AcDbCircle
 10
124.7755659258643
 20
126.9438010404773
 30
0.0
 40
2.0
100
AcDbArc
 50
135.0
 51
180.0
  0
LINE
  5
84F
330
2
100
AcDbEntity
  8
0
100
AcDbLine
 10
124.7755659258643
 20
124.2722310404773
 30
0.0
 11
127.2755659258643
 21
124.2722310404773
 31
0.0
  0
ARC
  5
850
330
2
100
AcDbEntity
  8
0
100
AcDbCircle
 10
134.4106519258643
 20
124.7722310404773
 30
0.0
 40
2.0
100
AcDbArc
 50
194.4775090000004
 51
270.0
  0
LINE
  5
851
330
2
100
AcDbEntity
  8
0
100
AcDbLine
 10
136.6112749258643
 20
124.5892630404773
 30
0.0
 11
135.6914139258643
 21
122.5892630404773
 31
0.0
  0
LINE
  5
852
330
2
100
AcDbEntity
  8
0
100
AcDbLine
 10
134.8556899258644
 20
122.7722310404773
 30
0.0
 11
134.4106519258643
 21
122.7722310404773
 31
0.0
  0
ARC
  5
853
330
2
100
AcDbEntity
  8
0
100
AcDbCircle
 10
134.8556899258644
 20
120.7722310404773
 30
0.0
 40
2.0
100
AcDbArc
 50
40.60129500000027
 51
90.0
  0
ARC
  5
854
330
2
100
AcDbEntity
  8
0
100
AcDbCircle
 10
153.7755659258643
 20
129.7722310404773
 30
0.0
 40
22.0
100
AcDbArc
 50
180.0
 51
194.4775090000004
  0
ARC
  5
855
330
2
100
AcDbEntity
  8
0
100
AcDbCircle
 10
134.0018389258643
 20
126.7722310404773
 30
0.0
 40
2.0
100
AcDbArc
 50
188.626923
 51
270.0
  0
LINE
  5
856
330
2
100
AcDbEntity
  8
0
100
AcDbLine
 10
135.7755659258643
 20
124.7722310404773
 30
0.0
 11
134.0018389258643
 21
124.7722310404773
 31
0.0
  0
ARC
  5
857
330
2
100
AcDbEntity
  8
0
100
AcDbCircle
 10
135.7755659258643
 20
122.7722310404773
 30
0.0
 40
2.0
100
AcDbArc
 50
40.60129500000027
 51
90.0
  0
ARC
  5
858
330
2
100
AcDbEntity
  8
0
100
AcDbCircle
 10
124.7755659258643
 20
132.6006610404773
 30
0.0
 40
2.0
100
AcDbArc
 50
315.0
 51
0.0
  0
ARC
  5
859
330
2
100
AcDbEntity
  8
0
100
AcDbCircle
 10
153.7755659258643
 20
156.7722310404773
 30
0.0
 40
22.0
100
AcDbArc
 50
165.5224909999995
 51
180.0
  0
ARC
  5
85A
330
2
100
AcDbEntity
  8
0
100
AcDbCircle
 10
124.7755659258643
 20
159.6006610404773
 30
0.0
 40
2.0
100
AcDbArc
 50
180.0
 51
225.0
  0
LINE
  5
85B
330
2
100
AcDbEntity
  8
0
100
AcDbLine
 10
126.1897809258643
 20
155.3580160404774
 30
0.0
 11
123.3613509258643
 21
158.1864460404773
 31
0.0
  0
ARC
  5
85C
330
2
100
AcDbEntity
  8
0
100
AcDbCircle
 10
124.7755659258643
 20
153.9438010404773
 30
0.0
 40
2.0
100
AcDbArc
 50
0.0
 51
45.0
  0
ARC
  5
85E
330
2
100
AcDbEntity
  8
0
100
AcDbCircle
 10
127.2755659258643
 20
166.7722310404773
 30
0.0
 40
4.5
100
AcDbArc
 50
270.0
 51
90.0
  0
CIRCLE
  5
85F
330
2
100
AcDbEntity
  8
0
100
AcDbCircle
 10
127.2755659258643
 20
166.7722310404773
 30
0.0
 40
3.799999999999999
  0
LINE
  5
861
330
2
100
AcDbEntity
  8
0
100
AcDbLine
 10
125.7755659258643
 20
165.8382410404773
 30
0.0
 11
125.7755659258643
 21
167.7061910404773
 31
0.0
  0
LINE
  5
862
330
2
100
AcDbEntity
  8
0
100
AcDbLine
 10
128.7755659258643
 20
165.8382410404773
 30
0.0
 11
128.7755659258643
 21
167.7061910404773
 31
0.0
  0
CIRCLE
  5
863
330
2
100
AcDbEntity
  8
0
100
AcDbCircle
 10
127.2755659258643
 20
166.7722310404773
 30
0.0
 40
3.5
  0
ARC
  5
864
330
2
100
AcDbEntity
  8
0
100
AcDbCircle
 10
124.7755659258643
 20
160.2722310404773
 30
0.0
 40
2.0
100
AcDbArc
 50
90.0
 51
180.0
  0
LINE
  5
865
330
2
100
AcDbEntity
  8
0
100
AcDbLine
 10
124.7755659258643
 20
162.2722310404773
 30
0.0
 11
127.2755659258643
 21
162.2722310404773
 31
0.0
  0
LINE
  5
866
330
2
100
AcDbEntity
  8
0
100
AcDbLine
 10
127.2755659258643
 20
164.9722130404773
 30
0.0
 11
128.7755659258643
 21
165.8382410404773
 31
0.0
  0
LINE
  5
867
330
2
100
AcDbEntity
  8
0
100
AcDbLine
 10
127.2755659258643
 20
164.9722130404773
 30
0.0
 11
125.7755659258643
 21
165.8382410404773
 31
0.0
  0
LINE
  5
868
330
2
100
AcDbEntity
  8
0
100
AcDbLine
 10
122.2755659258643
 20
168.9626910404773
 30
0.0
 11
122.7755659258643
 21
168.9626910404773
 31
0.0
  0
LINE
  5
869
330
2
100
AcDbEntity
  8
0
100
AcDbLine
 10
124.7755659258643
 20
171.2722310404773
 30
0.0
 11
127.2755659258643
 21
171.2722310404773
 31
0.0
  0
LINE
  5
86A
330
2
100
AcDbEntity
  8
0
100
AcDbLine
 10
127.2755659258643
 20
168.5722190404773
 30
0.0
 11
125.7755659258643
 21
167.7061910404773
 31
0.0
  0
LINE
  5
86B
330
2
100
AcDbEntity
  8
0
100
AcDbLine
 10
127.2755659258643
 20
168.5722190404773
 30
0.0
 11
128.7755659258643
 21
167.7061910404773
 31
0.0
  0
ARC
  5
86C
330
2
100
AcDbEntity
  8
0
100
AcDbCircle
 10
134.4106519258643
 20
161.7722310404773
 30
0.0
 40
2.0
100
AcDbArc
 50
90.0
 51
165.5224909999995
  0
ARC
  5
86D
330
2
100
AcDbEntity
  8
0
100
AcDbCircle
 10
134.0018389258643
 20
159.7722310404773
 30
0.0
 40
2.0
100
AcDbArc
 50
90.0
 51
171.3730769999999
  0
LINE
  5
86E
330
2
100
AcDbEntity
  8
0
100
AcDbLine
 10
134.8556899258644
 20
163.7722310404773
 30
0.0
 11
134.4106519258643
 21
163.7722310404773
 31
0.0
  0
LINE
  5
86F
330
2
100
AcDbEntity
  8
0
100
AcDbLine
 10
135.7755659258643
 20
161.7722310404773
 30
0.0
 11
134.0018389258643
 21
161.7722310404773
 31
0.0
  0
LINE
  5
870
330
2
100
AcDbEntity
  8
0
100
AcDbLine
 10
136.6112749258643
 20
161.9551990404773
 30
0.0
 11
135.6914139258643
 21
163.9551990404773
 31
0.0
  0
ARC
  5
871
330
2
100
AcDbEntity
  8
0
100
AcDbCircle
 10
135.7755659258643
 20
163.7722310404773
 30
0.0
 40
2.0
100
AcDbArc
 50
270.0
 51
319.3987049999997
  0
ARC
  5
872
330
2
100
AcDbEntity
  8
0
100
AcDbCircle
 10
134.8556899258644
 20
165.7722310404773
 30
0.0
 40
2.0
100
AcDbArc
 50
270.0
 51
319.3987049999997
  0
ARC
  5
873
330
2
100
AcDbEntity
  8
0
100
AcDbCircle
 10
183.7755659258643
 20
143.2722310404773
 30
0.0
 40
6.0
100
AcDbArc
 50
109.4712219999995
 51
70.52877800000044
  0
CIRCLE
  5
874
330
2
100
AcDbEntity
  8
0
100
AcDbCircle
 10
183.7755659258643
 20
143.2722310404773
 30
0.0
 40
10.0
  0
CIRCLE
  5
875
330
2
100
AcDbEntity
  8
0
100
AcDbCircle
 10
183.7755659258643
 20
143.2722310404773
 30
0.0
 40
16.0
  0
CIRCLE
  5
876
330
2
100
AcDbEntity
  8
0
100
AcDbCircle
 10
183.7755659258643
 20
143.2722310404773
 30
0.0
 40
19.5
  0
LINE
  5
877
330
2
100
AcDbEntity
  8
0
100
AcDbLine
 10
181.7755659258643
 20
151.0722340404773
 30
0.0
 11
185.7755659258643
 21
151.0722340404773
 31
0.0
  0
LINE
  5
878
330
2
100
AcDbEntity
  8
0
100
AcDbLine
 10
181.7755659258643
 20
151.0722340404773
 30
0.0
 11
181.7755659258643
 21
148.9290910404774
 31
0.0
  0
LINE
  5
879
330
2
100
AcDbEntity
  8
0
100
AcDbLine
 10
185.7755659258643
 20
151.0722340404773
 30
0.0
 11
185.7755659258643
 21
148.9290910404774
 31
0.0
  0
LINE
  5
87D
330
2
100
AcDbEntity
  8
0
100
AcDbLine
 10
324.5637398237783
 20
103.2609700404773
 30
0.0
 11
324.5637398237783
 21
183.2834934602304
 31
0.0
  0
ARC
  5
87F
330
2
100
AcDbEntity
  8
0
100
AcDbCircle
 10
218.2755659258643
 20
119.7722310404773
 30
0.0
 40
4.5
100
AcDbArc
 50
90.0
 51
270.0
  0
CIRCLE
  5
881
330
2
100
AcDbEntity
  8
0
100
AcDbCircle
 10
218.2755659258643
 20
119.7722310404773
 30
0.0
 40
3.5
  0
CIRCLE
  5
882
330
2
100
AcDbEntity
  8
0
100
AcDbCircle
 10
218.2755659258643
 20
119.7722310404773
 30
0.0
 40
3.799999999999999
  0
ARC
  5
883
330
2
100
AcDbEntity
  8
HIDS
100
AcDbCircle
 10
352.5637398237784
 20
143.2722310404773
 30
0.0
 40
38.0
100
AcDbArc
 50
129.356705
 51
230.6432949999999
  0
ARC
  5
884
330
2
100
AcDbEntity
  8
0
100
AcDbCircle
 10
215.7755659258643
 20
109.7722310404773
 30
0.0
 40
7.0
100
AcDbArc
 50
227.3640749999997
 51
0.0
  0
CIRCLE
  5
886
330
2
100
AcDbEntity
  8
0
100
AcDbCircle
 10
215.7755659258643
 20
109.7722310404773
 30
0.0
 40
4.25
  0
LINE
  5
887
330
2
100
AcDbEntity
  8
0
100
AcDbLine
 10
220.7755659258643
 20
115.2722310404773
 30
0.0
 11
218.2755659258643
 21
115.2722310404773
 31
0.0
  0
CIRCLE
  5
889
330
2
100
AcDbEntity
  8
HOJO
100
AcDbCircle
 10
215.7755659258643
 20
109.7722310404773
 30
0.0
 40
4.0
  0
CIRCLE
  5
88A
330
2
100
AcDbEntity
  8
0
100
AcDbCircle
 10
215.7755659258643
 20
109.7722310404773
 30
0.0
 40
3.399999999999999
  0
ARC
  5
88B
330
2
100
AcDbEntity
  8
0
100
AcDbCircle
 10
220.7755659258643
 20
113.2722310404773
 30
0.0
 40
2.0
100
AcDbArc
 50
0.0
 51
90.0
  0
LINE
  5
88D
330
2
100
AcDbEntity
  8
0
100
AcDbLine
 10
312.0637398237783
 20
105.5222310404773
 30
0.0
 11
324.5637398237783
 21
105.5222310404773
 31
0.0
  0
LINE
  5
88E
330
2
100
AcDbEntity
  8
0
100
AcDbLine
 10
312.0637398237783
 20
114.0222310404773
 30
0.0
 11
324.5637398237783
 21
114.0222310404773
 31
0.0
  0
LINE
  5
894
330
2
100
AcDbEntity
  8
HIDS
100
AcDbLine
 10
329.5637398237784
 20
107.6390900404773
 30
0.0
 11
329.5637398237784
 21
111.5704950404773
 31
0.0
  0
ARC
  5
895
330
2
100
AcDbEntity
  8
HIDS
100
AcDbCircle
 10
331.5637398237784
 20
107.6390900404773
 30
0.0
 40
2.0
100
AcDbArc
 50
180.0
 51
268.9999999999998
  0
ARC
  5
89B
330
2
100
AcDbEntity
  8
HIDS
100
AcDbCircle
 10
326.5637398237783
 20
111.5704950404773
 30
0.0
 40
3.0
100
AcDbArc
 50
0.0
 51
50.64329900000029
  0
LINE
  5
89C
330
2
100
AcDbEntity
  8
0
100
AcDbLine
 10
213.7755659258643
 20
156.7722310404773
 30
0.0
 11
213.7755659258643
 21
129.7722310404773
 31
0.0
  0
LINE
  5
89D
330
2
100
AcDbEntity
  8
0
100
AcDbLine
 10
218.7755659258643
 20
132.6006610404773
 30
0.0
 11
218.7755659258643
 21
153.9438010404773
 31
0.0
  0
LINE
  5
89E
330
2
100
AcDbEntity
  8
0
100
AcDbLine
 10
219.3613509258643
 20
131.1864460404773
 30
0.0
 11
222.1897809258643
 21
128.3580160404774
 31
0.0
  0
LINE
  5
89F
330
2
100
AcDbEntity
  8
0
100
AcDbLine
 10
220.7755659258643
 20
124.2722310404773
 30
0.0
 11
218.2755659258643
 21
124.2722310404773
 31
0.0
  0
ARC
  5
8A1
330
2
100
AcDbEntity
  8
0
100
AcDbCircle
 10
211.1404949258644
 20
124.7722310404773
 30
0.0
 40
2.0
100
AcDbArc
 50
270.0
 51
345.5224909999996
  0
LINE
  5
8A2
330
2
100
AcDbEntity
  8
0
100
AcDbLine
 10
208.9398419258643
 20
124.5892630404773
 30
0.0
 11
209.8597329258643
 21
122.5892630404773
 31
0.0
  0
LINE
  5
8A3
330
2
100
AcDbEntity
  8
0
100
AcDbLine
 10
210.6954269258643
 20
122.7722310404773
 30
0.0
 11
211.1404949258644
 21
122.7722310404773
 31
0.0
  0
ARC
  5
8A4
330
2
100
AcDbEntity
  8
0
100
AcDbCircle
 10
210.6954269258643
 20
120.7722310404773
 30
0.0
 40
2.0
100
AcDbArc
 50
90.0
 51
139.398712
  0
LINE
  5
8A5
330
2
100
AcDbEntity
  8
0
100
AcDbLine
 10
218.2755659258643
 20
121.5722490404773
 30
0.0
 11
216.7755659258643
 21
120.7062210404773
 31
0.0
  0
LINE
  5
8A6
330
2
100
AcDbEntity
  8
0
100
AcDbLine
 10
218.2755659258643
 20
121.5722490404773
 30
0.0
 11
219.7755659258644
 21
120.7062210404773
 31
0.0
  0
LINE
  5
8A7
330
2
100
AcDbEntity
  8
0
100
AcDbLine
 10
218.2755659258643
 20
117.9722430404773
 30
0.0
 11
219.7755659258644
 21
118.8382710404773
 31
0.0
  0
LINE
  5
8A8
330
2
100
AcDbEntity
  8
0
100
AcDbLine
 10
218.2755659258643
 20
117.9722430404773
 30
0.0
 11
216.7755659258643
 21
118.8382710404773
 31
0.0
  0
LINE
  5
8A9
330
2
100
AcDbEntity
  8
0
100
AcDbLine
 10
219.7755659258644
 20
120.7062210404773
 30
0.0
 11
219.7755659258644
 21
118.8382710404773
 31
0.0
  0
LINE
  5
8AA
330
2
100
AcDbEntity
  8
0
100
AcDbLine
 10
216.7755659258643
 20
120.7062210404773
 30
0.0
 11
216.7755659258643
 21
118.8382710404773
 31
0.0
  0
ARC
  5
8AB
330
2
100
AcDbEntity
  8
0
100
AcDbCircle
 10
211.5492779258643
 20
126.7722310404773
 30
0.0
 40
2.0
100
AcDbArc
 50
270.0
 51
351.373077
  0
LINE
  5
8AC
330
2
100
AcDbEntity
  8
0
100
AcDbLine
 10
209.7755659258643
 20
124.7722310404773
 30
0.0
 11
211.5492779258643
 21
124.7722310404773
 31
0.0
  0
ARC
  5
8AD
330
2
100
AcDbEntity
  8
0
100
AcDbCircle
 10
209.7755659258643
 20
122.7722310404773
 30
0.0
 40
2.0
100
AcDbArc
 50
90.0
 51
139.398712
  0
ARC
  5
8AE
330
2
100
AcDbEntity
  8
0
100
AcDbCircle
 10
191.7755659258643
 20
129.7722310404773
 30
0.0
 40
22.0
100
AcDbArc
 50
345.5224880000002
 51
0.0
  0
ARC
  5
8AF
330
2
100
AcDbEntity
  8
0
100
AcDbCircle
 10
220.7755659258643
 20
126.2722310404773
 30
0.0
 40
2.0
100
AcDbArc
 50
270.0
 51
0.0
  0
ARC
  5
8B0
330
2
100
AcDbEntity
  8
0
100
AcDbCircle
 10
220.7755659258643
 20
126.9438010404773
 30
0.0
 40
2.0
100
AcDbArc
 50
0.0
 51
45.0
  0
ARC
  5
8B1
330
2
100
AcDbEntity
  8
0
100
AcDbCircle
 10
220.7755659258643
 20
132.6006610404773
 30
0.0
 40
2.0
100
AcDbArc
 50
180.0
 51
225.0
  0
ARC
  5
8B2
330
2
100
AcDbEntity
  8
0
100
AcDbCircle
 10
191.7755659258643
 20
156.7722310404773
 30
0.0
 40
22.0
100
AcDbArc
 50
0.0
 51
14.47751199999975
  0
ARC
  5
8B3
330
2
100
AcDbEntity
  8
0
100
AcDbCircle
 10
220.7755659258643
 20
159.6006610404773
 30
0.0
 40
2.0
100
AcDbArc
 50
315.0
 51
0.0
  0
LINE
  5
8B4
330
2
100
AcDbEntity
  8
0
100
AcDbLine
 10
219.3613509258643
 20
155.3580160404774
 30
0.0
 11
222.1897809258643
 21
158.1864460404773
 31
0.0
  0
ARC
  5
8B5
330
2
100
AcDbEntity
  8
0
100
AcDbCircle
 10
220.7755659258643
 20
153.9438010404773
 30
0.0
 40
2.0
100
AcDbArc
 50
135.0
 51
180.0
  0
LINE
  5
8B6
330
2
100
AcDbEntity
  8
CENTER
100
AcDbLine
 10
212.7032239258644
 20
166.7722310404773
 30
0.0
 11
223.8479079258643
 21
166.7722310404773
 31
0.0
  0
LINE
  5
8B7
330
2
100
AcDbEntity
  8
0
100
AcDbLine
 10
220.7755659258643
 20
162.2722310404773
 30
0.0
 11
218.2755659258643
 21
162.2722310404773
 31
0.0
  0
LINE
  5
8B8
330
2
100
AcDbEntity
  8
0
100
AcDbLine
 10
220.7755659258643
 20
171.2722310404773
 30
0.0
 11
218.2755659258643
 21
171.2722310404773
 31
0.0
  0
CIRCLE
  5
8B9
330
2
100
AcDbEntity
  8
0
100
AcDbCircle
 10
218.2755659258643
 20
166.7722310404773
 30
0.0
 40
3.5
  0
CIRCLE
  5
8BA
330
2
100
AcDbEntity
  8
0
100
AcDbCircle
 10
218.2755659258643
 20
166.7722310404773
 30
0.0
 40
3.799999999999999
  0
ARC
  5
8BB
330
2
100
AcDbEntity
  8
0
100
AcDbCircle
 10
218.2755659258643
 20
166.7722310404773
 30
0.0
 40
4.5
100
AcDbArc
 50
90.0
 51
270.0
  0
LINE
  5
8BC
330
2
100
AcDbEntity
  8
CENTER
100
AcDbLine
 10
218.2755659258643
 20
161.1998890404773
 30
0.0
 11
218.2755659258643
 21
172.3445730404773
 31
0.0
  0
LINE
  5
8BD
330
2
100
AcDbEntity
  8
0
100
AcDbLine
 10
219.7755659258644
 20
165.8382410404773
 30
0.0
 11
219.7755659258644
 21
167.7061910404773
 31
0.0
  0
LINE
  5
8BE
330
2
100
AcDbEntity
  8
0
100
AcDbLine
 10
216.7755659258643
 20
165.8382410404773
 30
0.0
 11
216.7755659258643
 21
167.7061910404773
 31
0.0
  0
ARC
  5
8BF
330
2
100
AcDbEntity
  8
0
100
AcDbCircle
 10
211.1404949258644
 20
161.7722310404773
 30
0.0
 40
2.0
100
AcDbArc
 50
14.47751199999975
 51
90.0
  0
ARC
  5
8C0
330
2
100
AcDbEntity
  8
0
100
AcDbCircle
 10
211.5492779258643
 20
159.7722310404773
 30
0.0
 40
2.0
100
AcDbArc
 50
8.62692699999976
 51
90.0
  0
LINE
  5
8C1
330
2
100
AcDbEntity
  8
0
100
AcDbLine
 10
210.6954269258643
 20
163.7722310404773
 30
0.0
 11
211.1404949258644
 21
163.7722310404773
 31
0.0
  0
LINE
  5
8C2
330
2
100
AcDbEntity
  8
0
100
AcDbLine
 10
209.7755659258643
 20
161.7722310404773
 30
0.0
 11
211.5492779258643
 21
161.7722310404773
 31
0.0
  0
LINE
  5
8C3
330
2
100
AcDbEntity
  8
0
100
AcDbLine
 10
208.9398419258643
 20
161.9551990404773
 30
0.0
 11
209.8597329258643
 21
163.9551990404773
 31
0.0
  0
ARC
  5
8C4
330
2
100
AcDbEntity
  8
0
100
AcDbCircle
 10
209.7755659258643
 20
163.7722310404773
 30
0.0
 40
2.0
100
AcDbArc
 50
220.6012879999999
 51
270.0
  0
ARC
  5
8C5
330
2
100
AcDbEntity
  8
0
100
AcDbCircle
 10
210.6954269258643
 20
165.7722310404773
 30
0.0
 40
2.0
100
AcDbArc
 50
220.6012879999999
 51
270.0
  0
LINE
  5
8C6
330
2
100
AcDbEntity
  8
0
100
AcDbLine
 10
218.2755659258643
 20
164.9722130404773
 30
0.0
 11
216.7755659258643
 21
165.8382410404773
 31
0.0
  0
LINE
  5
8C7
330
2
100
AcDbEntity
  8
0
100
AcDbLine
 10
218.2755659258643
 20
164.9722130404773
 30
0.0
 11
219.7755659258644
 21
165.8382410404773
 31
0.0
  0
LINE
  5
8C8
330
2
100
AcDbEntity
  8
0
100
AcDbLine
 10
218.2755659258643
 20
168.5722190404773
 30
0.0
 11
219.7755659258644
 21
167.7061910404773
 31
0.0
  0
LINE
  5
8C9
330
2
100
AcDbEntity
  8
0
100
AcDbLine
 10
218.2755659258643
 20
168.5722190404773
 30
0.0
 11
216.7755659258643
 21
167.7061910404773
 31
0.0
  0
ARC
  5
8CA
330
2
100
AcDbEntity
  8
0
100
AcDbCircle
 10
220.7755659258643
 20
160.2722310404773
 30
0.0
 40
2.0
100
AcDbArc
 50
0.0
 51
90.0
  0
LINE
  5
8CB
330
2
100
AcDbEntity
  8
PHAS
  6
SEKKEI_P_S
100
AcDbLine
 10
301.5637398237783
 20
156.2483360404774
 30
0.0
 11
301.5637398237783
 21
130.3592060404773
 31
0.0
  0
ARC
  5
8D2
330
2
100
AcDbEntity
  8
PHAS
  6
SEKKEI_P_S
100
AcDbCircle
 10
304.5637398237784
 20
130.2961260404773
 30
0.0
 40
3.0
100
AcDbArc
 50
180.0
 51
254.9999999999996
  0
LINE
  5
8DE
330
2
100
AcDbEntity
  8
PHAS
  6
SEKKEI_P_S
100
AcDbLine
 10
303.7872808237784
 20
127.3983450404773
 30
0.0
 11
312.0637398237783
 21
125.1806745317318
 31
0.0
  0
ARC
  5
8ED
330
2
100
AcDbEntity
  8
PHAS
  6
SEKKEI_P_S
100
AcDbCircle
 10
304.5637398237784
 20
156.2483360404774
 30
0.0
 40
3.0
100
AcDbArc
 50
105.0000000000003
 51
180.0
  0
LINE
  5
8EE
330
2
100
AcDbEntity
  8
PHAS
  6
SEKKEI_P_S
100
AcDbLine
 10
303.7872808237784
 20
159.1461170404773
 30
0.0
 11
312.0637398237783
 21
161.3637875492229
 31
0.0
  0
LINE
  5
8FC
330
2
100
AcDbEntity
  8
HIDS
  6
SEKKEI_H
100
AcDbLine
 10
312.0637398237783
 20
172.5222310404773
 30
0.0
 11
324.5637398237783
 21
172.5222310404773
 31
0.0
  0
LINE
  5
918
330
2
100
AcDbEntity
  8
0
100
AcDbLine
 10
49.72006192586445
 20
173.5211930404773
 30
0.0
 11
122.7755659258643
 21
173.5211930404773
 31
0.0
  0
LINE
  5
919
330
2
100
AcDbEntity
  8
0
100
AcDbLine
 10
49.72006192586445
 20
181.2722310404773
 30
0.0
 11
121.4168169258643
 21
181.2722310404773
 31
0.0
  0
LINE
  5
91E
330
2
100
AcDbEntity
  8
0
100
AcDbLine
 10
31.30165892586433
 20
173.5212240404773
 30
0.0
 11
49.72006192586445
 21
173.5212240404773
 31
0.0
  0
LINE
  5
91F
330
2
100
AcDbEntity
  8
0
100
AcDbLine
 10
33.18415792586438
 20
181.2722310404773
 30
0.0
 11
49.72006192586445
 21
181.2722310404773
 31
0.0
  0
ARC
  5
920
330
2
100
AcDbEntity
  8
0
100
AcDbCircle
 10
33.18415792586438
 20
178.2722460404773
 30
0.0
 40
3.0
100
AcDbArc
 50
90.0
 51
150.0003969999997
  0
LINE
  5
921
330
2
100
AcDbEntity
  8
0
100
AcDbLine
 10
30.58605892586433
 20
179.7722160404773
 30
0.0
 11
29.72006192586445
 21
178.2722310404773
 31
0.0
  0
LINE
  5
922
330
2
100
AcDbEntity
  8
0
100
AcDbLine
 10
29.22006192586446
 20
175.2722310404773
 30
0.0
 11
29.72006192586445
 21
175.7722310404773
 31
0.0
  0
ARC
  5
92A
330
2
100
AcDbEntity
  8
0
100
AcDbCircle
 10
206.9701769258644
 20
186.3359670404773
 30
0.0
 40
6.0
100
AcDbArc
 50
239.6417009999999
 51
312.6359329999997
  0
LINE
  5
92B
330
2
100
AcDbEntity
  8
0
100
AcDbLine
 10
129.7755659258643
 20
183.7722310404773
 30
0.0
 11
215.7755659258643
 21
183.7722310404773
 31
0.0
  0
ARC
  5
92C
330
2
100
AcDbEntity
  8
0
100
AcDbCircle
 10
146.7755659258643
 20
175.5072320404774
 30
0.0
 40
2.0
100
AcDbArc
 50
110.4873120000003
 51
180.0
  0
LINE
  5
92D
330
2
100
AcDbEntity
  8
0
100
AcDbLine
 10
146.6513289258643
 20
173.5783380404773
 30
0.0
 11
144.6513289258643
 21
174.3181900404773
 31
0.0
  0
ARC
  5
92E
330
2
100
AcDbEntity
  8
0
100
AcDbCircle
 10
149.1762309258643
 20
173.7722310404773
 30
0.0
 40
10.0
100
AcDbArc
 50
90.0
 51
112.3316420000001
  0
CIRCLE
  5
92F
330
2
100
AcDbEntity
  8
0
100
AcDbCircle
 10
129.7755659258643
 20
176.7722310404773
 30
0.0
 40
3.399999999999999
  0
ARC
  5
930
330
2
100
AcDbEntity
  8
0
100
AcDbCircle
 10
129.7755659258643
 20
176.7722310404773
 30
0.0
 40
7.0
100
AcDbArc
 50
47.3640670000003
 51
180.0
  0
LINE
  5
932
330
2
100
AcDbEntity
  8
0
100
AcDbLine
 10
122.1119459258643
 20
181.3969260404773
 30
0.0
 11
127.3425829258643
 21
183.3358140404773
 31
0.0
  0
ARC
  5
933
330
2
100
AcDbEntity
  8
0
100
AcDbCircle
 10
121.4168169258643
 20
183.2722310404773
 30
0.0
 40
2.0
100
AcDbArc
 50
270.0
 51
290.3387299999999
  0
ARC
  5
934
330
2
100
AcDbEntity
  8
0
100
AcDbCircle
 10
138.5809549258643
 20
186.3359670404773
 30
0.0
 40
6.0
100
AcDbArc
 50
227.3640749999997
 51
300.3583030000001
  0
ARC
  5
935
330
2
100
AcDbEntity
  8
0
100
AcDbCircle
 10
142.7755659258643
 20
175.0120840404773
 30
0.0
 40
2.0
100
AcDbArc
 50
319.3987049999997
 51
0.0
  0
LINE
  5
936
330
2
100
AcDbEntity
  8
0
100
AcDbLine
 10
144.7755659258643
 20
175.0120840404773
 30
0.0
 11
144.7755659258643
 21
175.5072320404774
 31
0.0
  0
ARC
  5
937
330
2
100
AcDbEntity
  8
0
100
AcDbCircle
 10
156.7755659258643
 20
155.2722310404773
 30
0.0
 40
30.0
100
AcDbArc
 50
112.3316420000001
 51
120.358299
  0
LINE
  5
938
330
2
100
AcDbEntity
  8
0
100
AcDbLine
 10
191.7755659258643
 20
178.7722310404773
 30
0.0
 11
153.7755659258643
 21
178.7722310404773
 31
0.0
  0
ARC
  5
939
330
2
100
AcDbEntity
  8
0
100
AcDbCircle
 10
153.7755659258643
 20
156.7722310404773
 30
0.0
 40
22.0
100
AcDbArc
 50
90.0
 51
110.4873120000003
  0
ARC
  5
93A
330
2
100
AcDbEntity
  8
0
100
AcDbCircle
 10
148.7755659258643
 20
176.1371450404773
 30
0.0
 40
2.0
100
AcDbArc
 50
104.4775090000004
 51
180.0
  0
LINE
  5
93B
330
2
100
AcDbEntity
  8
0
100
AcDbLine
 10
146.7755659258643
 20
174.2722310404773
 30
0.0
 11
146.7755659258643
 21
176.1371450404773
 31
0.0
  0
ARC
  5
93C
330
2
100
AcDbEntity
  8
0
100
AcDbCircle
 10
196.7755659258643
 20
176.1371450404773
 30
0.0
 40
2.0
100
AcDbArc
 50
0.0
 51
75.52249099999959
  0
ARC
  5
93D
330
2
100
AcDbEntity
  8
0
100
AcDbCircle
 10
191.7755659258643
 20
156.7722310404773
 30
0.0
 40
22.0
100
AcDbArc
 50
69.51268799999965
 51
90.0
  0
ARC
  5
93E
330
2
100
AcDbEntity
  8
0
100
AcDbCircle
 10
198.7755659258643
 20
175.5072320404774
 30
0.0
 40
2.0
100
AcDbArc
 50
0.0
 51
69.51268799999965
  0
LINE
  5
93F
330
2
100
AcDbEntity
  8
0
100
AcDbLine
 10
198.8998029258643
 20
173.5783380404773
 30
0.0
 11
200.8998029258644
 21
174.3181900404773
 31
0.0
  0
ARC
  5
940
330
2
100
AcDbEntity
  8
0
100
AcDbCircle
 10
202.7755659258644
 20
175.0120840404773
 30
0.0
 40
2.0
100
AcDbArc
 50
180.0
 51
220.6012879999999
  0
LINE
  5
941
330
2
100
AcDbEntity
  8
0
100
AcDbLine
 10
198.7755659258643
 20
174.2722310404773
 30
0.0
 11
198.7755659258643
 21
176.1371450404773
 31
0.0
  0
LINE
  5
942
330
2
100
AcDbEntity
  8
0
100
AcDbLine
 10
200.7755659258644
 20
175.0120840404773
 30
0.0
 11
200.7755659258644
 21
175.5072320404774
 31
0.0
  0
ARC
  5
943
330
2
100
AcDbEntity
  8
0
100
AcDbCircle
 10
196.3749009258643
 20
173.7722310404773
 30
0.0
 40
10.0
100
AcDbArc
 50
67.66835799999981
 51
90.0
  0
ARC
  5
944
330
2
100
AcDbEntity
  8
0
100
AcDbCircle
 10
188.7755659258644
 20
155.2722310404773
 30
0.0
 40
30.0
100
AcDbArc
 50
59.64169699999986
 51
67.66835799999981
  0
ARC
  5
945
330
2
100
AcDbEntity
  8
0
100
AcDbCircle
 10
215.7755659258643
 20
176.7722310404773
 30
0.0
 40
7.0
100
AcDbArc
 50
0.0
 51
132.6359250000002
  0
LINE
  5
946
330
2
100
AcDbEntity
  8
CENTER
100
AcDbLine
 10
223.7542039258644
 20
176.7722310404773
 30
0.0
 11
207.7969279258643
 21
176.7722310404773
 31
0.0
  0
CIRCLE
  5
947
330
2
100
AcDbEntity
  8
0
100
AcDbCircle
 10
215.7755659258643
 20
176.7722310404773
 30
0.0
 40
3.399999999999999
  0
LINE
  5
948
330
2
100
AcDbEntity
  8
HIDS
  6
SEKKEI_H
100
AcDbLine
 10
312.0637398237783
 20
181.0222310404773
 30
0.0
 11
324.5637398237783
 21
181.0222310404773
 31
0.0
  0
ARC
  5
949
330
2
100
AcDbEntity
  8
HIDS
100
AcDbCircle
 10
331.5637398237784
 20
178.9053640404773
 30
0.0
 40
2.0
100
AcDbArc
 50
91.00000000000013
 51
180.0
  0
LINE
  5
94A
330
2
100
AcDbEntity
  8
HIDS
100
AcDbLine
 10
329.5637398237784
 20
178.9053640404773
 30
0.0
 11
329.5637398237784
 21
174.9739670404773
 31
0.0
  0
CIRCLE
  5
94B
330
2
100
AcDbEntity
  8
HOJO
100
AcDbCircle
 10
633.4465097754348
 20
176.7722310404773
 30
0.0
 40
4.0
  0
CIRCLE
  5
94C
330
2
100
AcDbEntity
  8
HOJO
100
AcDbCircle
 10
547.4465097754348
 20
176.7722310404773
 30
0.0
 40
4.0
  0
LINE
  5
94D
330
2
100
AcDbEntity
  8
HIDS
100
AcDbLine
 10
360.5637398237784
 20
180.7722310404773
 30
0.0
 11
360.5637398237784
 21
172.7722310404773
 31
0.0
  0
LINE
  5
94E
330
2
100
AcDbEntity
  8
HIDS
100
AcDbLine
 10
344.5637398237784
 20
180.7722310404773
 30
0.0
 11
344.5637398237784
 21
172.7722310404773
 31
0.0
  0
LINE
  5
94F
330
2
100
AcDbEntity
  8
0
100
AcDbLine
 10
733.5019907754348
 20
178.2722310404773
 30
0.0
 11
733.5019907754348
 21
108.2722310404773
 31
0.0
  0
LINE
  5
950
330
2
100
AcDbEntity
  8
0
100
AcDbLine
 10
734.0019907754347
 20
175.2722310404773
 30
0.0
 11
734.0019907754347
 21
111.2722310404773
 31
0.0
  0
LINE
  5
951
330
2
100
AcDbEntity
  8
0
100
AcDbLine
 10
713.5019907754347
 20
181.2722310404773
 30
0.0
 11
713.5019907754347
 21
105.2722310404773
 31
0.0
  0
ARC
  5
952
330
2
100
AcDbEntity
  8
0
100
AcDbCircle
 10
618.4465097754348
 20
174.2722310404773
 30
0.0
 40
2.0
100
AcDbArc
 50
180.0
 51
220.6012879999999
  0
LINE
  5
953
330
2
100
AcDbEntity
  8
0
100
AcDbLine
 10
626.8478767754348
 20
164.4706410404773
 30
0.0
 11
618.9280157754348
 21
173.7104940404773
 31
0.0
  0
ARC
  5
954
330
2
100
AcDbEntity
  8
0
100
AcDbCircle
 10
562.4465097754348
 20
174.2722310404773
 30
0.0
 40
2.0
100
AcDbArc
 50
319.3987049999997
 51
0.0
  0
LINE
  5
955
330
2
100
AcDbEntity
  8
0
100
AcDbLine
 10
554.0451427754349
 20
164.4706410404773
 30
0.0
 11
561.9650037754349
 21
173.7104940404773
 31
0.0
  0
LINE
  5
957
330
2
100
AcDbEntity
  8
0
100
AcDbLine
 10
540.4465097754348
 20
109.7722310404773
 30
0.0
 11
540.4465097754348
 21
176.7722310404773
 31
0.0
  0
LINE
  5
959
330
2
100
AcDbEntity
  8
0
100
AcDbLine
 10
640.4465097754348
 20
176.7722310404773
 30
0.0
 11
640.4465097754348
 21
159.6006610404773
 31
0.0
  0
LINE
  5
95A
330
2
100
AcDbEntity
  8
CENTER
100
AcDbLine
 10
579.4465097754348
 20
113.1653580404773
 30
0.0
 11
579.4465097754348
 21
173.3791040404773
 31
0.0
  0
ARC
  5
95B
330
2
100
AcDbEntity
  8
HIDS
100
AcDbCircle
 10
378.5637398237784
 20
174.9739670404773
 30
0.0
 40
3.0
100
AcDbArc
 50
180.0
 51
230.6432949999999
  0
LINE
  5
95C
330
2
100
AcDbEntity
  8
0
100
AcDbLine
 10
393.0637398237784
 20
183.0653070404773
 30
0.0
 11
393.0637398237784
 21
103.4791630404773
 31
0.0
  0
LINE
  5
95D
330
2
100
AcDbEntity
  8
CENTER
100
AcDbLine
 10
352.5637398237784
 20
219.1597290404774
 30
0.0
 11
352.5637398237784
 21
95.72410504047741
 31
0.0
  0
CIRCLE
  5
95E
330
2
100
AcDbEntity
  8
0
100
AcDbCircle
 10
579.4465097754348
 20
143.2722310404773
 30
0.0
 40
25.002001
  0
CIRCLE
  5
95F
330
2
100
AcDbEntity
  8
0
100
AcDbCircle
 10
579.4465097754348
 20
143.2722310404773
 30
0.0
 40
23.0
  0
CIRCLE
  5
960
330
2
100
AcDbEntity
  8
0
100
AcDbCircle
 10
579.4465097754348
 20
143.2722310404773
 30
0.0
 40
19.5
  0
LINE
  5
961
330
2
100
AcDbEntity
  8
0
100
AcDbLine
 10
571.4465097754348
 20
107.7722310404773
 30
0.0
 11
609.4465097754348
 21
107.7722310404773
 31
0.0
  0
LINE
  5
962
330
2
100
AcDbEntity
  8
0
100
AcDbLine
 10
633.4465097754348
 20
102.7722310404773
 30
0.0
 11
547.4465097754348
 21
102.7722310404773
 31
0.0
  0
LINE
  5
963
330
2
100
AcDbEntity
  8
CENTER
100
AcDbLine
 10
532.9057387754349
 20
143.2722310404773
 30
0.0
 11
742.522520743669
 21
143.2722310404773
 31
0.0
  0
ARC
  5
966
330
2
100
AcDbEntity
  8
HIDS
100
AcDbCircle
 10
352.5637398237784
 20
143.2722310404773
 30
0.0
 40
38.0
100
AcDbArc
 50
309.3567009999997
 51
50.64329900000029
  0
LINE
  5
969
330
2
100
AcDbEntity
  8
HOJO
100
AcDbLine
 10
360.5637398237784
 20
105.7722310404773
 30
0.0
 11
393.0637398237784
 21
105.7722310404773
 31
0.0
  0
LINE
  5
96A
330
2
100
AcDbEntity
  8
HOJO
100
AcDbLine
 10
360.5637398237784
 20
113.7722310404773
 30
0.0
 11
393.0637398237784
 21
113.7722310404773
 31
0.0
  0
LINE
  5
96B
330
2
100
AcDbEntity
  8
0
100
AcDbLine
 10
352.5637398237784
 20
102.7722310404773
 30
0.0
 11
393.0637398237784
 21
103.4791630404773
 31
0.0
  0
LINE
  5
96D
330
2
100
AcDbEntity
  8
HIDS
100
AcDbLine
 10
373.5986518237784
 20
105.6393960404773
 30
0.0
 11
352.5637398237784
 21
105.2722310404773
 31
0.0
  0
LINE
  5
96F
330
2
100
AcDbEntity
  8
HOJO
100
AcDbLine
 10
344.5637398237784
 20
113.7722310404773
 30
0.0
 11
344.5637398237784
 21
105.7722310404773
 31
0.0
  0
LINE
  5
972
330
2
100
AcDbEntity
  8
HOJO
100
AcDbLine
 10
360.5637398237784
 20
113.7722310404773
 30
0.0
 11
360.5637398237784
 21
105.7722310404773
 31
0.0
  0
LINE
  5
977
330
2
100
AcDbEntity
  8
HIDS
100
AcDbLine
 10
375.5637398237784
 20
107.6390900404773
 30
0.0
 11
375.5637398237784
 21
111.5704950404773
 31
0.0
  0
ARC
  5
978
330
2
100
AcDbEntity
  8
HIDS
100
AcDbCircle
 10
373.5637398237784
 20
107.6390900404773
 30
0.0
 40
2.0
100
AcDbArc
 50
271.0000000000001
 51
0.0
  0
ARC
  5
97B
330
2
100
AcDbEntity
  8
HIDS
100
AcDbCircle
 10
378.5637398237784
 20
111.5704950404773
 30
0.0
 40
3.0
100
AcDbArc
 50
129.356705
 51
180.0
  0
LINE
  5
983
330
2
100
AcDbEntity
  8
HIDS
100
AcDbLine
 10
360.5637398237784
 20
172.7722310404773
 30
0.0
 11
393.0637398237784
 21
172.7722310404773
 31
0.0
  0
LINE
  5
984
330
2
100
AcDbEntity
  8
PHAS
  6
SEKKEI_P_S
100
AcDbLine
 10
401.3401988237784
 20
159.1461170404773
 30
0.0
 11
393.0637398237784
 21
161.3637875492229
 31
0.0
  0
LINE
  5
985
330
2
100
AcDbEntity
  8
PHAS
  6
SEKKEI_P_S
100
AcDbLine
 10
401.3401988237784
 20
127.3983450404773
 30
0.0
 11
393.0637398237784
 21
125.1806745317318
 31
0.0
  0
LINE
  5
9F1
330
2
100
AcDbEntity
  8
PHAS
  6
SEKKEI_P_S
100
AcDbLine
 10
403.5637398237784
 20
156.2483360404774
 30
0.0
 11
403.5637398237784
 21
130.3592060404773
 31
0.0
  0
ARC
  5
9F2
330
2
100
AcDbEntity
  8
PHAS
  6
SEKKEI_P_S
100
AcDbCircle
 10
400.5637398237784
 20
130.2961260404773
 30
0.0
 40
3.0
100
AcDbArc
 50
285.0000000000004
 51
0.0
  0
ARC
  5
9F3
330
2
100
AcDbEntity
  8
PHAS
  6
SEKKEI_P_S
100
AcDbCircle
 10
400.5637398237784
 20
156.2483360404774
 30
0.0
 40
3.0
100
AcDbArc
 50
0.0
 51
74.99999999999961
  0
LINE
  5
9F4
330
2
100
AcDbEntity
  8
0
100
AcDbLine
 10
554.9650037754348
 20
124.0738210404773
 30
0.0
 11
563.9650037754348
 21
113.5738130404773
 31
0.0
  0
LINE
  5
9F5
330
2
100
AcDbEntity
  8
0
100
AcDbLine
 10
554.0451427754349
 20
122.0738210404773
 30
0.0
 11
561.9650037754349
 21
112.8339680404773
 31
0.0
  0
ARC
  5
9F6
330
2
100
AcDbEntity
  8
0
100
AcDbCircle
 10
571.4465097754348
 20
129.7722310404773
 30
0.0
 40
22.0
100
AcDbArc
 50
249.5126879999996
 51
270.0
  0
ARC
  5
9F7
330
2
100
AcDbEntity
  8
0
100
AcDbCircle
 10
566.8471447754348
 20
112.7722310404773
 30
0.0
 40
10.0
100
AcDbArc
 50
247.6683499999999
 51
270.0
  0
ARC
  5
9F8
330
2
100
AcDbEntity
  8
0
100
AcDbCircle
 10
547.4465097754348
 20
109.7722310404773
 30
0.0
 40
7.0
100
AcDbArc
 50
180.0
 51
312.6359250000002
  0
ARC
  5
9FA
330
2
100
AcDbEntity
  8
0
100
AcDbCircle
 10
556.2518687754347
 20
100.2084870404774
 30
0.0
 40
6.0
100
AcDbArc
 50
59.64169699999986
 51
132.6359250000002
  0
CIRCLE
  5
9FC
330
2
100
AcDbEntity
  8
HOJO
100
AcDbCircle
 10
547.4465097754348
 20
109.7722310404773
 30
0.0
 40
4.0
  0
CIRCLE
  5
9FD
330
2
100
AcDbEntity
  8
0
100
AcDbCircle
 10
547.4465097754348
 20
109.7722310404773
 30
0.0
 40
3.399999999999999
  0
ARC
  5
9FE
330
2
100
AcDbEntity
  8
0
100
AcDbCircle
 10
564.4465097754348
 20
111.0372380404774
 30
0.0
 40
2.0
100
AcDbArc
 50
180.0
 51
249.5126799999996
  0
ARC
  5
9FF
330
2
100
AcDbEntity
  8
0
100
AcDbCircle
 10
566.4465097754348
 20
110.4073170404773
 30
0.0
 40
2.0
100
AcDbArc
 50
180.0
 51
255.5224909999995
  0
ARC
  5
A00
330
2
100
AcDbEntity
  8
0
100
AcDbCircle
 10
574.4465097754348
 20
131.2722310404773
 30
0.0
 40
30.0
100
AcDbArc
 50
239.6416930000005
 51
247.6683499999999
  0
LINE
  5
A01
330
2
100
AcDbEntity
  8
0
100
AcDbLine
 10
564.3223027754348
 20
112.9661240404773
 30
0.0
 11
562.3223027754347
 21
112.2262720404773
 31
0.0
  0
ARC
  5
A02
330
2
100
AcDbEntity
  8
0
100
AcDbCircle
 10
560.4465097754348
 20
111.5323860404773
 30
0.0
 40
2.0
100
AcDbArc
 50
0.0
 51
40.60129500000027
  0
ARC
  5
A03
330
2
100
AcDbEntity
  8
0
100
AcDbCircle
 10
562.4465097754348
 20
112.2722310404773
 30
0.0
 40
2.0
100
AcDbArc
 50
0.0
 51
40.60129500000027
  0
LINE
  5
A04
330
2
100
AcDbEntity
  8
0
100
AcDbLine
 10
564.4465097754348
 20
112.2722310404773
 30
0.0
 11
564.4465097754348
 21
110.4073170404773
 31
0.0
  0
LINE
  5
A05
330
2
100
AcDbEntity
  8
0
100
AcDbLine
 10
562.4465097754348
 20
111.5323860404773
 30
0.0
 11
562.4465097754348
 21
111.0372380404774
 31
0.0
  0
ARC
  5
A06
330
2
100
AcDbEntity
  8
0
100
AcDbCircle
 10
579.4465097754348
 20
143.2722310404773
 30
0.0
 40
6.0
100
AcDbArc
 50
109.4712219999995
 51
70.52877800000044
  0
CIRCLE
  5
A07
330
2
100
AcDbEntity
  8
0
100
AcDbCircle
 10
579.4465097754348
 20
143.2722310404773
 30
0.0
 40
10.0
  0
CIRCLE
  5
A08
330
2
100
AcDbEntity
  8
0
100
AcDbCircle
 10
579.4465097754348
 20
143.2722310404773
 30
0.0
 40
16.0
  0
LINE
  5
A09
330
2
100
AcDbEntity
  8
0
100
AcDbLine
 10
549.4465097754348
 20
156.7722310404773
 30
0.0
 11
549.4465097754348
 21
129.7722310404773
 31
0.0
  0
LINE
  5
A0A
330
2
100
AcDbEntity
  8
0
100
AcDbLine
 10
544.4465097754348
 20
132.6006610404773
 30
0.0
 11
544.4465097754348
 21
153.9438010404773
 31
0.0
  0
LINE
  5
A0B
330
2
100
AcDbEntity
  8
0
100
AcDbLine
 10
543.8606947754347
 20
131.1864460404773
 30
0.0
 11
541.0323247754348
 21
128.3580160404774
 31
0.0
  0
LINE
  5
A0C
330
2
100
AcDbEntity
  8
0
100
AcDbLine
 10
553.4465097754348
 20
124.7722310404773
 30
0.0
 11
551.6727667754349
 21
124.7722310404773
 31
0.0
  0
ARC
  5
A0D
330
2
100
AcDbEntity
  8
0
100
AcDbCircle
 10
552.5266487754347
 20
120.7722310404773
 30
0.0
 40
2.0
100
AcDbArc
 50
40.60129500000027
 51
90.0
  0
ARC
  5
A0E
330
2
100
AcDbEntity
  8
0
100
AcDbCircle
 10
552.0815807754348
 20
124.7722310404773
 30
0.0
 40
2.0
100
AcDbArc
 50
194.4775090000004
 51
270.0
  0
LINE
  5
A0F
330
2
100
AcDbEntity
  8
0
100
AcDbLine
 10
552.5266487754347
 20
122.7722310404773
 30
0.0
 11
552.0815807754348
 21
122.7722310404773
 31
0.0
  0
ARC
  5
A10
330
2
100
AcDbEntity
  8
0
100
AcDbCircle
 10
542.4465097754348
 20
126.9438010404773
 30
0.0
 40
2.0
100
AcDbArc
 50
135.0
 51
180.0
  0
ARC
  5
A11
330
2
100
AcDbEntity
  8
0
100
AcDbCircle
 10
571.4465097754348
 20
129.7722310404773
 30
0.0
 40
22.0
100
AcDbArc
 50
180.0
 51
194.4775090000004
  0
ARC
  5
A12
330
2
100
AcDbEntity
  8
0
100
AcDbCircle
 10
551.6727667754349
 20
126.7722310404773
 30
0.0
 40
2.0
100
AcDbArc
 50
188.626923
 51
270.0
  0
LINE
  5
A13
330
2
100
AcDbEntity
  8
0
100
AcDbLine
 10
554.2822027754348
 20
124.5892630404773
 30
0.0
 11
553.3623427754348
 21
122.5892630404773
 31
0.0
  0
ARC
  5
A14
330
2
100
AcDbEntity
  8
0
100
AcDbCircle
 10
553.4465097754348
 20
122.7722310404773
 30
0.0
 40
2.0
100
AcDbArc
 50
40.60129500000027
 51
90.0
  0
ARC
  5
A15
330
2
100
AcDbEntity
  8
0
100
AcDbCircle
 10
542.4465097754348
 20
132.6006610404773
 30
0.0
 40
2.0
100
AcDbArc
 50
315.0
 51
0.0
  0
ARC
  5
A16
330
2
100
AcDbEntity
  8
0
100
AcDbCircle
 10
571.4465097754348
 20
156.7722310404773
 30
0.0
 40
22.0
100
AcDbArc
 50
165.5224909999995
 51
180.0
  0
ARC
  5
A17
330
2
100
AcDbEntity
  8
0
100
AcDbCircle
 10
542.4465097754348
 20
159.6006610404773
 30
0.0
 40
2.0
100
AcDbArc
 50
180.0
 51
225.0
  0
ARC
  5
A18
330
2
100
AcDbEntity
  8
0
100
AcDbCircle
 10
542.4465097754348
 20
153.9438010404773
 30
0.0
 40
2.0
100
AcDbArc
 50
0.0
 51
45.0
  0
LINE
  5
A19
330
2
100
AcDbEntity
  8
0
100
AcDbLine
 10
543.8606947754347
 20
155.3580160404774
 30
0.0
 11
541.0323247754348
 21
158.1864460404773
 31
0.0
  0
LINE
  5
A1A
330
2
100
AcDbEntity
  8
0
100
AcDbLine
 10
553.4465097754348
 20
161.7722310404773
 30
0.0
 11
551.6727667754349
 21
161.7722310404773
 31
0.0
  0
ARC
  5
A1B
330
2
100
AcDbEntity
  8
0
100
AcDbCircle
 10
552.5266487754347
 20
165.7722310404773
 30
0.0
 40
2.0
100
AcDbArc
 50
270.0
 51
319.3987049999997
  0
ARC
  5
A1C
330
2
100
AcDbEntity
  8
0
100
AcDbCircle
 10
552.0815807754348
 20
161.7722310404773
 30
0.0
 40
2.0
100
AcDbArc
 50
90.0
 51
165.5224909999995
  0
ARC
  5
A1D
330
2
100
AcDbEntity
  8
0
100
AcDbCircle
 10
551.6727667754349
 20
159.7722310404773
 30
0.0
 40
2.0
100
AcDbArc
 50
90.0
 51
171.3730769999999
  0
LINE
  5
A1E
330
2
100
AcDbEntity
  8
0
100
AcDbLine
 10
552.5266487754347
 20
163.7722310404773
 30
0.0
 11
552.0815807754348
 21
163.7722310404773
 31
0.0
  0
LINE
  5
A1F
330
2
100
AcDbEntity
  8
0
100
AcDbLine
 10
554.9650037754348
 20
162.4706410404773
 30
0.0
 11
563.9650037754348
 21
172.9706410404773
 31
0.0
  0
LINE
  5
A20
330
2
100
AcDbEntity
  8
0
100
AcDbLine
 10
554.2822027754348
 20
161.9551990404773
 30
0.0
 11
553.3623427754348
 21
163.9551990404773
 31
0.0
  0
ARC
  5
A21
330
2
100
AcDbEntity
  8
0
100
AcDbCircle
 10
553.4465097754348
 20
163.7722310404773
 30
0.0
 40
2.0
100
AcDbArc
 50
270.0
 51
319.3987049999997
  0
LINE
  5
A22
330
2
100
AcDbEntity
  8
0
100
AcDbLine
 10
581.4465097754348
 20
151.0722340404773
 30
0.0
 11
581.4465097754348
 21
148.9290910404774
 31
0.0
  0
LINE
  5
A23
330
2
100
AcDbEntity
  8
0
100
AcDbLine
 10
577.4465097754348
 20
151.0722340404773
 30
0.0
 11
577.4465097754348
 21
148.9290910404774
 31
0.0
  0
LINE
  5
A24
330
2
100
AcDbEntity
  8
0
100
AcDbLine
 10
577.4465097754348
 20
151.0722340404773
 30
0.0
 11
581.4465097754348
 21
151.0722340404773
 31
0.0
  0
LINE
  5
A25
330
2
100
AcDbEntity
  8
0
100
AcDbLine
 10
731.9203867754347
 20
113.0232300404773
 30
0.0
 11
713.5019907754347
 21
113.0232300404773
 31
0.0
  0
LINE
  5
A26
330
2
100
AcDbEntity
  8
0
100
AcDbLine
 10
730.0379407754348
 20
105.2722310404773
 30
0.0
 11
713.5019907754347
 21
105.2722310404773
 31
0.0
  0
LINE
  5
A27
330
2
100
AcDbEntity
  8
0
100
AcDbLine
 10
625.9280157754347
 20
124.0738210404773
 30
0.0
 11
616.9280157754347
 21
113.5738130404773
 31
0.0
  0
LINE
  5
A28
330
2
100
AcDbEntity
  8
0
100
AcDbLine
 10
626.8478767754348
 20
122.0738210404773
 30
0.0
 11
618.9280157754348
 21
112.8339680404773
 31
0.0
  0
LINE
  5
A29
330
2
100
AcDbEntity
  8
0
100
AcDbLine
 10
640.4465097754348
 20
126.9438010404773
 30
0.0
 11
640.4465097754348
 21
109.7722310404773
 31
0.0
  0
LINE
  5
A2A
330
2
100
AcDbEntity
  8
0
100
AcDbLine
 10
713.5019907754347
 20
113.0232690404773
 30
0.0
 11
640.4465097754348
 21
113.0232690404773
 31
0.0
  0
LINE
  5
A2B
330
2
100
AcDbEntity
  8
0
100
AcDbLine
 10
713.5019907754347
 20
105.2722310404773
 30
0.0
 11
641.8052747754349
 21
105.2722310404773
 31
0.0
  0
ARC
  5
A2C
330
2
100
AcDbEntity
  8
0
100
AcDbCircle
 10
624.6411507754348
 20
100.2084870404774
 30
0.0
 40
6.0
100
AcDbArc
 50
47.3640670000003
 51
120.358299
  0
ARC
  5
A2E
330
2
100
AcDbEntity
  8
0
100
AcDbCircle
 10
614.0458747754348
 20
112.7722310404773
 30
0.0
 40
10.0
100
AcDbArc
 50
270.0
 51
292.3316350000003
  0
ARC
  5
A2F
330
2
100
AcDbEntity
  8
0
100
AcDbCircle
 10
609.4465097754348
 20
129.7722310404773
 30
0.0
 40
22.0
100
AcDbArc
 50
270.0
 51
290.4873049999995
  0
ARC
  5
A30
330
2
100
AcDbEntity
  8
0
100
AcDbCircle
 10
616.4465097754348
 20
111.0372380404774
 30
0.0
 40
2.0
100
AcDbArc
 50
290.4873120000003
 51
0.0
  0
ARC
  5
A31
330
2
100
AcDbEntity
  8
0
100
AcDbCircle
 10
614.4465097754348
 20
110.4073170404773
 30
0.0
 40
2.0
100
AcDbArc
 50
284.4775090000004
 51
0.0
  0
ARC
  5
A32
330
2
100
AcDbEntity
  8
0
100
AcDbCircle
 10
606.4465097754348
 20
131.2722310404773
 30
0.0
 40
30.0
100
AcDbArc
 50
292.3316350000003
 51
300.3583069999994
  0
LINE
  5
A33
330
2
100
AcDbEntity
  8
0
100
AcDbLine
 10
616.5707167754349
 20
112.9661240404773
 30
0.0
 11
618.5707167754348
 21
112.2262720404773
 31
0.0
  0
ARC
  5
A34
330
2
100
AcDbEntity
  8
0
100
AcDbCircle
 10
620.4465097754348
 20
111.5323860404773
 30
0.0
 40
2.0
100
AcDbArc
 50
139.398712
 51
180.0
  0
ARC
  5
A35
330
2
100
AcDbEntity
  8
0
100
AcDbCircle
 10
618.4465097754348
 20
112.2722310404773
 30
0.0
 40
2.0
100
AcDbArc
 50
139.398712
 51
180.0
  0
LINE
  5
A36
330
2
100
AcDbEntity
  8
0
100
AcDbLine
 10
616.4465097754348
 20
112.2722310404773
 30
0.0
 11
616.4465097754348
 21
110.4073170404773
 31
0.0
  0
LINE
  5
A37
330
2
100
AcDbEntity
  8
0
100
AcDbLine
 10
618.4465097754348
 20
111.5323860404773
 30
0.0
 11
618.4465097754348
 21
111.0372380404774
 31
0.0
  0
ARC
  5
A38
330
2
100
AcDbEntity
  8
0
100
AcDbCircle
 10
633.4465097754348
 20
109.7722310404773
 30
0.0
 40
7.0
100
AcDbArc
 50
227.3640749999997
 51
0.0
  0
ARC
  5
A3A
330
2
100
AcDbEntity
  8
0
100
AcDbCircle
 10
641.8052747754349
 20
103.2722310404773
 30
0.0
 40
2.0
100
AcDbArc
 50
90.0
 51
110.33873
  0
CIRCLE
  5
A3B
330
2
100
AcDbEntity
  8
HOJO
100
AcDbCircle
 10
633.4465097754348
 20
109.7722310404773
 30
0.0
 40
4.0
  0
CIRCLE
  5
A3C
330
2
100
AcDbEntity
  8
0
100
AcDbCircle
 10
633.4465097754348
 20
109.7722310404773
 30
0.0
 40
3.399999999999999
  0
LINE
  5
A3D
330
2
100
AcDbEntity
  8
0
100
AcDbLine
 10
641.1101447754348
 20
105.1475360404773
 30
0.0
 11
635.8794927754348
 21
103.2086480404773
 31
0.0
  0
LINE
  5
A3E
330
2
100
AcDbEntity
  8
0
100
AcDbLine
 10
631.4465097754348
 20
156.7722310404773
 30
0.0
 11
631.4465097754348
 21
129.7722310404773
 31
0.0
  0
LINE
  5
A3F
330
2
100
AcDbEntity
  8
0
100
AcDbLine
 10
636.4465097754348
 20
132.6006610404773
 30
0.0
 11
636.4465097754348
 21
153.9438010404773
 31
0.0
  0
LINE
  5
A40
330
2
100
AcDbEntity
  8
0
100
AcDbLine
 10
626.6108167754348
 20
124.5892630404773
 30
0.0
 11
627.5306767754348
 21
122.5892630404773
 31
0.0
  0
ARC
  5
A41
330
2
100
AcDbEntity
  8
0
100
AcDbCircle
 10
627.4465097754348
 20
122.7722310404773
 30
0.0
 40
2.0
100
AcDbArc
 50
90.0
 51
139.398712
  0
ARC
  5
A42
330
2
100
AcDbEntity
  8
0
100
AcDbCircle
 10
628.3663707754349
 20
120.7722310404773
 30
0.0
 40
2.0
100
AcDbArc
 50
90.0
 51
139.398712
  0
LINE
  5
A43
330
2
100
AcDbEntity
  8
0
100
AcDbLine
 10
637.0323247754348
 20
131.1864460404773
 30
0.0
 11
639.8606947754347
 21
128.3580160404774
 31
0.0
  0
ARC
  5
A44
330
2
100
AcDbEntity
  8
0
100
AcDbCircle
 10
628.8114387754347
 20
124.7722310404773
 30
0.0
 40
2.0
100
AcDbArc
 50
270.0
 51
345.5224909999996
  0
LINE
  5
A45
330
2
100
AcDbEntity
  8
0
100
AcDbLine
 10
628.3663707754349
 20
122.7722310404773
 30
0.0
 11
628.8114387754347
 21
122.7722310404773
 31
0.0
  0
ARC
  5
A46
330
2
100
AcDbEntity
  8
0
100
AcDbCircle
 10
609.4465097754348
 20
129.7722310404773
 30
0.0
 40
22.0
100
AcDbArc
 50
345.5224880000002
 51
0.0
  0
ARC
  5
A47
330
2
100
AcDbEntity
  8
0
100
AcDbCircle
 10
629.2202527754348
 20
126.7722310404773
 30
0.0
 40
2.0
100
AcDbArc
 50
270.0
 51
351.373077
  0
LINE
  5
A48
330
2
100
AcDbEntity
  8
0
100
AcDbLine
 10
627.4465097754348
 20
124.7722310404773
 30
0.0
 11
629.2202527754348
 21
124.7722310404773
 31
0.0
  0
ARC
  5
A49
330
2
100
AcDbEntity
  8
0
100
AcDbCircle
 10
638.4465097754348
 20
126.9438010404773
 30
0.0
 40
2.0
100
AcDbArc
 50
0.0
 51
45.0
  0
ARC
  5
A4A
330
2
100
AcDbEntity
  8
0
100
AcDbCircle
 10
638.4465097754348
 20
132.6006610404773
 30
0.0
 40
2.0
100
AcDbArc
 50
180.0
 51
225.0
  0
LINE
  5
A4B
330
2
100
AcDbEntity
  8
0
100
AcDbLine
 10
626.6108167754348
 20
161.9551990404773
 30
0.0
 11
627.5306767754348
 21
163.9551990404773
 31
0.0
  0
ARC
  5
A4C
330
2
100
AcDbEntity
  8
0
100
AcDbCircle
 10
627.4465097754348
 20
163.7722310404773
 30
0.0
 40
2.0
100
AcDbArc
 50
220.6012879999999
 51
270.0
  0
ARC
  5
A4D
330
2
100
AcDbEntity
  8
0
100
AcDbCircle
 10
628.3663707754349
 20
165.7722310404773
 30
0.0
 40
2.0
100
AcDbArc
 50
220.6012879999999
 51
270.0
  0
LINE
  5
A4E
330
2
100
AcDbEntity
  8
0
100
AcDbLine
 10
625.9280157754347
 20
162.4706410404773
 30
0.0
 11
616.9280157754347
 21
172.9706410404773
 31
0.0
  0
ARC
  5
A4F
330
2
100
AcDbEntity
  8
0
100
AcDbCircle
 10
609.4465097754348
 20
156.7722310404773
 30
0.0
 40
22.0
100
AcDbArc
 50
0.0
 51
14.47751199999975
  0
ARC
  5
A50
330
2
100
AcDbEntity
  8
0
100
AcDbCircle
 10
638.4465097754348
 20
159.6006610404773
 30
0.0
 40
2.0
100
AcDbArc
 50
315.0
 51
0.0
  0
ARC
  5
A51
330
2
100
AcDbEntity
  8
0
100
AcDbCircle
 10
638.4465097754348
 20
153.9438010404773
 30
0.0
 40
2.0
100
AcDbArc
 50
135.0
 51
180.0
  0
LINE
  5
A52
330
2
100
AcDbEntity
  8
0
100
AcDbLine
 10
637.0323247754348
 20
155.3580160404774
 30
0.0
 11
639.8606947754347
 21
158.1864460404773
 31
0.0
  0
ARC
  5
A53
330
2
100
AcDbEntity
  8
0
100
AcDbCircle
 10
628.8114387754347
 20
161.7722310404773
 30
0.0
 40
2.0
100
AcDbArc
 50
14.47751199999975
 51
90.0
  0
ARC
  5
A54
330
2
100
AcDbEntity
  8
0
100
AcDbCircle
 10
629.2202527754348
 20
159.7722310404773
 30
0.0
 40
2.0
100
AcDbArc
 50
8.62692699999976
 51
90.0
  0
LINE
  5
A55
330
2
100
AcDbEntity
  8
0
100
AcDbLine
 10
628.3663707754349
 20
163.7722310404773
 30
0.0
 11
628.8114387754347
 21
163.7722310404773
 31
0.0
  0
LINE
  5
A56
330
2
100
AcDbEntity
  8
0
100
AcDbLine
 10
627.4465097754348
 20
161.7722310404773
 30
0.0
 11
629.2202527754348
 21
161.7722310404773
 31
0.0
  0
ARC
  5
A57
330
2
100
AcDbEntity
  8
0
100
AcDbCircle
 10
730.0379407754348
 20
108.2722310404773
 30
0.0
 40
3.0
100
AcDbArc
 50
270.0
 51
330.0003969999997
  0
LINE
  5
A58
330
2
100
AcDbEntity
  8
0
100
AcDbLine
 10
732.6360237754347
 20
106.7722310404773
 30
0.0
 11
733.5019907754348
 21
108.2722310404773
 31
0.0
  0
LINE
  5
A59
330
2
100
AcDbEntity
  8
0
100
AcDbLine
 10
734.0019907754347
 20
111.2722310404773
 30
0.0
 11
733.5019907754348
 21
110.7722310404773
 31
0.0
  0
LINE
  5
A5A
330
2
100
AcDbEntity
  8
0
100
AcDbLine
 10
541.1534187754348
 20
407.3164926420879
 30
0.0
 11
639.7396007754348
 21
407.3164926420879
 31
0.0
  0
LINE
  5
A5B
330
2
100
AcDbEntity
  8
0
100
AcDbLine
 10
641.4465097754348
 20
394.8164926420879
 30
0.0
 11
540.9352797754348
 21
394.8164926420879
 31
0.0
  0
LINE
  5
A5C
330
2
100
AcDbEntity
  8
0
100
AcDbLine
 10
639.7396007754348
 20
326.3164926420879
 30
0.0
 11
541.1534187754348
 21
326.3164926420879
 31
0.0
  0
LINE
  5
A5D
330
2
100
AcDbEntity
  8
CENTER
100
AcDbLine
 10
532.9057387754349
 20
366.8164926420879
 30
0.0
 11
742.522520743669
 21
366.8164926420879
 31
0.0
  0
LINE
  5
A5E
330
2
100
AcDbEntity
  8
0
100
AcDbLine
 10
571.4465097754348
 20
178.7722310404773
 30
0.0
 11
609.4465097754348
 21
178.7722310404773
 31
0.0
  0
LINE
  5
A5F
330
2
100
AcDbEntity
  8
0
100
AcDbLine
 10
633.4465097754348
 20
183.7722310404773
 30
0.0
 11
547.4465097754348
 21
183.7722310404773
 31
0.0
  0
LINE
  5
A60
330
2
100
AcDbEntity
  8
HIDS
100
AcDbLine
 10
551.4465097754348
 20
326.3164926420879
 30
0.0
 11
551.4465097754348
 21
358.8164926420879
 31
0.0
  0
LINE
  5
A61
330
2
100
AcDbEntity
  8
HIDS
100
AcDbLine
 10
543.4465097754348
 20
326.3164926420879
 30
0.0
 11
543.4465097754348
 21
358.8164926420879
 31
0.0
  0
LINE
  5
A62
330
2
100
AcDbEntity
  8
HIDS
100
AcDbLine
 10
550.8465337754349
 20
394.8164926420879
 30
0.0
 11
550.8465337754349
 21
326.3164926420879
 31
0.0
  0
LINE
  5
A63
330
2
100
AcDbEntity
  8
HIDS
100
AcDbLine
 10
544.0464857754347
 20
394.8164926420879
 30
0.0
 11
544.0464857754347
 21
326.3164926420879
 31
0.0
  0
LINE
  5
A64
330
2
100
AcDbEntity
  8
0
100
AcDbLine
 10
565.0790167754348
 20
361.8164926420879
 30
0.0
 11
565.0790167754348
 21
326.3164926420879
 31
0.0
  0
LINE
  5
A65
330
2
100
AcDbEntity
  8
0
100
AcDbLine
 10
556.1045297754348
 20
359.6124826420879
 30
0.0
 11
556.1045297754348
 21
326.3164926420879
 31
0.0
  0
LINE
  5
A66
330
2
100
AcDbEntity
  8
0
100
AcDbLine
 10
540.4465097754348
 20
366.8164926420879
 30
0.0
 11
541.1534187754348
 21
326.3164926420879
 31
0.0
  0
LINE
  5
A67
330
2
100
AcDbEntity
  8
CENTER
100
AcDbLine
 10
547.4465097754348
 20
322.9575756420879
 30
0.0
 11
547.4465097754348
 21
410.632593642088
 31
0.0
  0
LINE
  5
A68
330
2
100
AcDbEntity
  8
CENTER
100
AcDbLine
 10
579.4465097754348
 20
416.3116396420879
 30
0.0
 11
579.4465097754348
 21
317.3213456420879
 31
0.0
  0
LINE
  5
A69
330
2
100
AcDbEntity
  8
HIDS
100
AcDbLine
 10
360.5637398237784
 20
180.7722310404773
 30
0.0
 11
393.0637398237784
 21
180.7722310404773
 31
0.0
  0
LINE
  5
A6A
330
2
100
AcDbEntity
  8
0
100
AcDbLine
 10
352.5637398237784
 20
183.7722310404773
 30
0.0
 11
393.0637398237784
 21
183.0653070404773
 31
0.0
  0
LINE
  5
A6B
330
2
100
AcDbEntity
  8
HIDS
100
AcDbLine
 10
373.5986518237784
 20
180.9050590404773
 30
0.0
 11
352.5637398237784
 21
181.2722310404773
 31
0.0
  0
ARC
  5
A6C
330
2
100
AcDbEntity
  8
HIDS
100
AcDbCircle
 10
373.5637398237784
 20
178.9053640404773
 30
0.0
 40
2.0
100
AcDbArc
 50
0.0
 51
88.99999999999986
  0
LINE
  5
A6D
330
2
100
AcDbEntity
  8
HIDS
100
AcDbLine
 10
375.5637398237784
 20
178.9053640404773
 30
0.0
 11
375.5637398237784
 21
174.9739670404773
 31
0.0
  0
ARC
  5
A6E
330
2
100
AcDbEntity
  8
0
100
AcDbCircle
 10
571.4465097754348
 20
156.7722310404773
 30
0.0
 40
22.0
100
AcDbArc
 50
90.0
 51
110.4873120000003
  0
ARC
  5
A6F
330
2
100
AcDbEntity
  8
0
100
AcDbCircle
 10
556.2518687754347
 20
186.3359670404773
 30
0.0
 40
6.0
100
AcDbArc
 50
227.3640749999997
 51
300.3583069999994
  0
ARC
  5
A71
330
2
100
AcDbEntity
  8
0
100
AcDbCircle
 10
547.4465097754348
 20
176.7722310404773
 30
0.0
 40
7.0
100
AcDbArc
 50
47.3640670000003
 51
180.0
  0
CIRCLE
  5
A72
330
2
100
AcDbEntity
  8
0
100
AcDbCircle
 10
547.4465097754348
 20
176.7722310404773
 30
0.0
 40
3.399999999999999
  0
ARC
  5
A73
330
2
100
AcDbEntity
  8
0
100
AcDbCircle
 10
564.4465097754348
 20
175.5072320404774
 30
0.0
 40
2.0
100
AcDbArc
 50
110.4873120000003
 51
180.0
  0
ARC
  5
A74
330
2
100
AcDbEntity
  8
0
100
AcDbCircle
 10
566.4465097754348
 20
176.1371450404773
 30
0.0
 40
2.0
100
AcDbArc
 50
104.4775090000004
 51
180.0
  0
LINE
  5
A75
330
2
100
AcDbEntity
  8
0
100
AcDbLine
 10
564.3223027754348
 20
173.5783380404773
 30
0.0
 11
562.3223027754347
 21
174.3181900404773
 31
0.0
  0
ARC
  5
A76
330
2
100
AcDbEntity
  8
0
100
AcDbCircle
 10
560.4465097754348
 20
175.0120840404773
 30
0.0
 40
2.0
100
AcDbArc
 50
319.3987049999997
 51
0.0
  0
LINE
  5
A77
330
2
100
AcDbEntity
  8
0
100
AcDbLine
 10
564.4465097754348
 20
174.2722310404773
 30
0.0
 11
564.4465097754348
 21
176.1371450404773
 31
0.0
  0
LINE
  5
A78
330
2
100
AcDbEntity
  8
0
100
AcDbLine
 10
562.4465097754348
 20
175.0120840404773
 30
0.0
 11
562.4465097754348
 21
175.5072320404774
 31
0.0
  0
ARC
  5
A79
330
2
100
AcDbEntity
  8
0
100
AcDbCircle
 10
574.4465097754348
 20
155.2722310404773
 30
0.0
 40
30.0
100
AcDbArc
 50
112.3316420000001
 51
120.358299
  0
ARC
  5
A7A
330
2
100
AcDbEntity
  8
0
100
AcDbCircle
 10
566.8471447754348
 20
173.7722310404773
 30
0.0
 40
10.0
100
AcDbArc
 50
90.0
 51
112.3316420000001
  0
LINE
  5
A7B
330
2
100
AcDbEntity
  8
HIDS
  6
SEKKEI_H
100
AcDbLine
 10
551.6965097754348
 20
394.8164926420879
 30
0.0
 11
551.6965097754348
 21
407.3164926420879
 31
0.0
  0
LINE
  5
A7C
330
2
100
AcDbEntity
  8
HIDS
  6
SEKKEI_H
100
AcDbLine
 10
543.1965097754348
 20
394.8164926420879
 30
0.0
 11
543.1965097754348
 21
407.3164926420879
 31
0.0
  0
LINE
  5
A7D
330
2
100
AcDbEntity
  8
0
100
AcDbLine
 10
556.1045297754348
 20
407.3164926420879
 30
0.0
 11
556.1045297754348
 21
374.020502642088
 31
0.0
  0
LINE
  5
A7E
330
2
100
AcDbEntity
  8
0
100
AcDbLine
 10
565.0790167754348
 20
407.3164926420879
 30
0.0
 11
565.0790167754348
 21
371.8164926420879
 31
0.0
  0
LINE
  5
A7F
330
2
100
AcDbEntity
  8
0
100
AcDbLine
 10
540.4465097754348
 20
366.8164926420879
 30
0.0
 11
541.1534187754348
 21
407.3164926420879
 31
0.0
  0
ARC
  5
A80
330
2
100
AcDbEntity
  8
0
100
AcDbCircle
 10
556.1045297754348
 20
370.6124826420879
 30
0.0
 40
11.0
100
AcDbArc
 50
244.282272
 51
291.0753169999998
  0
LINE
  5
A81
330
2
100
AcDbEntity
  8
HIDS
100
AcDbLine
 10
543.4465097754348
 20
358.8164926420879
 30
0.0
 11
551.4465097754348
 21
358.8164926420879
 31
0.0
  0
LINE
  5
A82
330
2
100
AcDbEntity
  8
0
100
AcDbLine
 10
565.0790167754348
 20
361.8164926420879
 30
0.0
 11
547.5337897754347
 21
361.8164926420879
 31
0.0
  0
ARC
  5
A83
330
2
100
AcDbEntity
  8
0
100
AcDbCircle
 10
556.1045297754348
 20
363.0205026420879
 30
0.0
 40
11.0
100
AcDbArc
 50
68.92466700000015
 51
115.717728
  0
LINE
  5
A84
330
2
100
AcDbEntity
  8
0
100
AcDbLine
 10
565.0790167754348
 20
371.8164926420879
 30
0.0
 11
547.5337897754347
 21
371.8164926420879
 31
0.0
  0
LINE
  5
A85
330
2
100
AcDbEntity
  8
0
100
AcDbLine
 10
551.3312147754347
 20
360.7021126420879
 30
0.0
 11
550.3544077754348
 21
361.1726326420879
 31
0.0
  0
ARC
  5
A86
330
2
100
AcDbEntity
  8
0
100
AcDbCircle
 10
547.5337897754347
 20
355.3164926420879
 30
0.0
 40
6.5
100
AcDbArc
 50
64.28227199999999
 51
90.0
  0
LINE
  5
A87
330
2
100
AcDbEntity
  8
0
100
AcDbLine
 10
551.3312147754347
 20
372.9308726420879
 30
0.0
 11
550.3544077754348
 21
372.460383642088
 31
0.0
  0
ARC
  5
A88
330
2
100
AcDbEntity
  8
0
100
AcDbCircle
 10
547.5337897754347
 20
378.3164926420879
 30
0.0
 40
6.5
100
AcDbArc
 50
270.0
 51
295.717728
  0
ARC
  5
A89
330
2
100
AcDbEntity
  8
0
100
AcDbCircle
 10
565.0790167754348
 20
355.3164926420879
 30
0.0
 40
6.5
100
AcDbArc
 50
90.0
 51
111.0753329999998
  0
LINE
  5
A8A
330
2
100
AcDbEntity
  8
0
100
AcDbLine
 10
562.7416147754348
 20
361.3817086420879
 30
0.0
 11
560.0600957754348
 21
360.348292642088
 31
0.0
  0
ARC
  5
A8B
330
2
100
AcDbEntity
  8
0
100
AcDbCircle
 10
565.0790167754348
 20
378.3164926420879
 30
0.0
 40
6.5
100
AcDbArc
 50
248.9246670000001
 51
270.0
  0
LINE
  5
A8C
330
2
100
AcDbEntity
  8
0
100
AcDbLine
 10
562.7416147754348
 20
372.2512766420879
 30
0.0
 11
560.0600957754348
 21
373.2846936420879
 31
0.0
  0
LINE
  5
A8D
330
2
100
AcDbEntity
  8
HIDS
100
AcDbLine
 10
543.4465097754348
 20
394.8164926420879
 30
0.0
 11
543.4465097754348
 21
374.8164926420879
 31
0.0
  0
LINE
  5
A8E
330
2
100
AcDbEntity
  8
HIDS
100
AcDbLine
 10
551.4465097754348
 20
394.8164926420879
 30
0.0
 11
551.4465097754348
 21
374.8164926420879
 31
0.0
  0
LINE
  5
A8F
330
2
100
AcDbEntity
  8
HIDS
100
AcDbLine
 10
543.4465097754348
 20
374.8164926420879
 30
0.0
 11
551.4465097754348
 21
374.8164926420879
 31
0.0
  0
LINE
  5
A90
330
2
100
AcDbEntity
  8
HIDS
100
AcDbLine
 10
637.4465097754348
 20
326.3164926420879
 30
0.0
 11
637.4465097754348
 21
358.8164926420879
 31
0.0
  0
LINE
  5
A91
330
2
100
AcDbEntity
  8
HIDS
100
AcDbLine
 10
629.4465097754348
 20
326.3164926420879
 30
0.0
 11
629.4465097754348
 21
358.8164926420879
 31
0.0
  0
LINE
  5
A92
330
2
100
AcDbEntity
  8
HIDS
100
AcDbLine
 10
636.8465337754348
 20
394.8164926420879
 30
0.0
 11
636.8465337754348
 21
326.3164926420879
 31
0.0
  0
LINE
  5
A93
330
2
100
AcDbEntity
  8
HIDS
100
AcDbLine
 10
630.0464857754348
 20
394.8164926420879
 30
0.0
 11
630.0464857754348
 21
326.3164926420879
 31
0.0
  0
LINE
  5
A94
330
2
100
AcDbEntity
  8
0
100
AcDbLine
 10
733.5019907754348
 20
401.8164926420879
 30
0.0
 11
733.5019907754348
 21
331.8164926420879
 31
0.0
  0
LINE
  5
A95
330
2
100
AcDbEntity
  8
0
100
AcDbLine
 10
734.0019907754347
 20
398.8164926420879
 30
0.0
 11
734.0019907754347
 21
334.8164926420879
 31
0.0
  0
LINE
  5
A96
330
2
100
AcDbEntity
  8
0
100
AcDbLine
 10
624.7884897754349
 20
359.6124826420879
 30
0.0
 11
624.7884897754349
 21
326.3164926420879
 31
0.0
  0
LINE
  5
A97
330
2
100
AcDbEntity
  8
0
100
AcDbLine
 10
615.8140027754348
 20
361.8164926420879
 30
0.0
 11
615.8140027754348
 21
326.3164926420879
 31
0.0
  0
LINE
  5
A98
330
2
100
AcDbEntity
  8
0
100
AcDbLine
 10
635.8794927754348
 20
366.8164926420879
 30
0.0
 11
635.4437017754348
 21
341.8514046420879
 31
0.0
  0
LINE
  5
A99
330
2
100
AcDbEntity
  8
0
100
AcDbLine
 10
641.4465097754348
 20
389.8164926420879
 30
0.0
 11
641.4465097754348
 21
343.8164926420879
 31
0.0
  0
LINE
  5
A9A
330
2
100
AcDbEntity
  8
CENTER
100
AcDbLine
 10
633.4465097754348
 20
322.9575756420879
 30
0.0
 11
633.4465097754348
 21
410.632593642088
 31
0.0
  0
LINE
  5
A9B
330
2
100
AcDbEntity
  8
0
100
AcDbLine
 10
713.5019907754347
 20
328.8164926420879
 30
0.0
 11
713.5019907754349
 21
341.8164926420879
 31
0.0
  0
LINE
  5
A9C
330
2
100
AcDbEntity
  8
0
100
AcDbLine
 10
731.9203867754347
 20
173.5212240404773
 30
0.0
 11
713.5019907754347
 21
173.5212240404773
 31
0.0
  0
LINE
  5
A9D
330
2
100
AcDbEntity
  8
0
100
AcDbLine
 10
730.0379407754348
 20
181.2722310404773
 30
0.0
 11
713.5019907754347
 21
181.2722310404773
 31
0.0
  0
LINE
  5
A9E
330
2
100
AcDbEntity
  8
0
100
AcDbLine
 10
730.0379407754348
 20
328.8164926420879
 30
0.0
 11
713.5019907754347
 21
328.8164926420879
 31
0.0
  0
LINE
  5
A9F
330
2
100
AcDbEntity
  8
0
100
AcDbLine
 10
731.9203867754347
 20
343.8164926420879
 30
0.0
 11
722.5019907754348
 21
343.8164926420879
 31
0.0
  0
LINE
  5
AA2
330
2
100
AcDbEntity
  8
0
100
AcDbLine
 10
713.5019907754347
 20
173.5211930404773
 30
0.0
 11
640.4465097754348
 21
173.5211930404773
 31
0.0
  0
LINE
  5
AA3
330
2
100
AcDbEntity
  8
0
100
AcDbLine
 10
713.5019907754347
 20
181.2722310404773
 30
0.0
 11
641.8052747754349
 21
181.2722310404773
 31
0.0
  0
ARC
  5
AA4
330
2
100
AcDbEntity
  8
0
100
AcDbCircle
 10
624.6411507754348
 20
186.3359670404773
 30
0.0
 40
6.0
100
AcDbArc
 50
239.6416930000005
 51
312.6359250000002
  0
ARC
  5
AA6
330
2
100
AcDbEntity
  8
0
100
AcDbCircle
 10
609.4465097754348
 20
156.7722310404773
 30
0.0
 40
22.0
100
AcDbArc
 50
69.51268799999965
 51
90.0
  0
ARC
  5
AA7
330
2
100
AcDbEntity
  8
0
100
AcDbCircle
 10
616.4465097754348
 20
175.5072320404774
 30
0.0
 40
2.0
100
AcDbArc
 50
0.0
 51
69.51268799999965
  0
ARC
  5
AA8
330
2
100
AcDbEntity
  8
0
100
AcDbCircle
 10
614.4465097754348
 20
176.1371450404773
 30
0.0
 40
2.0
100
AcDbArc
 50
0.0
 51
75.52249099999959
  0
LINE
  5
AA9
330
2
100
AcDbEntity
  8
0
100
AcDbLine
 10
616.5707167754349
 20
173.5783380404773
 30
0.0
 11
618.5707167754348
 21
174.3181900404773
 31
0.0
  0
ARC
  5
AAA
330
2
100
AcDbEntity
  8
0
100
AcDbCircle
 10
620.4465097754348
 20
175.0120840404773
 30
0.0
 40
2.0
100
AcDbArc
 50
180.0
 51
220.6012879999999
  0
LINE
  5
AAB
330
2
100
AcDbEntity
  8
0
100
AcDbLine
 10
616.4465097754348
 20
174.2722310404773
 30
0.0
 11
616.4465097754348
 21
176.1371450404773
 31
0.0
  0
LINE
  5
AAC
330
2
100
AcDbEntity
  8
0
100
AcDbLine
 10
618.4465097754348
 20
175.0120840404773
 30
0.0
 11
618.4465097754348
 21
175.5072320404774
 31
0.0
  0
ARC
  5
AAD
330
2
100
AcDbEntity
  8
0
100
AcDbCircle
 10
606.4465097754348
 20
155.2722310404773
 30
0.0
 40
30.0
100
AcDbArc
 50
59.64169699999986
 51
67.66835799999981
  0
ARC
  5
AAE
330
2
100
AcDbEntity
  8
0
100
AcDbCircle
 10
614.0458747754348
 20
173.7722310404773
 30
0.0
 40
10.0
100
AcDbArc
 50
67.66835799999981
 51
90.0
  0
ARC
  5
AAF
330
2
100
AcDbEntity
  8
0
100
AcDbCircle
 10
641.8052747754349
 20
183.2722310404773
 30
0.0
 40
2.0
100
AcDbArc
 50
249.6612699999999
 51
270.0
  0
ARC
  5
AB0
330
2
100
AcDbEntity
  8
0
100
AcDbCircle
 10
633.4465097754348
 20
176.7722310404773
 30
0.0
 40
7.0
100
AcDbArc
 50
0.0
 51
132.6359250000002
  0
CIRCLE
  5
AB1
330
2
100
AcDbEntity
  8
0
100
AcDbCircle
 10
633.4465097754348
 20
176.7722310404773
 30
0.0
 40
3.399999999999999
  0
LINE
  5
AB2
330
2
100
AcDbEntity
  8
0
100
AcDbLine
 10
641.1101447754348
 20
181.3969260404773
 30
0.0
 11
635.8794927754348
 21
183.3358140404773
 31
0.0
  0
LINE
  5
AB8
330
2
100
AcDbEntity
  8
0
100
AcDbLine
 10
672.5020907754348
 20
343.8164926420879
 30
0.0
 11
637.4433967754348
 21
343.8164926420879
 31
0.0
  0
LINE
  5
AB9
330
2
100
AcDbEntity
  8
0
100
AcDbLine
 10
641.7486337754349
 20
328.8164926420879
 30
0.0
 11
713.5019907754347
 21
328.8164926420879
 31
0.0
  0
LINE
  5
ABA
330
2
100
AcDbEntity
  8
0
100
AcDbLine
 10
639.7396007754348
 20
326.3164926420879
 30
0.0
 11
640.0450207754349
 21
343.8164926420879
 31
0.0
  0
ARC
  5
ABB
330
2
100
AcDbEntity
  8
0
100
AcDbCircle
 10
641.7486337754349
 20
326.8164926420879
 30
0.0
 40
2.0
100
AcDbArc
 50
90.0
 51
178.9999999999998
  0
ARC
  5
ABC
330
2
100
AcDbEntity
  8
0
100
AcDbCircle
 10
637.4433967754348
 20
341.8164926420879
 30
0.0
 40
2.0
100
AcDbArc
 50
90.0
 51
178.9999999999998
  0
ARC
  5
ABF
330
2
100
AcDbEntity
  8
0
100
AcDbCircle
 10
730.0379407754348
 20
178.2722460404773
 30
0.0
 40
3.0
100
AcDbArc
 50
29.99959900000014
 51
90.0
  0
LINE
  5
AC1
330
2
100
AcDbEntity
  8
0
100
AcDbLine
 10
732.6360237754347
 20
179.7722160404773
 30
0.0
 11
733.5019907754348
 21
178.2722310404773
 31
0.0
  0
LINE
  5
AC2
330
2
100
AcDbEntity
  8
0
100
AcDbLine
 10
734.0019907754347
 20
175.2722310404773
 30
0.0
 11
733.5019907754348
 21
175.7722310404773
 31
0.0
  0
ARC
  5
AC4
330
2
100
AcDbEntity
  8
0
100
AcDbCircle
 10
730.0379407754348
 20
331.8164926420879
 30
0.0
 40
3.0
100
AcDbArc
 50
270.0
 51
330.0003969999997
  0
LINE
  5
AC5
330
2
100
AcDbEntity
  8
0
100
AcDbLine
 10
732.6360237754347
 20
330.3164926420879
 30
0.0
 11
733.5019907754348
 21
331.8164926420879
 31
0.0
  0
LINE
  5
AC6
330
2
100
AcDbEntity
  8
0
100
AcDbLine
 10
734.0019907754347
 20
334.8164926420879
 30
0.0
 11
733.5019907754348
 21
334.3164926420879
 31
0.0
  0
LINE
  5
AC7
330
2
100
AcDbEntity
  8
0
100
AcDbLine
 10
730.0379407754348
 20
404.8164926420879
 30
0.0
 11
713.5019907754347
 21
404.8164926420879
 31
0.0
  0
LINE
  5
AC8
330
2
100
AcDbEntity
  8
0
100
AcDbLine
 10
731.9203867754347
 20
389.8164926420879
 30
0.0
 11
722.5019907754348
 21
389.8164926420879
 31
0.0
  0
LINE
  5
ACD
330
2
100
AcDbEntity
  8
HIDS
  6
SEKKEI_H
100
AcDbLine
 10
637.6965097754348
 20
394.8164926420879
 30
0.0
 11
637.6965097754348
 21
407.3164926420879
 31
0.0
  0
LINE
  5
ACE
330
2
100
AcDbEntity
  8
HIDS
  6
SEKKEI_H
100
AcDbLine
 10
629.1965097754348
 20
394.8164926420879
 30
0.0
 11
629.1965097754348
 21
407.3164926420879
 31
0.0
  0
LINE
  5
ACF
330
2
100
AcDbEntity
  8
0
100
AcDbLine
 10
713.5019907754347
 20
391.8164926420879
 30
0.0
 11
713.5019907754347
 21
404.8164926420879
 31
0.0
  0
LINE
  5
AD0
330
2
100
AcDbEntity
  8
0
100
AcDbLine
 10
624.7884897754349
 20
407.3164926420879
 30
0.0
 11
624.7884897754349
 21
374.020502642088
 31
0.0
  0
LINE
  5
AD1
330
2
100
AcDbEntity
  8
0
100
AcDbLine
 10
615.8140027754348
 20
407.3164926420879
 30
0.0
 11
615.8140027754348
 21
371.8164926420879
 31
0.0
  0
LINE
  5
AD2
330
2
100
AcDbEntity
  8
0
100
AcDbLine
 10
639.7396007754348
 20
407.3164926420879
 30
0.0
 11
640.0450207754349
 21
389.8164926420879
 31
0.0
  0
LINE
  5
AD3
330
2
100
AcDbEntity
  8
0
100
AcDbLine
 10
641.4465097754348
 20
404.1957656420879
 30
0.0
 11
641.4465097754348
 21
394.8164926420879
 31
0.0
  0
LINE
  5
AD4
330
2
100
AcDbEntity
  8
0
100
AcDbLine
 10
672.5020907754348
 20
389.8164926420879
 30
0.0
 11
637.4433967754348
 21
389.8164926420879
 31
0.0
  0
LINE
  5
AD5
330
2
100
AcDbEntity
  8
0
100
AcDbLine
 10
635.8794927754348
 20
366.8164926420879
 30
0.0
 11
635.4437017754348
 21
391.7815806420879
 31
0.0
  0
ARC
  5
AD6
330
2
100
AcDbEntity
  8
0
100
AcDbCircle
 10
624.7884897754349
 20
370.6124826420879
 30
0.0
 40
11.0
100
AcDbArc
 50
248.9246670000001
 51
295.717728
  0
LINE
  5
AD7
330
2
100
AcDbEntity
  8
0
100
AcDbLine
 10
615.8140027754348
 20
361.8164926420879
 30
0.0
 11
633.3592297754348
 21
361.8164926420879
 31
0.0
  0
ARC
  5
AD8
330
2
100
AcDbEntity
  8
0
100
AcDbCircle
 10
624.7884897754349
 20
363.0205026420879
 30
0.0
 40
11.0
100
AcDbArc
 50
64.28227199999999
 51
111.0753329999998
  0
LINE
  5
AD9
330
2
100
AcDbEntity
  8
0
100
AcDbLine
 10
615.8140027754348
 20
371.8164926420879
 30
0.0
 11
633.3592297754348
 21
371.8164926420879
 31
0.0
  0
LINE
  5
ADA
330
2
100
AcDbEntity
  8
0
100
AcDbLine
 10
618.1513437754348
 20
361.3817086420879
 30
0.0
 11
620.8329237754347
 21
360.348292642088
 31
0.0
  0
ARC
  5
ADB
330
2
100
AcDbEntity
  8
0
100
AcDbCircle
 10
615.8140027754348
 20
355.3164926420879
 30
0.0
 40
6.5
100
AcDbArc
 50
68.92466700000015
 51
90.0
  0
LINE
  5
ADC
330
2
100
AcDbEntity
  8
0
100
AcDbLine
 10
618.1513437754348
 20
372.2512766420879
 30
0.0
 11
620.8329237754347
 21
373.2846936420879
 31
0.0
  0
ARC
  5
ADD
330
2
100
AcDbEntity
  8
0
100
AcDbCircle
 10
615.8140027754348
 20
378.3164926420879
 30
0.0
 40
6.5
100
AcDbArc
 50
270.0
 51
291.0753169999998
  0
LINE
  5
ADE
330
2
100
AcDbEntity
  8
HIDS
100
AcDbLine
 10
629.4465097754348
 20
358.8164926420879
 30
0.0
 11
637.4465097754348
 21
358.8164926420879
 31
0.0
  0
LINE
  5
ADF
330
2
100
AcDbEntity
  8
0
100
AcDbLine
 10
629.5618047754349
 20
360.7021126420879
 30
0.0
 11
630.5386117754347
 21
361.1726326420879
 31
0.0
  0
ARC
  5
AE0
330
2
100
AcDbEntity
  8
0
100
AcDbCircle
 10
633.3592297754348
 20
355.3164926420879
 30
0.0
 40
6.5
100
AcDbArc
 50
90.0
 51
115.717728
  0
LINE
  5
AE1
330
2
100
AcDbEntity
  8
0
100
AcDbLine
 10
629.5618047754349
 20
372.9308726420879
 30
0.0
 11
630.5386117754347
 21
372.460383642088
 31
0.0
  0
ARC
  5
AE2
330
2
100
AcDbEntity
  8
0
100
AcDbCircle
 10
633.3592297754348
 20
378.3164926420879
 30
0.0
 40
6.5
100
AcDbArc
 50
244.282272
 51
270.0
  0
LINE
  5
AE3
330
2
100
AcDbEntity
  8
HIDS
100
AcDbLine
 10
629.4465097754348
 20
394.8164926420879
 30
0.0
 11
629.4465097754348
 21
374.8164926420879
 31
0.0
  0
LINE
  5
AE4
330
2
100
AcDbEntity
  8
HIDS
100
AcDbLine
 10
637.4465097754348
 20
394.8164926420879
 30
0.0
 11
637.4465097754348
 21
374.8164926420879
 31
0.0
  0
LINE
  5
AE5
330
2
100
AcDbEntity
  8
HIDS
100
AcDbLine
 10
629.4465097754348
 20
374.8164926420879
 30
0.0
 11
637.4465097754348
 21
374.8164926420879
 31
0.0
  0
ARC
  5
AE6
330
2
100
AcDbEntity
  8
0
100
AcDbCircle
 10
637.4433967754348
 20
391.8164926420879
 30
0.0
 40
2.0
100
AcDbArc
 50
181.0000000000001
 51
270.0
  0
LINE
  5
AEB
330
2
100
AcDbEntity
  8
0
100
AcDbLine
 10
642.8948127754348
 20
404.8164926420879
 30
0.0
 11
713.5019907754347
 21
404.8164926420879
 31
0.0
  0
ARC
  5
AEC
330
2
100
AcDbEntity
  8
0
100
AcDbCircle
 10
642.8948127754348
 20
402.8164926420879
 30
0.0
 40
2.0
100
AcDbArc
 50
90.0
 51
136.3987579999997
  0
LINE
  5
AED
330
2
100
AcDbEntity
  8
0
100
AcDbLine
 10
732.6360237754347
 20
403.3164926420879
 30
0.0
 11
733.5019907754348
 21
401.8164926420879
 31
0.0
  0
LINE
  5
AF2
330
2
100
AcDbEntity
  8
0
100
AcDbLine
 10
734.0019907754347
 20
398.8164926420879
 30
0.0
 11
733.5019907754348
 21
399.3164926420879
 31
0.0
  0
ARC
  5
AF3
330
2
100
AcDbEntity
  8
0
100
AcDbCircle
 10
730.0379407754348
 20
401.8165236420879
 30
0.0
 40
3.0
100
AcDbArc
 50
29.99959900000014
 51
90.0
  0
LINE
  5
AF6
330
2
100
AcDbEntity
  8
CENTER
100
AcDbLine
 10
218.2755659258643
 20
114.1998890404773
 30
0.0
 11
218.2755659258643
 21
125.3445730404773
 31
0.0
  0
LINE
  5
AF7
330
2
100
AcDbEntity
  8
CENTER
100
AcDbLine
 10
212.7032239258644
 20
119.7722310404773
 30
0.0
 11
223.8479079258643
 21
119.7722310404773
 31
0.0
  0
LINE
  5
AF8
330
2
100
AcDbEntity
  8
CENTER
100
AcDbLine
 10
127.2755659258643
 20
114.1998890404773
 30
0.0
 11
127.2755659258643
 21
125.3445730404773
 31
0.0
  0
LINE
  5
AF9
330
2
100
AcDbEntity
  8
CENTER
100
AcDbLine
 10
121.7032239258644
 20
119.7722310404773
 30
0.0
 11
132.8479079258643
 21
119.7722310404773
 31
0.0
  0
LINE
  5
AFA
330
2
100
AcDbEntity
  8
CENTER
100
AcDbLine
 10
127.2755659258643
 20
161.1998890404773
 30
0.0
 11
127.2755659258643
 21
172.3445730404773
 31
0.0
  0
LINE
  5
AFB
330
2
100
AcDbEntity
  8
CENTER
100
AcDbLine
 10
121.7032239258644
 20
166.7722310404773
 30
0.0
 11
132.8479079258643
 21
166.7722310404773
 31
0.0
  0
LINE
  5
AFD
330
2
100
AcDbEntity
  8
CENTER
100
AcDbLine
 10
137.7542039258644
 20
176.7722310404773
 30
0.0
 11
121.7969279258643
 21
176.7722310404773
 31
0.0
  0
LINE
  5
AFE
330
2
100
AcDbEntity
  8
CENTER
100
AcDbLine
 10
129.7755659258643
 20
184.7508690404773
 30
0.0
 11
129.7755659258643
 21
168.7935930404773
 31
0.0
  0
LINE
  5
AFF
330
2
100
AcDbEntity
  8
CENTER
100
AcDbLine
 10
137.7542039258644
 20
109.7722310404773
 30
0.0
 11
121.7969279258643
 21
109.7722310404773
 31
0.0
  0
LINE
  5
B00
330
2
100
AcDbEntity
  8
CENTER
100
AcDbLine
 10
129.7755659258643
 20
117.7508690404773
 30
0.0
 11
129.7755659258643
 21
101.7935930404773
 31
0.0
  0
LINE
  5
B01
330
2
100
AcDbEntity
  8
CENTER
100
AcDbLine
 10
223.7542039258644
 20
109.7722310404773
 30
0.0
 11
207.7969279258643
 21
109.7722310404773
 31
0.0
  0
LINE
  5
B02
330
2
100
AcDbEntity
  8
CENTER
100
AcDbLine
 10
215.7755659258643
 20
117.7508690404773
 30
0.0
 11
215.7755659258643
 21
101.7935930404773
 31
0.0
  0
LINE
  5
B04
330
2
100
AcDbEntity
  8
CENTER
100
AcDbLine
 10
641.4251477754349
 20
176.7722310404773
 30
0.0
 11
625.4678717754347
 21
176.7722310404773
 31
0.0
  0
LINE
  5
B05
330
2
100
AcDbEntity
  8
CENTER
100
AcDbLine
 10
633.4465097754348
 20
184.7508690404773
 30
0.0
 11
633.4465097754348
 21
168.7935930404773
 31
0.0
  0
LINE
  5
B06
330
2
100
AcDbEntity
  8
CENTER
100
AcDbLine
 10
555.4251477754348
 20
176.7722310404773
 30
0.0
 11
539.4678717754348
 21
176.7722310404773
 31
0.0
  0
LINE
  5
B07
330
2
100
AcDbEntity
  8
CENTER
100
AcDbLine
 10
547.4465097754348
 20
184.7508690404773
 30
0.0
 11
547.4465097754348
 21
168.7935930404773
 31
0.0
  0
LINE
  5
B08
330
2
100
AcDbEntity
  8
CENTER
100
AcDbLine
 10
555.4251477754348
 20
109.7722310404773
 30
0.0
 11
539.4678717754348
 21
109.7722310404773
 31
0.0
  0
LINE
  5
B09
330
2
100
AcDbEntity
  8
CENTER
100
AcDbLine
 10
547.4465097754348
 20
117.7508690404773
 30
0.0
 11
547.4465097754348
 21
101.7935930404773
 31
0.0
  0
LINE
  5
B0A
330
2
100
AcDbEntity
  8
CENTER
100
AcDbLine
 10
633.4465097754348
 20
117.7508690404773
 30
0.0
 11
633.4465097754348
 21
101.7935930404773
 31
0.0
  0
LINE
  5
B0B
330
2
100
AcDbEntity
  8
CENTER
100
AcDbLine
 10
641.4251477754349
 20
109.7722310404773
 30
0.0
 11
625.4678717754347
 21
109.7722310404773
 31
0.0
  0
LINE
  5
B11
330
2
100
AcDbEntity
  8
0
100
AcDbLine
 10
81.61844193181513
 20
306.6200627050012
 30
0.0
 11
111.6182579318151
 21
306.6200627050012
 31
0.0
  0
LINE
  5
B12
330
2
100
AcDbEntity
  8
0
100
AcDbLine
 10
96.61834993181514
 20
272.6200627050011
 30
0.0
 11
137.1183499318151
 21
273.3269947050012
 31
0.0
  0
LINE
  5
B13
330
2
100
AcDbEntity
  8
0
100
AcDbLine
 10
131.6182579318151
 20
320.9200657050012
 30
0.0
 11
61.61844193181514
 21
320.9200657050012
 31
0.0
  0
LINE
  5
B18
330
2
100
AcDbEntity
  8
0
100
AcDbLine
 10
96.61834993181514
 20
353.6200627050011
 30
0.0
 11
137.1183499318151
 21
352.9131387050012
 31
0.0
  0
LINE
  5
B19
330
2
100
AcDbEntity
  8
0
100
AcDbLine
 10
104.3801299318152
 20
323.3132847050011
 30
0.0
 11
102.0472139318151
 21
327.2725587050012
 31
0.0
  0
ARC
  5
B1A
330
2
100
AcDbEntity
  8
0
100
AcDbCircle
 10
103.6183499318151
 20
326.0350107050012
 30
0.0
 40
2.0
100
AcDbArc
 50
91.00000000000013
 51
180.0
  0
LINE
  5
B1B
330
2
100
AcDbEntity
  8
0
100
AcDbLine
 10
111.6182579318151
 20
319.6200627050012
 30
0.0
 11
81.61844193181513
 21
319.6200627050012
 31
0.0
  0
ARC
  5
B1C
330
2
100
AcDbEntity
  8
0
100
AcDbCircle
 10
103.6183499318151
 20
300.2051147050011
 30
0.0
 40
2.0
100
AcDbArc
 50
180.0
 51
268.9999999999998
  0
LINE
  5
B1D
330
2
100
AcDbEntity
  8
0
100
AcDbLine
 10
104.3801299318152
 20
302.9268407050011
 30
0.0
 11
102.0472139318151
 21
298.9675667050012
 31
0.0
  0
LINE
  5
B1E
330
2
100
AcDbEntity
  8
CENTER
100
AcDbLine
 10
39.87973293181516
 20
313.1200627050012
 30
0.0
 11
153.3569669318151
 21
313.1200627050012
 31
0.0
  0
LINE
  5
B23
330
2
100
AcDbEntity
  8
0
100
AcDbLine
 10
81.61844193181513
 20
306.6200627050012
 30
0.0
 11
81.61844193181513
 21
319.6200627050012
 31
0.0
  0
LINE
  5
B24
330
2
100
AcDbEntity
  8
0
100
AcDbLine
 10
63.61844193181514
 20
307.1200627050012
 30
0.0
 11
61.61844193181514
 21
305.9653687050011
 31
0.0
  0
LINE
  5
B25
330
2
100
AcDbEntity
  8
0
100
AcDbLine
 10
61.21835593181515
 20
333.9700687050012
 30
0.0
 11
61.21835593181515
 21
292.2700567050012
 31
0.0
  0
LINE
  5
B26
330
2
100
AcDbEntity
  8
0
100
AcDbLine
 10
58.61834993181514
 20
291.5204837050012
 30
0.0
 11
58.61834993181514
 21
334.7196417050012
 31
0.0
  0
LINE
  5
B27
330
2
100
AcDbEntity
  8
0
100
AcDbLine
 10
61.61844193181514
 20
323.1200627050012
 30
0.0
 11
61.61844193181514
 21
303.1200627050012
 31
0.0
  0
LINE
  5
B28
330
2
100
AcDbEntity
  8
0
100
AcDbLine
 10
56.11834993181514
 20
352.9131387050012
 30
0.0
 11
56.11834993181514
 21
273.3269947050012
 31
0.0
  0
LINE
  5
B29
330
2
100
AcDbEntity
  8
PHAS
  6
SEKKEI_P_S
100
AcDbLine
 10
45.61834993181514
 20
326.0961677050012
 30
0.0
 11
45.61834993181514
 21
300.2070377050011
 31
0.0
  0
LINE
  5
B2A
330
2
100
AcDbEntity
  8
CENTER
100
AcDbLine
 10
96.61834993181514
 20
360.6681887050011
 30
0.0
 11
96.61834993181514
 21
265.5719367050012
 31
0.0
  0
LINE
  5
B2E
330
2
100
AcDbEntity
  8
0
100
AcDbLine
 10
56.11834993181514
 20
284.9498507050012
 30
0.0
 11
62.61834993181515
 21
285.1200627050011
 31
0.0
  0
LINE
  5
B31
330
2
100
AcDbEntity
  8
0
100
AcDbLine
 10
96.61834993181514
 20
272.6200627050011
 30
0.0
 11
56.11834993181514
 21
273.3269947050012
 31
0.0
  0
LINE
  5
B32
330
2
100
AcDbEntity
  8
PHAS
  6
SEKKEI_P_S
100
AcDbLine
 10
47.84189093181521
 20
297.2461767050011
 30
0.0
 11
61.21835593181515
 21
293.6619637050012
 31
0.0
  0
ARC
  5
B33
330
2
100
AcDbEntity
  8
PHAS
  6
SEKKEI_P_S
100
AcDbCircle
 10
48.61834993181514
 20
300.1439577050011
 30
0.0
 40
3.0
100
AcDbArc
 50
180.0
 51
254.9999999999996
  0
LINE
  5
B34
330
2
100
AcDbEntity
  8
0
100
AcDbLine
 10
68.61834993181514
 20
273.1088017050012
 30
0.0
 11
68.61834993181514
 21
294.0318517050012
 31
0.0
  0
LINE
  5
B37
330
2
100
AcDbEntity
  8
0
100
AcDbLine
 10
89.65326193181523
 20
297.9872347050012
 30
0.0
 11
73.74051193181514
 21
297.7094637050011
 31
0.0
  0
LINE
  5
B38
330
2
100
AcDbEntity
  8
0
100
AcDbLine
 10
87.32034593181515
 20
301.9465097050011
 30
0.0
 11
75.79260493181505
 21
301.7452917050011
 31
0.0
  0
ARC
  5
B3D
330
2
100
AcDbEntity
  8
0
100
AcDbCircle
 10
60.61834993181514
 20
291.5204837050012
 30
0.0
 40
2.0
100
AcDbArc
 50
180.0
 51
249.9999999999999
  0
LINE
  5
B41
330
2
100
AcDbEntity
  8
0
100
AcDbLine
 10
62.80240193181521
 20
288.5971977050012
 30
0.0
 11
59.93429793181508
 21
289.6410897050012
 31
0.0
  0
LINE
  5
B42
330
2
100
AcDbEntity
  8
0
100
AcDbLine
 10
61.61831893181511
 20
285.8200747050012
 30
0.0
 11
62.61834993181515
 21
285.8200747050012
 31
0.0
  0
LINE
  5
B43
330
2
100
AcDbEntity
  8
0
100
AcDbLine
 10
61.61831893181511
 20
285.8200747050012
 30
0.0
 11
61.61831893181511
 21
286.6503057050012
 31
0.0
  0
LINE
  5
B44
330
2
100
AcDbEntity
  8
0
100
AcDbLine
 10
57.61831893181511
 20
286.1200477050011
 30
0.0
 11
57.61831893181511
 21
287.1186127050011
 31
0.0
  0
LINE
  5
B45
330
2
100
AcDbEntity
  8
0
100
AcDbLine
 10
57.61831893181511
 20
286.1200477050011
 30
0.0
 11
61.61831893181511
 21
286.1200317050012
 31
0.0
  0
LINE
  5
B46
330
2
100
AcDbEntity
  8
0
100
AcDbLine
 10
62.61834993181515
 20
285.1200627050011
 30
0.0
 11
62.61834993181515
 21
286.3810717050012
 31
0.0
  0
LINE
  5
B49
330
2
100
AcDbEntity
  8
0
100
AcDbLine
 10
64.11834993181514
 20
286.5953587050012
 30
0.0
 11
64.11834993181514
 21
286.7178107050012
 31
0.0
  0
ARC
  5
B4A
330
2
100
AcDbEntity
  8
0
100
AcDbCircle
 10
62.11834993181515
 20
286.7178107050012
 30
0.0
 40
2.0
100
AcDbArc
 50
0.0
 51
69.99999200000009
  0
LINE
  5
B51
330
2
100
AcDbEntity
  8
0
100
AcDbLine
 10
61.61844193181514
 20
303.1200627050012
 30
0.0
 11
71.61834993181514
 21
303.1200627050012
 31
0.0
  0
LINE
  5
B52
330
2
100
AcDbEntity
  8
0
100
AcDbLine
 10
64.61834993181515
 20
297.1200627050011
 30
0.0
 11
71.61834993181514
 21
297.1200627050011
 31
0.0
  0
LINE
  5
B53
330
2
100
AcDbEntity
  8
0
100
AcDbLine
 10
64.61834993181515
 20
297.1200627050011
 30
0.0
 11
70.61834993181514
 21
303.1200627050012
 31
0.0
  0
LINE
  5
B54
330
2
100
AcDbEntity
  8
0
100
AcDbLine
 10
70.61834993181514
 20
297.1200627050011
 30
0.0
 11
64.61834993181515
 21
303.1200627050012
 31
0.0
  0
LINE
  5
B55
330
2
100
AcDbEntity
  8
0
100
AcDbLine
 10
64.61834993181515
 20
297.1200627050011
 30
0.0
 11
64.61834993181515
 21
303.1200627050012
 31
0.0
  0
LINE
  5
B56
330
2
100
AcDbEntity
  8
0
100
AcDbLine
 10
63.61834993181514
 20
292.2700567050012
 30
0.0
 11
63.61834993181514
 21
303.1200627050012
 31
0.0
  0
LINE
  5
B57
330
2
100
AcDbEntity
  8
0
100
AcDbLine
 10
61.21835593181515
 20
292.2700567050012
 30
0.0
 11
63.61834993181514
 21
292.2700567050012
 31
0.0
  0
LINE
  5
B58
330
2
100
AcDbEntity
  8
PHAS
100
AcDbLine
 10
62.41836793181517
 20
293.6200627050012
 30
0.0
 11
63.61834993181514
 21
293.6619637050012
 31
0.0
  0
ARC
  5
B59
330
2
100
AcDbEntity
  8
PHAS
100
AcDbCircle
 10
62.41836793181517
 20
293.8400637050012
 30
0.0
 40
1.219999999999999
100
AcDbArc
 50
188.3022610000003
 51
349.6111449999996
  0
LINE
  5
B5A
330
2
100
AcDbEntity
  8
0
100
AcDbLine
 10
58.61834993181514
 20
293.6200627050012
 30
0.0
 11
61.21835593181515
 21
293.6200627050012
 31
0.0
  0
LINE
  5
B5B
330
2
100
AcDbEntity
  8
PHAS
100
AcDbLine
 10
62.41836793181517
 20
293.6200627050012
 30
0.0
 11
61.21835593181515
 21
293.6619637050012
 31
0.0
  0
LINE
  5
B5C
330
2
100
AcDbEntity
  8
0
100
AcDbLine
 10
64.61834993181515
 20
297.1200627050011
 30
0.0
 11
63.61834993181514
 21
296.5427157050012
 31
0.0
  0
LINE
  5
B5E
330
2
100
AcDbEntity
  8
0
100
AcDbLine
 10
71.61834993181514
 20
296.3533547050012
 30
0.0
 11
71.61834993181514
 21
303.1200627050012
 31
0.0
  0
LINE
  5
B5F
330
2
100
AcDbEntity
  8
0
100
AcDbLine
 10
70.61834993181514
 20
297.1200627050011
 30
0.0
 11
70.61834993181514
 21
303.1200627050012
 31
0.0
  0
LINE
  5
B61
330
2
100
AcDbEntity
  8
0
100
AcDbLine
 10
71.61834993181514
 20
300.6200627050012
 30
0.0
 11
75.22046193181518
 21
300.6200627050012
 31
0.0
  0
ARC
  5
B68
330
2
100
AcDbEntity
  8
0
100
AcDbCircle
 10
89.61834993181515
 20
299.9869297050011
 30
0.0
 40
2.0
100
AcDbArc
 50
271.0000000000001
 51
0.0
  0
ARC
  5
B6A
330
2
100
AcDbEntity
  8
0
100
AcDbCircle
 10
87.28543393181508
 20
303.9462037050011
 30
0.0
 40
2.0
100
AcDbArc
 50
271.0000000000001
 51
330.0149539999998
  0
LINE
  5
B6B
330
2
100
AcDbEntity
  8
0
100
AcDbLine
 10
91.18948593181517
 20
298.7493657050011
 30
0.0
 11
88.85656993181511
 21
302.7086557050012
 31
0.0
  0
LINE
  5
B6D
330
2
100
AcDbEntity
  8
0
100
AcDbLine
 10
91.61834993181514
 20
299.9869297050011
 30
0.0
 11
91.61834993181514
 21
303.2100137050012
 31
0.0
  0
LINE
  5
B6E
330
2
100
AcDbEntity
  8
0
100
AcDbLine
 10
101.6183499318151
 20
300.2051147050011
 30
0.0
 11
101.6183499318151
 21
302.3914557050011
 31
0.0
  0
LINE
  5
B72
330
2
100
AcDbEntity
  8
0
100
AcDbLine
 10
56.11834993181514
 20
341.2902747050012
 30
0.0
 11
62.61834993181515
 21
341.1200627050011
 31
0.0
  0
LINE
  5
B74
330
2
100
AcDbEntity
  8
0
100
AcDbLine
 10
96.61834993181514
 20
353.6200627050011
 30
0.0
 11
56.11834993181514
 21
352.9131387050012
 31
0.0
  0
LINE
  5
B75
330
2
100
AcDbEntity
  8
PHAS
  6
SEKKEI_P_S
100
AcDbLine
 10
47.84189093181521
 20
328.9939487050012
 30
0.0
 11
61.21835593181515
 21
332.5781617050012
 31
0.0
  0
ARC
  5
B76
330
2
100
AcDbEntity
  8
PHAS
  6
SEKKEI_P_S
100
AcDbCircle
 10
48.61834993181514
 20
326.0961677050012
 30
0.0
 40
3.0
100
AcDbArc
 50
105.0000000000003
 51
180.0
  0
ARC
  5
B79
330
2
100
AcDbEntity
  8
0
100
AcDbCircle
 10
62.11834993181515
 20
339.5223147050012
 30
0.0
 40
2.0
100
AcDbArc
 50
290.0000079999999
 51
0.0
  0
LINE
  5
B7A
330
2
100
AcDbEntity
  8
0
100
AcDbLine
 10
57.61831893181511
 20
340.1200777050012
 30
0.0
 11
57.61831893181511
 21
339.1215127050012
 31
0.0
  0
LINE
  5
B7B
330
2
100
AcDbEntity
  8
0
100
AcDbLine
 10
68.61834993181514
 20
353.1313237050012
 30
0.0
 11
68.61834993181514
 21
332.2082887050012
 31
0.0
  0
LINE
  5
B7D
330
2
100
AcDbEntity
  8
0
100
AcDbLine
 10
89.65326193181523
 20
328.2529057050012
 30
0.0
 11
73.74051193181514
 21
328.5306617050011
 31
0.0
  0
LINE
  5
B7E
330
2
100
AcDbEntity
  8
0
100
AcDbLine
 10
87.32034593181515
 20
324.2936157050012
 30
0.0
 11
75.79260493181505
 21
324.4948337050012
 31
0.0
  0
LINE
  5
B7F
330
2
100
AcDbEntity
  8
0
100
AcDbLine
 10
69.61844193181514
 20
307.1200627050012
 30
0.0
 11
81.61844193181513
 21
307.1200627050012
 31
0.0
  0
LINE
  5
B80
330
2
100
AcDbEntity
  8
0
100
AcDbLine
 10
69.61844193181514
 20
318.7769227050011
 30
0.0
 11
81.61844193181513
 21
318.7769227050011
 31
0.0
  0
LINE
  5
B81
330
2
100
AcDbEntity
  8
0
100
AcDbLine
 10
63.61844193181514
 20
318.7769227050011
 30
0.0
 11
68.46844793181515
 21
318.7769227050011
 31
0.0
  0
LINE
  5
B82
330
2
100
AcDbEntity
  8
0
100
AcDbLine
 10
63.61844193181514
 20
307.1200627050012
 30
0.0
 11
68.46844793181515
 21
307.1200627050012
 31
0.0
  0
LINE
  5
B83
330
2
100
AcDbEntity
  8
0
100
AcDbLine
 10
63.61844193181514
 20
307.1200627050012
 30
0.0
 11
63.61844193181514
 21
319.1200627050012
 31
0.0
  0
LINE
  5
B84
330
2
100
AcDbEntity
  8
0
100
AcDbLine
 10
63.61844193181514
 20
319.1200627050012
 30
0.0
 11
61.61844193181514
 21
320.2747717050011
 31
0.0
  0
LINE
  5
B85
330
2
100
AcDbEntity
  8
0
100
AcDbLine
 10
69.61844193181514
 20
306.8700627050012
 30
0.0
 11
69.61844193181514
 21
319.3700627050012
 31
0.0
  0
LINE
  5
B86
330
2
100
AcDbEntity
  8
0
100
AcDbLine
 10
68.46844793181515
 20
306.8700627050012
 30
0.0
 11
68.46844793181515
 21
319.3700627050012
 31
0.0
  0
LINE
  5
B87
330
2
100
AcDbEntity
  8
0
100
AcDbLine
 10
68.46844793181515
 20
306.8700627050012
 30
0.0
 11
69.61844193181514
 21
306.8700627050012
 31
0.0
  0
LINE
  5
B88
330
2
100
AcDbEntity
  8
0
100
AcDbLine
 10
68.46844793181515
 20
319.3700627050012
 30
0.0
 11
69.61844193181514
 21
319.3700627050012
 31
0.0
  0
LINE
  5
B8A
330
2
100
AcDbEntity
  8
0
100
AcDbLine
 10
64.61834993181515
 20
329.1200627050012
 30
0.0
 11
71.61834993181514
 21
329.1200627050012
 31
0.0
  0
LINE
  5
B8B
330
2
100
AcDbEntity
  8
0
100
AcDbLine
 10
61.61844193181514
 20
323.1200627050012
 30
0.0
 11
71.61834993181514
 21
323.1200627050012
 31
0.0
  0
LINE
  5
B8C
330
2
100
AcDbEntity
  8
0
100
AcDbLine
 10
64.61834993181515
 20
329.1200627050012
 30
0.0
 11
70.61834993181514
 21
323.1200627050012
 31
0.0
  0
LINE
  5
B8D
330
2
100
AcDbEntity
  8
0
100
AcDbLine
 10
70.61834993181514
 20
329.1200627050012
 30
0.0
 11
64.61834993181515
 21
323.1200627050012
 31
0.0
  0
LINE
  5
B8E
330
2
100
AcDbEntity
  8
0
100
AcDbLine
 10
63.61834993181514
 20
333.9700687050012
 30
0.0
 11
63.61834993181514
 21
323.1200627050012
 31
0.0
  0
LINE
  5
B8F
330
2
100
AcDbEntity
  8
0
100
AcDbLine
 10
64.61834993181515
 20
329.1200627050012
 30
0.0
 11
64.61834993181515
 21
323.1200627050012
 31
0.0
  0
LINE
  5
B90
330
2
100
AcDbEntity
  8
0
100
AcDbLine
 10
64.61834993181515
 20
329.1200627050012
 30
0.0
 11
63.61834993181514
 21
329.6974097050011
 31
0.0
  0
LINE
  5
B91
330
2
100
AcDbEntity
  8
0
100
AcDbLine
 10
61.21835593181515
 20
333.9700687050012
 30
0.0
 11
63.61834993181514
 21
333.9700687050012
 31
0.0
  0
LINE
  5
B92
330
2
100
AcDbEntity
  8
0
100
AcDbLine
 10
62.80240193181521
 20
337.6429357050012
 30
0.0
 11
59.93429793181508
 21
336.5990357050012
 31
0.0
  0
LINE
  5
B93
330
2
100
AcDbEntity
  8
PHAS
100
AcDbLine
 10
62.41836793181517
 20
332.6200627050011
 30
0.0
 11
63.61834993181514
 21
332.5781617050012
 31
0.0
  0
ARC
  5
B94
330
2
100
AcDbEntity
  8
PHAS
100
AcDbCircle
 10
62.41836793181517
 20
332.4000617050012
 30
0.0
 40
1.219999999999999
100
AcDbArc
 50
10.38885499999955
 51
171.6977389999996
  0
ARC
  5
B95
330
2
100
AcDbEntity
  8
0
100
AcDbCircle
 10
60.61834993181514
 20
334.7196417050012
 30
0.0
 40
2.0
100
AcDbArc
 50
110.0
 51
180.0
  0
LINE
  5
B96
330
2
100
AcDbEntity
  8
0
100
AcDbLine
 10
58.61834993181514
 20
332.6200627050011
 30
0.0
 11
61.21835593181515
 21
332.6200627050011
 31
0.0
  0
LINE
  5
B97
330
2
100
AcDbEntity
  8
PHAS
100
AcDbLine
 10
62.41836793181517
 20
332.6200627050011
 30
0.0
 11
61.21835593181515
 21
332.5781617050012
 31
0.0
  0
LINE
  5
B9A
330
2
100
AcDbEntity
  8
0
100
AcDbLine
 10
71.61834993181514
 20
325.6200627050012
 30
0.0
 11
75.22046193181518
 21
325.6200627050012
 31
0.0
  0
LINE
  5
B9B
330
2
100
AcDbEntity
  8
0
100
AcDbLine
 10
71.61834993181514
 20
323.1200627050012
 30
0.0
 11
71.61834993181514
 21
329.8867707050011
 31
0.0
  0
LINE
  5
B9C
330
2
100
AcDbEntity
  8
0
100
AcDbLine
 10
70.61834993181514
 20
329.1200627050012
 30
0.0
 11
70.61834993181514
 21
323.1200627050012
 31
0.0
  0
LINE
  5
BA1
330
2
100
AcDbEntity
  8
0
100
AcDbLine
 10
91.61834993181514
 20
323.0301117050012
 30
0.0
 11
91.61834993181514
 21
326.2531957050011
 31
0.0
  0
ARC
  5
BA2
330
2
100
AcDbEntity
  8
0
100
AcDbCircle
 10
89.61834993181515
 20
326.2531957050011
 30
0.0
 40
2.0
100
AcDbArc
 50
0.0
 51
88.99999999999986
  0
LINE
  5
BA3
330
2
100
AcDbEntity
  8
0
100
AcDbLine
 10
88.85656993181511
 20
323.5314697050012
 30
0.0
 11
91.18948593181517
 21
327.4907597050012
 31
0.0
  0
ARC
  5
BA4
330
2
100
AcDbEntity
  8
0
100
AcDbCircle
 10
87.28543393181508
 20
322.2939217050012
 30
0.0
 40
2.0
100
AcDbArc
 50
29.98505200000009
 51
88.99999999999986
  0
LINE
  5
BA5
330
2
100
AcDbEntity
  8
0
100
AcDbLine
 10
101.6183499318151
 20
326.0350107050012
 30
0.0
 11
101.6183499318151
 21
323.8486697050012
 31
0.0
  0
LINE
  5
BAC
330
2
100
AcDbEntity
  8
0
100
AcDbLine
 10
61.61831893181511
 20
340.4200507050012
 30
0.0
 11
62.61834993181515
 21
340.4200507050012
 31
0.0
  0
LINE
  5
BAD
330
2
100
AcDbEntity
  8
0
100
AcDbLine
 10
57.61831893181511
 20
340.1200777050012
 30
0.0
 11
61.61831893181511
 21
340.1200937050012
 31
0.0
  0
LINE
  5
BAE
330
2
100
AcDbEntity
  8
0
100
AcDbLine
 10
61.61831893181511
 20
340.4200507050012
 30
0.0
 11
61.61831893181511
 21
339.5898197050012
 31
0.0
  0
LINE
  5
BB0
330
2
100
AcDbEntity
  8
0
100
AcDbLine
 10
64.11834993181514
 20
339.6447667050011
 30
0.0
 11
64.11834993181514
 21
339.5223147050012
 31
0.0
  0
LINE
  5
BB1
330
2
100
AcDbEntity
  8
0
100
AcDbLine
 10
62.61834993181515
 20
341.1200627050011
 30
0.0
 11
62.61834993181515
 21
339.8590607050012
 31
0.0
  0
LINE
  5
BBC
330
2
100
AcDbEntity
  8
0
100
AcDbLine
 10
132.0183439318152
 20
333.9700687050012
 30
0.0
 11
132.0183439318152
 21
292.2700567050012
 31
0.0
  0
LINE
  5
BBD
330
2
100
AcDbEntity
  8
0
100
AcDbLine
 10
134.6183499318151
 20
291.5204837050012
 30
0.0
 11
134.6183499318151
 21
334.7196417050012
 31
0.0
  0
LINE
  5
BBE
330
2
100
AcDbEntity
  8
0
100
AcDbLine
 10
131.6182579318151
 20
323.1200627050012
 30
0.0
 11
131.6182579318151
 21
303.1200627050012
 31
0.0
  0
LINE
  5
BBF
330
2
100
AcDbEntity
  8
0
100
AcDbLine
 10
111.6182579318151
 20
306.6200627050012
 30
0.0
 11
111.6182579318151
 21
319.6200627050012
 31
0.0
  0
LINE
  5
BC0
330
2
100
AcDbEntity
  8
0
100
AcDbLine
 10
137.1183499318151
 20
352.9131387050012
 30
0.0
 11
137.1183499318151
 21
273.3269947050012
 31
0.0
  0
LINE
  5
BC1
330
2
100
AcDbEntity
  8
0
100
AcDbLine
 10
129.6182579318151
 20
307.1200627050012
 30
0.0
 11
131.6182579318151
 21
305.9653687050011
 31
0.0
  0
LINE
  5
BC2
330
2
100
AcDbEntity
  8
PHAS
  6
SEKKEI_P_S
100
AcDbLine
 10
147.6183499318151
 20
326.0961677050012
 30
0.0
 11
147.6183499318151
 21
300.2070377050011
 31
0.0
  0
LINE
  5
BC8
330
2
100
AcDbEntity
  8
0
100
AcDbLine
 10
131.6182579318151
 20
303.1200627050012
 30
0.0
 11
121.6183499318151
 21
303.1200627050012
 31
0.0
  0
LINE
  5
BC9
330
2
100
AcDbEntity
  8
0
100
AcDbLine
 10
128.6183499318151
 20
297.1200627050011
 30
0.0
 11
121.6183499318151
 21
297.1200627050011
 31
0.0
  0
LINE
  5
BCA
330
2
100
AcDbEntity
  8
0
100
AcDbLine
 10
128.6183499318151
 20
297.1200627050011
 30
0.0
 11
122.6183499318151
 21
303.1200627050012
 31
0.0
  0
LINE
  5
BCB
330
2
100
AcDbEntity
  8
0
100
AcDbLine
 10
122.6183499318151
 20
297.1200627050011
 30
0.0
 11
128.6183499318151
 21
303.1200627050012
 31
0.0
  0
LINE
  5
BD7
330
2
100
AcDbEntity
  8
0
100
AcDbLine
 10
103.583437931815
 20
298.2054207050012
 30
0.0
 11
118.8880949318152
 21
297.9382697050011
 31
0.0
  0
LINE
  5
BD8
330
2
100
AcDbEntity
  8
0
100
AcDbLine
 10
105.9163539318151
 20
302.1646947050012
 30
0.0
 11
118.1903409318151
 21
301.9504457050012
 31
0.0
  0
ARC
  5
BDA
330
2
100
AcDbEntity
  8
0
100
AcDbCircle
 10
105.9512659318152
 20
304.1643897050012
 30
0.0
 40
2.0
100
AcDbArc
 50
215.5904389999999
 51
268.9999999999998
  0
LINE
  5
BDC
330
2
100
AcDbEntity
  8
0
100
AcDbLine
 10
121.6183499318151
 20
296.0857307050011
 30
0.0
 11
121.6183499318151
 21
303.1200627050012
 31
0.0
  0
LINE
  5
BDD
330
2
100
AcDbEntity
  8
0
100
AcDbLine
 10
122.6183499318151
 20
297.1200627050011
 30
0.0
 11
122.6183499318151
 21
303.1200627050012
 31
0.0
  0
LINE
  5
BDF
330
2
100
AcDbEntity
  8
0
100
AcDbLine
 10
121.6183499318151
 20
300.6200627050012
 30
0.0
 11
118.4216949318151
 21
300.6200627050012
 31
0.0
  0
ARC
  5
BE0
330
2
100
AcDbEntity
  8
0
100
AcDbCircle
 10
132.6183499318151
 20
291.5204837050012
 30
0.0
 40
2.0
100
AcDbArc
 50
290.0
 51
0.0
  0
LINE
  5
BE3
330
2
100
AcDbEntity
  8
0
100
AcDbLine
 10
130.4342069318151
 20
288.5971597050012
 30
0.0
 11
133.3024019318151
 21
289.6410897050012
 31
0.0
  0
ARC
  5
BE4
330
2
100
AcDbEntity
  8
0
100
AcDbCircle
 10
131.1182579318151
 20
286.7177727050012
 30
0.0
 40
2.0
100
AcDbArc
 50
110.0000079999999
 51
180.0
  0
LINE
  5
BE5
330
2
100
AcDbEntity
  8
0
100
AcDbLine
 10
129.1182579318151
 20
286.2651587050012
 30
0.0
 11
129.1182579318151
 21
286.7177727050012
 31
0.0
  0
LINE
  5
BE8
330
2
100
AcDbEntity
  8
PHAS
  6
SEKKEI_P_S
100
AcDbLine
 10
145.394808931815
 20
297.2461767050011
 30
0.0
 11
132.0183439318152
 21
293.6619637050012
 31
0.0
  0
LINE
  5
BE9
330
2
100
AcDbEntity
  8
0
100
AcDbLine
 10
128.6183499318151
 20
297.1200627050011
 30
0.0
 11
128.6183499318151
 21
303.1200627050012
 31
0.0
  0
LINE
  5
BEA
330
2
100
AcDbEntity
  8
0
100
AcDbLine
 10
129.6183499318151
 20
292.2700567050012
 30
0.0
 11
129.6183499318151
 21
303.1200627050012
 31
0.0
  0
LINE
  5
BEB
330
2
100
AcDbEntity
  8
0
100
AcDbLine
 10
134.6183499318151
 20
293.6200627050012
 30
0.0
 11
132.0183439318152
 21
293.6200627050012
 31
0.0
  0
LINE
  5
BEC
330
2
100
AcDbEntity
  8
0
100
AcDbLine
 10
132.0183439318152
 20
292.2700567050012
 30
0.0
 11
129.6183499318151
 21
292.2700567050012
 31
0.0
  0
LINE
  5
BED
330
2
100
AcDbEntity
  8
PHAS
100
AcDbLine
 10
130.8183319318152
 20
293.6200627050012
 30
0.0
 11
129.6183499318151
 21
293.6619637050012
 31
0.0
  0
LINE
  5
BEE
330
2
100
AcDbEntity
  8
PHAS
100
AcDbLine
 10
130.8183319318152
 20
293.6200627050012
 30
0.0
 11
132.0183439318152
 21
293.6619637050012
 31
0.0
  0
ARC
  5
BEF
330
2
100
AcDbEntity
  8
PHAS
100
AcDbCircle
 10
130.8183319318152
 20
293.8400637050012
 30
0.0
 40
1.219999999999999
100
AcDbArc
 50
190.3888549999995
 51
351.6977369999999
  0
LINE
  5
BF0
330
2
100
AcDbEntity
  8
0
100
AcDbLine
 10
128.6183499318151
 20
297.1200627050011
 30
0.0
 11
129.6183499318151
 21
296.5427157050012
 31
0.0
  0
ARC
  5
BF1
330
2
100
AcDbEntity
  8
PHAS
  6
SEKKEI_P_S
100
AcDbCircle
 10
144.6183499318151
 20
300.1439577050011
 30
0.0
 40
3.0
100
AcDbArc
 50
285.0000000000004
 51
0.0
  0
ARC
  5
BF3
330
2
100
AcDbEntity
  8
0
100
AcDbCircle
 10
131.1182579318151
 20
339.5223457050012
 30
0.0
 40
2.0
100
AcDbArc
 50
180.0
 51
249.9999999999999
  0
LINE
  5
BF4
330
2
100
AcDbEntity
  8
0
100
AcDbLine
 10
128.6183499318151
 20
329.1200627050012
 30
0.0
 11
121.6183499318151
 21
329.1200627050012
 31
0.0
  0
LINE
  5
BF5
330
2
100
AcDbEntity
  8
0
100
AcDbLine
 10
131.6182579318151
 20
323.1200627050012
 30
0.0
 11
121.6183499318151
 21
323.1200627050012
 31
0.0
  0
LINE
  5
BF6
330
2
100
AcDbEntity
  8
0
100
AcDbLine
 10
129.6182579318151
 20
318.7769227050011
 30
0.0
 11
124.768251931815
 21
318.7769227050011
 31
0.0
  0
LINE
  5
BF7
330
2
100
AcDbEntity
  8
0
100
AcDbLine
 10
128.6183499318151
 20
329.1200627050012
 30
0.0
 11
122.6183499318151
 21
323.1200627050012
 31
0.0
  0
LINE
  5
BF8
330
2
100
AcDbEntity
  8
0
100
AcDbLine
 10
122.6183499318151
 20
329.1200627050012
 30
0.0
 11
128.6183499318151
 21
323.1200627050012
 31
0.0
  0
LINE
  5
BF9
330
2
100
AcDbEntity
  8
0
100
AcDbLine
 10
129.6182579318151
 20
307.1200627050012
 30
0.0
 11
124.768251931815
 21
307.1200627050012
 31
0.0
  0
LINE
  5
BFB
330
2
100
AcDbEntity
  8
0
100
AcDbLine
 10
123.6182579318151
 20
318.7769227050011
 30
0.0
 11
111.6182579318151
 21
318.7769227050011
 31
0.0
  0
LINE
  5
BFC
330
2
100
AcDbEntity
  8
0
100
AcDbLine
 10
123.6182579318151
 20
307.1200627050012
 30
0.0
 11
111.6182579318151
 21
307.1200627050012
 31
0.0
  0
LINE
  5
BFD
330
2
100
AcDbEntity
  8
0
100
AcDbLine
 10
123.6182579318151
 20
306.8700627050012
 30
0.0
 11
123.6182579318151
 21
319.3700627050012
 31
0.0
  0
LINE
  5
BFE
330
2
100
AcDbEntity
  8
0
100
AcDbLine
 10
124.768251931815
 20
306.8700627050012
 30
0.0
 11
124.768251931815
 21
319.3700627050012
 31
0.0
  0
LINE
  5
BFF
330
2
100
AcDbEntity
  8
0
100
AcDbLine
 10
124.768251931815
 20
306.8700627050012
 30
0.0
 11
123.6182579318151
 21
306.8700627050012
 31
0.0
  0
LINE
  5
C00
330
2
100
AcDbEntity
  8
0
100
AcDbLine
 10
124.768251931815
 20
319.3700627050012
 30
0.0
 11
123.6182579318151
 21
319.3700627050012
 31
0.0
  0
LINE
  5
C02
330
2
100
AcDbEntity
  8
0
100
AcDbLine
 10
103.583437931815
 20
328.0347047050012
 30
0.0
 11
118.8880949318152
 21
328.3018557050012
 31
0.0
  0
LINE
  5
C03
330
2
100
AcDbEntity
  8
0
100
AcDbLine
 10
105.9163539318151
 20
324.0754307050011
 30
0.0
 11
118.1903409318151
 21
324.2896797050011
 31
0.0
  0
ARC
  5
C04
330
2
100
AcDbEntity
  8
0
100
AcDbCircle
 10
105.9512659318152
 20
322.0757357050012
 30
0.0
 40
2.0
100
AcDbArc
 50
91.00000000000013
 51
144.4095609999999
  0
LINE
  5
C06
330
2
100
AcDbEntity
  8
0
100
AcDbLine
 10
121.6183499318151
 20
325.6200627050012
 30
0.0
 11
118.4216949318151
 21
325.6200627050012
 31
0.0
  0
LINE
  5
C08
330
2
100
AcDbEntity
  8
0
100
AcDbLine
 10
121.6183499318151
 20
323.1200627050012
 30
0.0
 11
121.6183499318151
 21
330.1543947050012
 31
0.0
  0
LINE
  5
C09
330
2
100
AcDbEntity
  8
0
100
AcDbLine
 10
122.6183499318151
 20
329.1200627050012
 30
0.0
 11
122.6183499318151
 21
323.1200627050012
 31
0.0
  0
LINE
  5
C0B
330
2
100
AcDbEntity
  8
0
100
AcDbLine
 10
129.6182579318151
 20
307.1200627050012
 30
0.0
 11
129.6182579318151
 21
319.1200627050012
 31
0.0
  0
LINE
  5
C0C
330
2
100
AcDbEntity
  8
0
100
AcDbLine
 10
129.6182579318151
 20
319.1200627050012
 30
0.0
 11
131.6182579318151
 21
320.2747717050011
 31
0.0
  0
LINE
  5
C0D
330
2
100
AcDbEntity
  8
PHAS
  6
SEKKEI_P_S
100
AcDbLine
 10
145.394808931815
 20
328.9939487050012
 30
0.0
 11
132.0183439318152
 21
332.5781617050012
 31
0.0
  0
LINE
  5
C0E
330
2
100
AcDbEntity
  8
0
100
AcDbLine
 10
129.6183499318151
 20
333.9700687050012
 30
0.0
 11
129.6183499318151
 21
323.1200627050012
 31
0.0
  0
LINE
  5
C0F
330
2
100
AcDbEntity
  8
0
100
AcDbLine
 10
128.6183499318151
 20
329.1200627050012
 30
0.0
 11
128.6183499318151
 21
323.1200627050012
 31
0.0
  0
LINE
  5
C10
330
2
100
AcDbEntity
  8
0
100
AcDbLine
 10
128.6183499318151
 20
329.1200627050012
 30
0.0
 11
129.6183499318151
 21
329.6974097050011
 31
0.0
  0
LINE
  5
C11
330
2
100
AcDbEntity
  8
0
100
AcDbLine
 10
130.4342069318151
 20
337.6429657050012
 30
0.0
 11
133.3024019318151
 21
336.5990357050012
 31
0.0
  0
LINE
  5
C12
330
2
100
AcDbEntity
  8
0
100
AcDbLine
 10
134.6183499318151
 20
332.6200627050011
 30
0.0
 11
132.0183439318152
 21
332.6200627050011
 31
0.0
  0
LINE
  5
C13
330
2
100
AcDbEntity
  8
0
100
AcDbLine
 10
132.0183439318152
 20
333.9700687050012
 30
0.0
 11
129.6183499318151
 21
333.9700687050012
 31
0.0
  0
LINE
  5
C14
330
2
100
AcDbEntity
  8
PHAS
100
AcDbLine
 10
130.8183319318152
 20
332.6200627050011
 30
0.0
 11
132.0183439318152
 21
332.5781617050012
 31
0.0
  0
LINE
  5
C15
330
2
100
AcDbEntity
  8
PHAS
100
AcDbLine
 10
130.8183319318152
 20
332.6200627050011
 30
0.0
 11
129.6183499318151
 21
332.5781617050012
 31
0.0
  0
ARC
  5
C16
330
2
100
AcDbEntity
  8
PHAS
100
AcDbCircle
 10
130.8183319318152
 20
332.4000617050012
 30
0.0
 40
1.219999999999999
100
AcDbArc
 50
8.302276999999669
 51
169.6111449999996
  0
ARC
  5
C17
330
2
100
AcDbEntity
  8
0
100
AcDbCircle
 10
132.6183499318151
 20
334.7196417050012
 30
0.0
 40
2.0
100
AcDbArc
 50
0.0
 51
69.99999999999992
  0
ARC
  5
C18
330
2
100
AcDbEntity
  8
PHAS
  6
SEKKEI_P_S
100
AcDbCircle
 10
144.6183499318151
 20
326.0961677050012
 30
0.0
 40
3.0
100
AcDbArc
 50
0.0
 51
74.99999999999961
  0
LINE
  5
C27
330
2
100
AcDbEntity
  8
0
100
AcDbLine
 10
129.1182579318151
 20
339.9749667050012
 30
0.0
 11
129.1182579318151
 21
339.5223457050012
 31
0.0
  0
LINE
  5
1618
330
2
100
AcDbEntity
  8
0
100
AcDbLine
 10
345.2307318237783
 20
152.4460290404773
 30
0.0
 11
345.2307318237783
 21
134.0984330404773
 31
0.0
  0
LINE
  5
161D
330
2
100
AcDbEntity
  8
0
100
AcDbLine
 10
347.5637398237783
 20
130.1390220404772
 30
0.0
 11
347.5637398237783
 21
156.4054400404772
 31
0.0
  0
LINE
  5
161E
330
2
100
AcDbEntity
  8
0
100
AcDbLine
 10
324.5637398237783
 20
131.7722310404773
 30
0.0
 11
312.0637398237783
 21
131.7722310404773
 31
0.0
  0
LINE
  5
161F
330
2
100
AcDbEntity
  8
0
100
AcDbLine
 10
324.5637398237783
 20
127.7722310404773
 30
0.0
 11
312.0637398237783
 21
127.7722310404773
 31
0.0
  0
LINE
  5
1623
330
2
100
AcDbEntity
  8
0
100
AcDbLine
 10
312.0637398237783
 20
124.4424280404772
 30
0.0
 11
318.5637398237783
 21
124.2722310404773
 31
0.0
  0
LINE
  5
1624
330
2
100
AcDbEntity
  8
0
100
AcDbLine
 10
313.5637398237784
 20
123.2722310404773
 30
0.0
 11
317.5637398237784
 21
123.2722310404773
 31
0.0
  0
LINE
  5
1625
330
2
100
AcDbEntity
  8
CENTER
100
AcDbLine
 10
311.6241338237784
 20
119.7722310404773
 30
0.0
 11
319.6087528237783
 21
119.7722310404773
 31
0.0
  0
LINE
  5
1626
330
2
100
AcDbEntity
  8
0
100
AcDbLine
 10
313.5637398237784
 20
117.7887416832324
 30
0.0
 11
313.5637398237784
 21
123.2722310404773
 31
0.0
  0
LINE
  5
1627
330
2
100
AcDbEntity
  8
0
100
AcDbLine
 10
317.5637398237784
 20
123.5722190404773
 30
0.0
 11
318.5637398237783
 21
123.5722190404773
 31
0.0
  0
LINE
  5
1628
330
2
100
AcDbEntity
  8
0
100
AcDbLine
 10
318.5637398237783
 20
118.0255030273984
 30
0.0
 11
318.5637398237783
 21
124.2722310404773
 31
0.0
  0
LINE
  5
1629
330
2
100
AcDbEntity
  8
0
100
AcDbLine
 10
317.5637398237784
 20
117.8994526072303
 30
0.0
 11
317.5637398237784
 21
123.5722190404773
 31
0.0
  0
LINE
  5
1631
330
2
100
AcDbEntity
  8
0
100
AcDbLine
 10
343.2657358237784
 20
132.0986160404773
 30
0.0
 11
324.5637398237783
 21
131.7722310404773
 31
0.0
  0
LINE
  5
1632
330
2
100
AcDbEntity
  8
0
100
AcDbLine
 10
345.5987438237784
 20
128.1394190404773
 30
0.0
 11
324.5637398237783
 21
127.7722310404773
 31
0.0
  0
LINE
  5
1633
330
2
100
AcDbEntity
  8
0
100
AcDbLine
 10
347.1349378237783
 20
128.9016260404773
 30
0.0
 11
344.8019298237784
 21
132.8608240404773
 31
0.0
  0
ARC
  5
1634
330
2
100
AcDbEntity
  8
0
100
AcDbCircle
 10
345.5637398237783
 20
130.1390220404772
 30
0.0
 40
2.0
100
AcDbArc
 50
271.0000000000001
 51
0.0
  0
ARC
  5
1635
330
2
100
AcDbEntity
  8
0
100
AcDbCircle
 10
343.2307318237783
 20
134.0984330404773
 30
0.0
 40
2.0
100
AcDbArc
 50
271.0000000000001
 51
0.0
  0
LINE
  5
1639
330
2
100
AcDbEntity
  8
0
100
AcDbLine
 10
324.5637398237783
 20
158.7722310404773
 30
0.0
 11
312.0637398237783
 21
158.7722310404773
 31
0.0
  0
LINE
  5
163A
330
2
100
AcDbEntity
  8
0
100
AcDbLine
 10
324.5637398237783
 20
154.7722310404773
 30
0.0
 11
312.0637398237783
 21
154.7722310404773
 31
0.0
  0
LINE
  5
163B
330
2
100
AcDbEntity
  8
CENTER
100
AcDbLine
 10
311.6241338237784
 20
166.7722310404773
 30
0.0
 11
319.6087528237783
 21
166.7722310404773
 31
0.0
  0
LINE
  5
163C
330
2
100
AcDbEntity
  8
0
100
AcDbLine
 10
313.5637398237784
 20
163.2722310404773
 30
0.0
 11
317.5637398237784
 21
163.2722310404773
 31
0.0
  0
LINE
  5
163D
330
2
100
AcDbEntity
  8
0
100
AcDbLine
 10
312.0637398237783
 20
171.4424280404772
 30
0.0
 11
318.5637398237783
 21
171.2722310404773
 31
0.0
  0
LINE
  5
163E
330
2
100
AcDbEntity
  8
0
100
AcDbLine
 10
313.5637398237784
 20
170.2722310404773
 30
0.0
 11
317.5637398237784
 21
170.2722310404773
 31
0.0
  0
LINE
  5
163F
330
2
100
AcDbEntity
  8
0
100
AcDbLine
 10
312.0637398237783
 20
162.1020340404772
 30
0.0
 11
318.5637398237783
 21
162.2722310404773
 31
0.0
  0
LINE
  5
1640
330
2
100
AcDbEntity
  8
0
100
AcDbLine
 10
313.5637398237784
 20
170.2722310404773
 30
0.0
 11
313.5637398237784
 21
163.2722310404773
 31
0.0
  0
LINE
  5
1641
330
2
100
AcDbEntity
  8
0
100
AcDbLine
 10
317.5637398237784
 20
170.5722190404773
 30
0.0
 11
318.5637398237783
 21
170.5722190404773
 31
0.0
  0
LINE
  5
1643
330
2
100
AcDbEntity
  8
0
100
AcDbLine
 10
317.5637398237784
 20
170.5722190404773
 30
0.0
 11
317.5637398237784
 21
162.9722430404773
 31
0.0
  0
LINE
  5
1644
330
2
100
AcDbEntity
  8
0
100
AcDbLine
 10
318.5637398237783
 20
171.2722310404773
 30
0.0
 11
318.5637398237783
 21
162.2722310404773
 31
0.0
  0
LINE
  5
1648
330
2
100
AcDbEntity
  8
0
100
AcDbLine
 10
345.5987438237784
 20
158.4050430404773
 30
0.0
 11
324.5637398237783
 21
158.7722310404773
 31
0.0
  0
LINE
  5
1649
330
2
100
AcDbEntity
  8
0
100
AcDbLine
 10
343.2657358237784
 20
154.4458460404773
 30
0.0
 11
324.5637398237783
 21
154.7722310404773
 31
0.0
  0
ARC
  5
164B
330
2
100
AcDbEntity
  8
0
100
AcDbCircle
 10
345.5637398237783
 20
156.4054400404772
 30
0.0
 40
2.0
100
AcDbArc
 50
0.0
 51
88.99999999999987
  0
LINE
  5
164C
330
2
100
AcDbEntity
  8
0
100
AcDbLine
 10
344.8019298237784
 20
153.6836380404773
 30
0.0
 11
347.1349378237783
 21
157.6428360404772
 31
0.0
  0
ARC
  5
164D
330
2
100
AcDbEntity
  8
0
100
AcDbCircle
 10
343.2307318237783
 20
152.4460290404773
 30
0.0
 40
2.0
100
AcDbArc
 50
0.0
 51
88.99999999999987
  0
LINE
  5
1651
330
2
100
AcDbEntity
  8
0
100
AcDbLine
 10
359.8967478237784
 20
152.2278280404772
 30
0.0
 11
359.8967478237784
 21
134.3166340404772
 31
0.0
  0
LINE
  5
1653
330
2
100
AcDbEntity
  8
0
100
AcDbLine
 10
357.5637398237784
 20
156.1872400404773
 30
0.0
 11
357.5637398237784
 21
130.3572220404773
 31
0.0
  0
LINE
  5
1657
330
2
100
AcDbEntity
  8
0
100
AcDbLine
 10
361.8617438237784
 20
132.3168170404773
 30
0.0
 11
393.0637398237784
 21
131.7722310404773
 31
0.0
  0
LINE
  5
1658
330
2
100
AcDbEntity
  8
0
100
AcDbLine
 10
359.5287358237783
 20
128.3576190404773
 30
0.0
 11
393.0637398237784
 21
127.7722310404773
 31
0.0
  0
LINE
  5
165D
330
2
100
AcDbEntity
  8
0
100
AcDbLine
 10
360.3255498237783
 20
133.0790240404773
 30
0.0
 11
357.9925418237784
 21
129.1198260404773
 31
0.0
  0
ARC
  5
165E
330
2
100
AcDbEntity
  8
0
100
AcDbCircle
 10
359.5637398237784
 20
130.3572220404773
 30
0.0
 40
2.0
100
AcDbArc
 50
180.0
 51
268.9999999999998
  0
ARC
  5
165F
330
2
100
AcDbEntity
  8
0
100
AcDbCircle
 10
361.8967478237784
 20
134.3166340404772
 30
0.0
 40
2.0
100
AcDbArc
 50
180.0
 51
268.9999999999998
  0
LINE
  5
1660
330
2
100
AcDbEntity
  8
0
100
AcDbLine
 10
359.5287358237783
 20
158.1868430404774
 30
0.0
 11
393.0637398237784
 21
158.7722310404773
 31
0.0
  0
LINE
  5
1663
330
2
100
AcDbEntity
  8
0
100
AcDbLine
 10
361.8617438237784
 20
154.2276450404774
 30
0.0
 11
393.0637398237784
 21
154.7722310404773
 31
0.0
  0
ARC
  5
1666
330
2
100
AcDbEntity
  8
0
100
AcDbCircle
 10
359.5637398237784
 20
156.1872400404773
 30
0.0
 40
2.0
100
AcDbArc
 50
91.00000000000013
 51
180.0
  0
ARC
  5
1667
330
2
100
AcDbEntity
  8
0
100
AcDbCircle
 10
361.8967478237784
 20
152.2278280404772
 30
0.0
 40
2.0
100
AcDbArc
 50
91.00000000000013
 51
180.0
  0
LINE
  5
1668
330
2
100
AcDbEntity
  8
0
100
AcDbLine
 10
360.3255498237783
 20
153.4654380404773
 30
0.0
 11
357.9925418237784
 21
157.4246360404773
 31
0.0
  0
LWPOLYLINE
  5
27CB
330
2
100
AcDbEntity
  8
HOJO
100
AcDbPolyline
 90
       21
 70
     0
 43
0.0
 10
56.11834993181514
 20
339.1801057050012
 10
59.59247093181511
 20
339.0443947050012
 10
63.18625193181515
 20
340.0119537050012
 10
66.49218993181512
 20
338.7096167050011
 10
66.65173593181521
 20
334.8808657050012
 10
69.76257593181514
 20
330.6532807050011
 10
73.43179593181514
 20
329.1377477050011
 10
75.82477093181513
 20
324.4315707050012
 10
80.45117493181511
 20
322.8362497050012
 10
87.23126493181508
 20
323.4743867050011
 10
93.53274793181515
 20
322.8362497050012
 10
101.5093109318152
 20
323.8732057050011
 10
107.8905669318151
 20
322.4374307050012
 10
113.6336999318151
 20
324.1922677050012
 10
118.0207849318151
 20
323.3148567050012
 10
118.9779689318152
 20
328.8186707050011
 10
125.7580589318151
 20
332.2486027050012
 10
125.9175749318151
 20
337.1940677050011
 10
129.7531769318151
 20
340.5266177050011
 10
133.401155931815
 20
340.1697457050012
 10
137.1183499318151
 20
340.5414647050012
  0
LWPOLYLINE
  5
27CC
330
2
100
AcDbEntity
  8
HOJO
100
AcDbPolyline
 90
       21
 70
     0
 43
0.0
 10
56.11834993181514
 20
287.0600197050011
 10
59.59247093181511
 20
287.1957237050012
 10
63.18625193181515
 20
286.2281717050012
 10
66.49218993181512
 20
287.5305087050012
 10
66.65173593181521
 20
291.3592597050012
 10
69.76257593181514
 20
295.5868447050012
 10
73.43179593181514
 20
297.1023777050012
 10
75.82477093181513
 20
301.8085547050012
 10
80.45117493181511
 20
303.4038757050011
 10
87.23126493181508
 20
302.7657387050012
 10
93.53274793181515
 20
303.4038757050011
 10
101.5093109318152
 20
302.3669197050012
 10
107.8905669318151
 20
303.8026947050012
 10
113.6336999318151
 20
302.0478577050011
 10
118.0207849318151
 20
302.9252687050012
 10
118.9779689318152
 20
297.4214547050012
 10
125.7580589318151
 20
293.9915227050012
 10
125.9175749318151
 20
289.0460577050012
 10
129.7531769318151
 20
285.7135077050011
 10
133.401155931815
 20
286.0703727050012
 10
137.1183499318151
 20
285.6986527050012
  0
LWPOLYLINE
  5
27CD
330
2
100
AcDbEntity
  8
HOJO
100
AcDbPolyline
 90
       21
 70
     0
 43
0.0
 10
312.0637398237783
 20
117.8902438425245
 10
315.5949898237784
 20
117.6512908425244
 10
319.3137398237784
 20
118.1200408425244
 10
323.0949898237784
 20
117.7137908425244
 10
326.5949898237784
 20
118.2137908425244
 10
330.6262398237784
 20
117.6825408425244
 10
334.1574898237784
 20
118.2450408425244
 10
338.6887398237784
 20
117.7450408425244
 10
343.3762398237784
 20
118.3700408425244
 10
348.0637398237784
 20
117.7762908425244
 10
351.8762398237784
 20
118.4012908425244
 10
357.1887398237784
 20
117.9012908425244
 10
361.0949898237784
 20
118.5575408425244
 10
365.7199898237784
 20
117.7137908425244
 10
370.1262398237783
 20
118.5575408425244
 10
374.1887398237784
 20
117.6825408425244
 10
377.5637398237784
 20
118.5262908425244
 10
381.8449898237783
 20
117.7762908425244
 10
385.4699898237784
 20
118.4950408425244
 10
389.3449898237784
 20
117.7762908425244
 10
393.0637398237784
 20
118.3186108425244
  0
TEXT
  5
286A
330
2
100
AcDbEntity
  8
TITLE
100
AcDbText
 10
22.27318266109364
 20
59.43466964194243
 30
0.0
 40
7.0
  1
F2SM-12-10～240-T15WT
 41
0.75
100
AcDbText
  0
TEXT
  5
286B
330
2
100
AcDbEntity
  8
TITLE
100
AcDbText
 10
22.27318266109364
 20
35.43466964194243
 30
0.0
 40
7.0
  1
F2SM-12-10～240-T25WT
 41
0.75
100
AcDbText
  0
TEXT
  5
286C
330
2
100
AcDbEntity
  8
TITLE
100
AcDbText
 10
22.27318266109364
 20
47.43466964194243
 30
0.0
 40
7.0
  1
F2SM-12-10～240-T25T
 41
0.75
100
AcDbText
  0
TEXT
  5
286D
330
2
100
AcDbEntity
  8
TITLE
100
AcDbText
 10
22.27318266109364
 20
23.43466964194243
 30
0.0
 40
7.0
  1
F2SM-12-10～120-T40T
 41
0.75
100
AcDbText
  0
TEXT
  5
286E
330
2
100
AcDbEntity
  8
TITLE
100
AcDbText
 10
136.3327109515501
 20
59.40687913228822
 30
0.0
 40
7.0
  1
F2SM-12-10～240-S15WT
 41
0.75
100
AcDbText
  0
TEXT
  5
286F
330
2
100
AcDbEntity
  8
TITLE
100
AcDbText
 10
136.3327109515501
 20
71.40687913228823
 30
0.0
 40
7.0
  1
F2SM-12-10～240-S15T
 41
0.75
100
AcDbText
  0
TEXT
  5
2870
330
2
100
AcDbEntity
  8
TITLE
100
AcDbText
 10
136.3327109515501
 20
47.40687913228822
 30
0.0
 40
7.0
  1
F2SM-12-10～240-S25T
 41
0.75
100
AcDbText
  0
TEXT
  5
2871
330
2
100
AcDbEntity
  8
TITLE
100
AcDbText
 10
136.3327109515501
 20
35.40687913228822
 30
0.0
 40
7.0
  1
F2SM-12-10～240-S25WT
 41
0.75
100
AcDbText
  0
LINE
  5
3132
330
2
100
AcDbEntity
  8
CENTER
100
AcDbLine
 10
697.5019837754348
 20
335.6330301512316
 30
0.0
 11
697.5019837754348
 21
397.5664926420879
 31
0.0
  0
LINE
  5
3133
330
2
100
AcDbEntity
  8
0
100
AcDbLine
 10
677.3398925914603
 20
213.7722290404772
 30
0.0
 11
721.5019837754348
 21
213.7722290404773
 31
0.0
  0
LINE
  5
3134
330
2
100
AcDbEntity
  8
0
100
AcDbLine
 10
680.0019842040057
 20
212.7722290404773
 30
0.0
 11
722.5019907754346
 21
212.7722290404773
 31
0.0
  0
LINE
  5
3137
330
2
100
AcDbEntity
  8
0
100
AcDbLine
 10
722.5019907754348
 20
184.7722310404773
 30
0.0
 11
672.5019837754348
 21
184.7722310404773
 31
0.0
  0
LINE
  5
3138
330
2
100
AcDbEntity
  8
0
100
AcDbLine
 10
721.0019907754348
 20
182.7722310404773
 30
0.0
 11
674.5019837754348
 21
182.7722310404773
 31
0.0
  0
LINE
  5
3139
330
2
100
AcDbEntity
  8
0
100
AcDbLine
 10
724.5019907754348
 20
194.7722310404773
 30
0.0
 11
672.5019837754348
 21
194.7722310404773
 31
0.0
  0
LINE
  5
3146
330
2
100
AcDbEntity
  8
0
100
AcDbLine
 10
672.5019837754348
 20
212.7722290404772
 30
0.0
 11
672.5019837754348
 21
184.7722310404773
 31
0.0
  0
LINE
  5
314A
330
2
100
AcDbEntity
  8
0
100
AcDbLine
 10
675.0019837754348
 20
182.7722310404773
 30
0.0
 11
675.0019837754348
 21
181.2722310404773
 31
0.0
  0
LINE
  5
314B
330
2
100
AcDbEntity
  8
0
100
AcDbLine
 10
674.5019837754348
 20
182.7722310404773
 30
0.0
 11
672.5019837754348
 21
184.7722310404773
 31
0.0
  0
LINE
  5
315C
330
2
100
AcDbEntity
  8
0
100
AcDbLine
 10
673.5019837754348
 20
213.7722290404772
 30
0.0
 11
674.6640749594093
 21
213.7722290404772
 31
0.0
  0
ARC
  5
315D
330
2
100
AcDbEntity
  8
0
100
AcDbCircle
 10
673.8949730218418
 20
212.2783417647235
 30
0.0
 40
1.3
100
AcDbArc
 50
105.8808500082802
 51
175.0000000000001
  0
LINE
  5
315E
330
2
100
AcDbEntity
  8
0
100
AcDbLine
 10
680.0019842040057
 20
211.2722290404771
 30
0.0
 11
672.5019842040057
 21
211.2722290404772
 31
0.0
  0
LINE
  5
315F
330
2
100
AcDbEntity
  8
0
100
AcDbLine
 10
672.5019837754348
 20
211.2722290404772
 30
0.0
 11
672.5999199143226
 21
212.3916442302955
 31
0.0
  0
LINE
  5
3160
330
2
100
AcDbEntity
  8
0
100
AcDbLine
 10
672.5019837754348
 20
212.7722290404772
 30
0.0
 11
673.5019837754348
 21
213.7722290404772
 31
0.0
  0
LINE
  5
3161
330
2
100
AcDbEntity
  8
0
100
AcDbLine
 10
680.0019842040057
 20
213.2722290404771
 30
0.0
 11
678.946961165055
 21
213.2722290404771
 31
0.0
  0
LINE
  5
3162
330
2
100
AcDbEntity
  8
0
100
AcDbLine
 10
679.5019837754347
 20
211.2722290404772
 30
0.0
 11
679.4040476365469
 21
212.3916442302955
 31
0.0
  0
ARC
  5
3163
330
2
100
AcDbEntity
  8
0
100
AcDbCircle
 10
676.0019837754348
 20
204.8722290404772
 30
0.0
 40
9.0
100
AcDbArc
 50
74.11914999171973
 51
105.8808500082802
  0
ARC
  5
3164
330
2
100
AcDbEntity
  8
0
100
AcDbCircle
 10
678.1089945290276
 20
212.2783417647235
 30
0.0
 40
1.3
100
AcDbArc
 50
4.999999999999813
 51
74.11914999171973
  0
LINE
  5
3165
330
2
100
AcDbEntity
  8
0
100
AcDbLine
 10
678.031723598599
 20
213.4246705778547
 30
0.0
 11
678.0519837754347
 21
213.6356473233163
 31
0.0
  0
LINE
  5
3166
330
2
100
AcDbEntity
  8
0
100
AcDbLine
 10
673.9722439522706
 20
213.4246705778547
 30
0.0
 11
673.9519837754349
 21
213.6356473233163
 31
0.0
  0
LINE
  5
3167
330
2
100
AcDbEntity
  8
0
100
AcDbLine
 10
676.2894837758899
 20
212.3552290404772
 30
0.0
 11
675.7144837749797
 21
212.3552290404772
 31
0.0
  0
SPLINE
  5
3168
330
2
100
AcDbEntity
  8
0
100
AcDbSpline
210
0.0
220
0.0
230
1.0
 70
     8
 71
     3
 72
    11
 73
     7
 74
     0
 42
0.0000000001
 43
0.0000000001
 40
0.0
 40
0.0
 40
0.0
 40
0.0
 40
0.4601364636755307
 40
1.04988694485363
 40
1.713742833862792
 40
2.320347933405154
 40
2.320347933405154
 40
2.320347933405154
 40
2.320347933405179
 10
676.2894837758899
 20
212.3552290404772
 30
0.0
 10
676.3119014329977
 20
212.5102524801571
 30
0.0
 10
676.363051488231
 20
212.8639672980746
 30
0.0
 10
676.7989366497645
 20
213.2886949696763
 30
0.0
 10
677.4039873647721
 20
213.5078821496421
 30
0.0
 10
677.8291719889478
 20
213.4388908500315
 30
0.0
 10
678.031723598599
 20
213.4246705778547
 30
0.0
  0
SPLINE
  5
3169
330
2
100
AcDbEntity
  8
0
100
AcDbSpline
210
0.0
220
0.0
230
1.0
 70
     8
 71
     3
 72
    11
 73
     7
 74
     0
 42
0.0000000001
 43
0.0000000001
 40
0.0
 40
0.0
 40
0.0
 40
0.0
 40
0.4601364636755307
 40
1.04988694485363
 40
1.713742833862792
 40
2.320347933405154
 40
2.320347933405154
 40
2.320347933405154
 40
2.320347933405179
 10
675.7144837749797
 20
212.3552290404772
 30
0.0
 10
675.6920661178719
 20
212.5102524801571
 30
0.0
 10
675.6409160626386
 20
212.8639672980746
 30
0.0
 10
675.2050309011051
 20
213.2886949696763
 30
0.0
 10
674.5999801860976
 20
213.5078821496421
 30
0.0
 10
674.1747955619218
 20
213.4388908500315
 30
0.0
 10
673.9722439522706
 20
213.4246705778547
 30
0.0
  0
LINE
  5
316A
330
2
100
AcDbEntity
  8
0
100
AcDbLine
 10
680.5019842040057
 20
213.7722290404771
 30
0.0
 11
680.0019842040057
 21
213.2722290404771
 31
0.0
  0
LINE
  5
316B
330
2
100
AcDbEntity
  8
0
100
AcDbLine
 10
680.0019842040057
 20
211.2722290404771
 30
0.0
 11
680.0019842040057
 21
213.2722290404772
 31
0.0
  0
LINE
  5
316D
330
2
100
AcDbEntity
  8
0
100
AcDbLine
 10
722.5019907754348
 20
212.7722290404773
 30
0.0
 11
722.5019907754348
 21
184.7722310404773
 31
0.0
  0
LINE
  5
316E
330
2
100
AcDbEntity
  8
0
100
AcDbLine
 10
722.5019907754348
 20
184.7722310404773
 30
0.0
 11
720.5019907754348
 21
182.7722310404773
 31
0.0
  0
LINE
  5
3170
330
2
100
AcDbEntity
  8
0
100
AcDbLine
 10
721.0019907754348
 20
182.7722310404773
 30
0.0
 11
721.0019907754348
 21
181.2722310404773
 31
0.0
  0
LINE
  5
3171
330
2
100
AcDbEntity
  8
0
100
AcDbLine
 10
721.5019907754347
 20
213.7722290404773
 30
0.0
 11
722.5019907754346
 21
212.7722290404773
 31
0.0
  0
LINE
  5
3172
330
2
100
AcDbEntity
  8
0
100
AcDbLine
 10
728.0019757754348
 20
208.2722290404773
 30
0.0
 11
728.0019757754348
 21
200.2722290404773
 31
0.0
  0
LINE
  5
3173
330
2
100
AcDbEntity
  8
0
100
AcDbLine
 10
724.5019757754349
 20
210.7722290404773
 30
0.0
 11
724.5019907754348
 21
194.7722310404773
 31
0.0
  0
LINE
  5
3174
330
2
100
AcDbEntity
  8
0
100
AcDbLine
 10
728.0019907754348
 20
200.2722290404773
 30
0.0
 11
724.5019907754348
 21
198.7722290404773
 31
0.0
  0
ARC
  5
3175
330
2
100
AcDbEntity
  8
0
100
AcDbCircle
 10
723.5019757754348
 20
210.7722290404773
 30
0.0
 40
1.0
100
AcDbArc
 50
0.0
 51
90.0
  0
LINE
  5
3176
330
2
100
AcDbEntity
  8
0
100
AcDbLine
 10
723.5019907754348
 20
211.7722290404773
 30
0.0
 11
722.5019907754348
 21
211.7722290404773
 31
0.0
  0
LINE
  5
3177
330
2
100
AcDbEntity
  8
0
100
AcDbLine
 10
728.0019757754348
 20
208.2722290404773
 30
0.0
 11
724.5019757754349
 21
209.7722290404774
 31
0.0
  0
LINE
  5
3179
330
2
100
AcDbEntity
  8
0
100
AcDbLine
 10
674.9018857754348
 20
390.416498642088
 30
0.0
 11
715.0019907754348
 21
390.416498642088
 31
0.0
  0
LINE
  5
317A
330
2
100
AcDbEntity
  8
0
100
AcDbLine
 10
720.5019907754348
 20
391.8164926420879
 30
0.0
 11
674.5020907754349
 21
391.8164926420879
 31
0.0
  0
LINE
  5
317B
330
2
100
AcDbEntity
  8
0
100
AcDbLine
 10
720.5019907754348
 20
341.8164926420879
 30
0.0
 11
674.5020907754349
 21
341.816492642088
 31
0.0
  0
LINE
  5
317C
330
2
100
AcDbEntity
  8
0
100
AcDbLine
 10
720.1019897754348
 20
343.216501642088
 30
0.0
 11
680.0020907754348
 21
343.216501642088
 31
0.0
  0
LINE
  5
317E
330
2
100
AcDbEntity
  8
0
100
AcDbLine
 10
672.5020907754348
 20
343.816492642088
 30
0.0
 11
672.5020907754348
 21
389.8164926420879
 31
0.0
  0
LINE
  5
317F
330
2
100
AcDbEntity
  8
0
100
AcDbLine
 10
673.9018857754348
 20
389.416498642088
 30
0.0
 11
673.9018857754348
 21
349.316492642088
 31
0.0
  0
CIRCLE
  5
3180
330
2
100
AcDbEntity
  8
0
100
AcDbCircle
 10
676.0018917754348
 20
345.3164926420879
 30
0.0
 40
3.500000000000028
  0
ARC
  5
3181
330
2
100
AcDbEntity
  8
0
100
AcDbCircle
 10
676.0018917754348
 20
345.3164926420879
 30
0.0
 40
4.0
100
AcDbArc
 50
0.0
 51
90.0
  0
LINE
  5
3182
330
2
100
AcDbEntity
  8
0
100
AcDbLine
 10
674.5020907754349
 20
341.816492642088
 30
0.0
 11
672.5020907754348
 21
343.816492642088
 31
0.0
  0
LINE
  5
3183
330
2
100
AcDbEntity
  8
0
100
AcDbLine
 10
672.5020907754348
 20
343.816492642088
 30
0.0
 11
674.5020907754349
 21
341.816492642088
 31
0.0
  0
ARC
  5
3184
330
2
100
AcDbEntity
  8
0
100
AcDbCircle
 10
678.0315917754347
 20
343.2867926420881
 30
0.0
 40
1.742199999999999
100
AcDbArc
 50
89.99869033450025
 51
180.0013096654997
  0
ARC
  5
3185
330
2
100
AcDbEntity
  8
0
100
AcDbCircle
 10
678.0315917754347
 20
347.3461926420879
 30
0.0
 40
1.742199999999999
100
AcDbArc
 50
179.9986903345002
 51
270.0013096654964
  0
ARC
  5
3186
330
2
100
AcDbEntity
  8
0
100
AcDbCircle
 10
673.9721917754346
 20
343.2867926420881
 30
0.0
 40
1.742199999999999
100
AcDbArc
 50
359.9986903345002
 51
90.00130966549649
  0
ARC
  5
3187
330
2
100
AcDbEntity
  8
0
100
AcDbCircle
 10
676.0018917754348
 20
345.3164926420879
 30
0.0
 40
2.049999999999998
100
AcDbArc
 50
171.9380399160181
 51
180.0
  0
ARC
  5
3188
330
2
100
AcDbEntity
  8
0
100
AcDbCircle
 10
673.9721917754346
 20
347.3461926420879
 30
0.0
 40
1.742199999999999
100
AcDbArc
 50
269.9986903345035
 51
0.0013096654997424
  0
ARC
  5
3189
330
2
100
AcDbEntity
  8
0
100
AcDbCircle
 10
676.0018917754348
 20
345.3164926420879
 30
0.0
 40
2.049999999999998
100
AcDbArc
 50
0.0
 51
8.061960083981876
  0
ARC
  5
318A
330
2
100
AcDbEntity
  8
0
100
AcDbCircle
 10
676.0018917754348
 20
345.3164926420879
 30
0.0
 40
2.049999999999998
100
AcDbArc
 50
261.9380399160184
 51
270.0
  0
ARC
  5
318B
330
2
100
AcDbEntity
  8
0
100
AcDbCircle
 10
676.0018917754348
 20
345.3164926420879
 30
0.0
 40
2.049999999999998
100
AcDbArc
 50
180.0
 51
188.0619600839818
  0
ARC
  5
318C
330
2
100
AcDbEntity
  8
0
100
AcDbCircle
 10
676.0018917754348
 20
345.3164926420879
 30
0.0
 40
2.049999999999998
100
AcDbArc
 50
270.0
 51
278.0619600839816
  0
ARC
  5
318D
330
2
100
AcDbEntity
  8
0
100
AcDbCircle
 10
676.0018917754348
 20
345.3164926420879
 30
0.0
 40
2.049999999999998
100
AcDbArc
 50
351.9380399160181
 51
0.0
  0
ARC
  5
318E
330
2
100
AcDbEntity
  8
0
100
AcDbCircle
 10
676.0018917754348
 20
345.3164926420879
 30
0.0
 40
2.049999999999998
100
AcDbArc
 50
90.0
 51
98.06196008398165
  0
ARC
  5
318F
330
2
100
AcDbEntity
  8
0
100
AcDbCircle
 10
676.0018917754348
 20
345.3164926420879
 30
0.0
 40
2.049999999999998
100
AcDbArc
 50
81.93803991601836
 51
90.0
  0
LINE
  5
3190
330
2
100
AcDbEntity
  8
0
100
AcDbLine
 10
680.0020907754348
 20
345.316492642088
 30
0.0
 11
680.0020907754348
 21
341.816492642088
 31
0.0
  0
LINE
  5
3191
330
2
100
AcDbEntity
  8
0
100
AcDbLine
 10
676.0020907754348
 20
349.316492642088
 30
0.0
 11
672.5020907754348
 21
349.316492642088
 31
0.0
  0
LINE
  5
3192
330
2
100
AcDbEntity
  8
0
100
AcDbLine
 10
672.5018917754348
 20
389.8164926420879
 30
0.0
 11
674.5020907754349
 21
391.8164926420879
 31
0.0
  0
LINE
  5
3193
330
2
100
AcDbEntity
  8
0
100
AcDbLine
 10
672.5020907754348
 20
389.8164926420879
 30
0.0
 11
674.5020907754349
 21
391.8164926420879
 31
0.0
  0
LINE
  5
3194
330
2
100
AcDbEntity
  8
0
100
AcDbLine
 10
672.5020907754348
 20
389.8164926420879
 30
0.0
 11
674.5020907754349
 21
391.8164926420879
 31
0.0
  0
LINE
  5
3195
330
2
100
AcDbEntity
  8
0
100
AcDbLine
 10
674.9018857754348
 20
390.416498642088
 30
0.0
 11
673.9018857754348
 21
389.416498642088
 31
0.0
  0
CIRCLE
  5
3196
330
2
100
AcDbEntity
  8
0
100
AcDbCircle
 10
719.0019607754349
 20
388.3164926420879
 30
0.0
 40
3.500000000000028
  0
ARC
  5
3197
330
2
100
AcDbEntity
  8
0
100
AcDbCircle
 10
719.0019607754349
 20
388.3164926420879
 30
0.0
 40
4.0
100
AcDbArc
 50
180.0
 51
270.0
  0
LINE
  5
3198
330
2
100
AcDbEntity
  8
0
100
AcDbLine
 10
722.5019907754348
 20
343.8164926420879
 30
0.0
 11
722.5019907754348
 21
389.8164926420879
 31
0.0
  0
LINE
  5
3199
330
2
100
AcDbEntity
  8
0
100
AcDbLine
 10
719.0019607754347
 20
384.3164926420879
 30
0.0
 11
722.5019607754347
 21
384.3164926420879
 31
0.0
  0
LINE
  5
319A
330
2
100
AcDbEntity
  8
0
100
AcDbLine
 10
722.5019907754348
 20
343.8164926420879
 30
0.0
 11
720.5019907754348
 21
341.8164926420879
 31
0.0
  0
LINE
  5
319B
330
2
100
AcDbEntity
  8
0
100
AcDbLine
 10
721.1019967754348
 20
344.216501642088
 30
0.0
 11
721.1019897754348
 21
384.3164926420879
 31
0.0
  0
LINE
  5
319C
330
2
100
AcDbEntity
  8
0
100
AcDbLine
 10
721.1019967754348
 20
344.216501642088
 30
0.0
 11
720.1019897754348
 21
343.216501642088
 31
0.0
  0
LINE
  5
319D
330
2
100
AcDbEntity
  8
0
100
AcDbLine
 10
724.5019907754348
 20
373.3164926420879
 30
0.0
 11
724.5019907754348
 21
360.3164926420879
 31
0.0
  0
ARC
  5
319E
330
2
100
AcDbEntity
  8
0
100
AcDbCircle
 10
723.5019757754348
 20
360.3164926420879
 30
0.0
 40
1.0
100
AcDbArc
 50
270.0
 51
0.0
  0
LINE
  5
319F
330
2
100
AcDbEntity
  8
0
100
AcDbLine
 10
723.5019907754348
 20
359.3164926420879
 30
0.0
 11
722.5019907754348
 21
359.3164926420879
 31
0.0
  0
ARC
  5
31A0
330
2
100
AcDbEntity
  8
0
100
AcDbCircle
 10
723.5019907754349
 20
373.3164926420879
 30
0.0
 40
1.0
100
AcDbArc
 50
0.0
 51
90.0
  0
LINE
  5
31A1
330
2
100
AcDbEntity
  8
0
100
AcDbLine
 10
724.5019907754348
 20
372.3164926420879
 30
0.0
 11
728.0019907754348
 21
368.8164926420879
 31
0.0
  0
LINE
  5
31A2
330
2
100
AcDbEntity
  8
0
100
AcDbLine
 10
728.0019907754348
 20
364.8164926420879
 30
0.0
 11
724.5019907754348
 21
361.3164926420879
 31
0.0
  0
LINE
  5
31A3
330
2
100
AcDbEntity
  8
0
100
AcDbLine
 10
728.0019907754348
 20
364.8164926420879
 30
0.0
 11
728.0019907754348
 21
368.8164926420879
 31
0.0
  0
LINE
  5
31A4
330
2
100
AcDbEntity
  8
0
100
AcDbLine
 10
723.5019907754348
 20
374.3164926420879
 30
0.0
 11
722.5019907754348
 21
374.3164926420879
 31
0.0
  0
LINE
  5
31A5
330
2
100
AcDbEntity
  8
0
100
AcDbLine
 10
722.5019907754348
 20
389.8164926420879
 30
0.0
 11
720.5019907754348
 21
391.8164926420879
 31
0.0
  0
LINE
  5
31A6
330
2
100
AcDbEntity
  8
0
100
AcDbLine
 10
722.5019907754348
 20
389.8164926420879
 30
0.0
 11
720.5019907754348
 21
391.8164926420879
 31
0.0
  0
ARC
  5
31A7
330
2
100
AcDbEntity
  8
0
100
AcDbCircle
 10
721.0316607754348
 20
386.286792642088
 30
0.0
 40
1.742199999999999
100
AcDbArc
 50
89.99869033450025
 51
180.0013096654997
  0
ARC
  5
31A8
330
2
100
AcDbEntity
  8
0
100
AcDbCircle
 10
721.0316607754348
 20
390.3461926420879
 30
0.0
 40
1.742199999999999
100
AcDbArc
 50
179.9986903345002
 51
270.0013096654964
  0
ARC
  5
31A9
330
2
100
AcDbEntity
  8
0
100
AcDbCircle
 10
716.9722607754347
 20
386.286792642088
 30
0.0
 40
1.742199999999999
100
AcDbArc
 50
359.9986903345002
 51
90.00130966549649
  0
ARC
  5
31AA
330
2
100
AcDbEntity
  8
0
100
AcDbCircle
 10
719.0019607754349
 20
388.3164926420879
 30
0.0
 40
2.049999999999998
100
AcDbArc
 50
171.9380399160181
 51
180.0
  0
ARC
  5
31AB
330
2
100
AcDbEntity
  8
0
100
AcDbCircle
 10
716.9722607754347
 20
390.3461926420879
 30
0.0
 40
1.742199999999999
100
AcDbArc
 50
269.9986903345035
 51
0.0013096654997424
  0
ARC
  5
31AC
330
2
100
AcDbEntity
  8
0
100
AcDbCircle
 10
719.0019607754349
 20
388.3164926420879
 30
0.0
 40
2.049999999999998
100
AcDbArc
 50
0.0
 51
8.061960083981876
  0
ARC
  5
31AD
330
2
100
AcDbEntity
  8
0
100
AcDbCircle
 10
719.0019607754349
 20
388.3164926420879
 30
0.0
 40
2.049999999999998
100
AcDbArc
 50
261.9380399160184
 51
270.0
  0
ARC
  5
31AE
330
2
100
AcDbEntity
  8
0
100
AcDbCircle
 10
719.0019607754349
 20
388.3164926420879
 30
0.0
 40
2.049999999999998
100
AcDbArc
 50
180.0
 51
188.0619600839818
  0
ARC
  5
31AF
330
2
100
AcDbEntity
  8
0
100
AcDbCircle
 10
719.0019607754349
 20
388.3164926420879
 30
0.0
 40
2.049999999999998
100
AcDbArc
 50
270.0
 51
278.0619600839816
  0
ARC
  5
31B0
330
2
100
AcDbEntity
  8
0
100
AcDbCircle
 10
719.0019607754349
 20
388.3164926420879
 30
0.0
 40
2.049999999999998
100
AcDbArc
 50
351.9380399160181
 51
0.0
  0
ARC
  5
31B1
330
2
100
AcDbEntity
  8
0
100
AcDbCircle
 10
719.0019607754349
 20
388.3164926420879
 30
0.0
 40
2.049999999999998
100
AcDbArc
 50
90.0
 51
98.06196008398165
  0
ARC
  5
31B2
330
2
100
AcDbEntity
  8
0
100
AcDbCircle
 10
719.0019607754349
 20
388.3164926420879
 30
0.0
 40
2.049999999999998
100
AcDbArc
 50
81.93803991601836
 51
90.0
  0
LINE
  5
31B3
330
2
100
AcDbEntity
  8
0
100
AcDbLine
 10
715.0019907754348
 20
388.3164926420879
 30
0.0
 11
715.0019907754348
 21
391.816293642088
 31
0.0
  0
LINE
  5
328B
330
2
100
AcDbEntity
  8
0
100
AcDbLine
 10
327.5637398237784
 20
194.7722310404773
 30
0.0
 11
377.5637248237784
 21
194.7722310404773
 31
0.0
  0
LINE
  5
328C
330
2
100
AcDbEntity
  8
0
100
AcDbLine
 10
327.5637398237784
 20
184.7722310404774
 30
0.0
 11
377.5637248237784
 21
184.7722310404774
 31
0.0
  0
LINE
  5
328D
330
2
100
AcDbEntity
  8
0
100
AcDbLine
 10
328.5637398237784
 20
213.7722290404773
 30
0.0
 11
372.7258310077523
 21
213.7722290404773
 31
0.0
  0
LINE
  5
328E
330
2
100
AcDbEntity
  8
0
100
AcDbLine
 10
327.5637398237784
 20
212.7722290404773
 30
0.0
 11
370.0637248237784
 21
212.7722290404773
 31
0.0
  0
LINE
  5
3290
330
2
100
AcDbEntity
  8
CENTER
100
AcDbLine
 10
322.5201328425699
 20
204.2722290404773
 30
0.0
 11
382.6073468049869
 21
204.2722290404773
 31
0.0
  0
LINE
  5
32B6
330
2
100
AcDbEntity
  8
0
100
AcDbLine
 10
45.55797774189
 20
213.7722290404772
 30
0.0
 11
89.72006892586447
 21
213.7722290404772
 31
0.0
  0
LINE
  5
32B7
330
2
100
AcDbEntity
  8
0
100
AcDbLine
 10
42.22006192586445
 20
182.7722310404773
 30
0.0
 11
88.72006892586446
 21
182.7722310404773
 31
0.0
  0
LINE
  5
32B8
330
2
100
AcDbEntity
  8
0
100
AcDbLine
 10
38.72006192586445
 20
194.7722310404772
 30
0.0
 11
90.72006892586447
 21
194.7722310404772
 31
0.0
  0
LINE
  5
32B9
330
2
100
AcDbEntity
  8
0
100
AcDbLine
 10
40.72006192586445
 20
184.7722310404773
 30
0.0
 11
90.72006892586447
 21
184.7722310404773
 31
0.0
  0
LINE
  5
32BA
330
2
100
AcDbEntity
  8
0
100
AcDbLine
 10
48.22006235443542
 20
212.7722290404772
 30
0.0
 11
90.72007592586448
 21
212.7722290404772
 31
0.0
  0
LINE
  5
32BB
330
2
100
AcDbEntity
  8
CENTER
100
AcDbLine
 10
32.77631292586446
 20
204.2722290404772
 30
0.0
 11
94.67237188960258
 21
204.2722290404772
 31
0.0
  0
ARC
  5
32BD
330
2
100
AcDbEntity
  8
0
100
AcDbCircle
 10
39.72007692586447
 20
210.7722290404772
 30
0.0
 40
1.0
100
AcDbArc
 50
90.0
 51
180.0
  0
LINE
  5
32BE
330
2
100
AcDbEntity
  8
0
100
AcDbLine
 10
38.72007692586447
 20
210.7722290404772
 30
0.0
 11
38.72006192586445
 21
194.7722310404772
 31
0.0
  0
LINE
  5
32BF
330
2
100
AcDbEntity
  8
0
100
AcDbLine
 10
35.22007692586447
 20
208.2722290404772
 30
0.0
 11
35.22007692586447
 21
200.2722290404772
 31
0.0
  0
LINE
  5
32C0
330
2
100
AcDbEntity
  8
0
100
AcDbLine
 10
35.22006192586445
 20
200.2722290404772
 30
0.0
 11
38.72006192586445
 21
198.7722290404772
 31
0.0
  0
LINE
  5
32C1
330
2
100
AcDbEntity
  8
0
100
AcDbLine
 10
35.22007692586447
 20
208.2722290404772
 30
0.0
 11
38.72007692586447
 21
209.7722290404772
 31
0.0
  0
LINE
  5
32C2
330
2
100
AcDbEntity
  8
CENTER
100
AcDbLine
 10
65.72006892586447
 20
178.0785300404773
 30
0.0
 11
65.72006892586447
 21
219.1597290404773
 31
0.0
  0
LINE
  5
32C3
330
2
100
AcDbEntity
  8
0
100
AcDbLine
 10
40.72006192586445
 20
212.7722290404773
 30
0.0
 11
40.72006192586445
 21
184.7722310404773
 31
0.0
  0
LINE
  5
32C4
330
2
100
AcDbEntity
  8
0
100
AcDbLine
 10
42.22006192586445
 20
182.7722310404773
 30
0.0
 11
42.22006192586445
 21
181.2722310404773
 31
0.0
  0
LINE
  5
32C5
330
2
100
AcDbEntity
  8
0
100
AcDbLine
 10
40.72006192586445
 20
184.7722310404773
 30
0.0
 11
42.72006192586445
 21
182.7722310404773
 31
0.0
  0
ARC
  5
32C7
330
2
100
AcDbEntity
  8
0
100
AcDbCircle
 10
44.22006892586455
 20
204.8722290404772
 30
0.0
 40
9.0
100
AcDbArc
 50
74.11914999171973
 51
105.8808500082802
  0
LINE
  5
32C8
330
2
100
AcDbEntity
  8
0
100
AcDbLine
 10
44.5075689263196
 20
212.3552290404772
 30
0.0
 11
43.93256892540949
 21
212.3552290404772
 31
0.0
  0
LINE
  5
32C9
330
2
100
AcDbEntity
  8
0
100
AcDbLine
 10
48.22006235443542
 20
211.2722290404772
 30
0.0
 11
40.72006235443541
 21
211.2722290404772
 31
0.0
  0
LINE
  5
32CA
330
2
100
AcDbEntity
  8
0
100
AcDbLine
 10
42.19032910270044
 20
213.4246705778549
 30
0.0
 11
42.17006892586454
 21
213.6356473233163
 31
0.0
  0
SPLINE
  5
32CB
330
2
100
AcDbEntity
  8
0
100
AcDbSpline
210
0.0
220
0.0
230
1.0
 70
     8
 71
     3
 72
    11
 73
     7
 74
     0
 42
0.0000000001
 43
0.0000000001
 40
0.0
 40
0.0
 40
0.0
 40
0.0
 40
0.4601364636755307
 40
1.04988694485363
 40
1.713742833862792
 40
2.320347933405154
 40
2.320347933405154
 40
2.320347933405154
 40
2.320347933405179
 10
43.93256892540949
 20
212.3552290404772
 30
0.0
 10
43.91015126830166
 20
212.5102524801571
 30
0.0
 10
43.85900121306838
 20
212.8639672980746
 30
0.0
 10
43.4231160515348
 20
213.2886949696763
 30
0.0
 10
42.81806533652735
 20
213.5078821496421
 30
0.0
 10
42.39288071235153
 20
213.4388908500315
 30
0.0
 10
42.19032910270044
 20
213.4246705778549
 30
0.0
  0
LINE
  5
32CC
330
2
100
AcDbEntity
  8
0
100
AcDbLine
 10
40.72006892586455
 20
211.2722290404772
 30
0.0
 11
40.81800506475235
 21
212.3916442302955
 31
0.0
  0
ARC
  5
32CD
330
2
100
AcDbEntity
  8
0
100
AcDbCircle
 10
42.11305817227151
 20
212.2783417647236
 30
0.0
 40
1.3
100
AcDbArc
 50
105.8808500082802
 51
175.0000000000001
  0
LINE
  5
32CE
330
2
100
AcDbEntity
  8
0
100
AcDbLine
 10
41.72006235443541
 20
213.7722290404772
 30
0.0
 11
40.72006192586442
 21
212.7722290404772
 31
0.0
  0
LINE
  5
32CF
330
2
100
AcDbEntity
  8
0
100
AcDbLine
 10
40.72006192586445
 20
212.7722290404773
 30
0.0
 11
41.72006192586446
 21
213.7722290404773
 31
0.0
  0
LINE
  5
32D0
330
2
100
AcDbEntity
  8
0
100
AcDbLine
 10
39.72006192586445
 20
211.7722290404772
 30
0.0
 11
40.72006192586445
 21
211.7722290404772
 31
0.0
  0
LINE
  5
32D1
330
2
100
AcDbEntity
  8
0
100
AcDbLine
 10
41.72006192586446
 20
213.7722290404773
 30
0.0
 11
42.88216010983913
 21
213.7722290404772
 31
0.0
  0
LINE
  5
32D2
330
2
100
AcDbEntity
  8
0
100
AcDbLine
 10
47.72006892586444
 20
211.2722290404772
 30
0.0
 11
47.62213278697664
 21
212.3916442302955
 31
0.0
  0
ARC
  5
32D3
330
2
100
AcDbEntity
  8
0
100
AcDbCircle
 10
46.32707967945736
 20
212.2783417647236
 30
0.0
 40
1.3
100
AcDbArc
 50
4.999999999999778
 51
74.11914999171973
  0
LINE
  5
32D4
330
2
100
AcDbEntity
  8
0
100
AcDbLine
 10
46.24980874902866
 20
213.4246705778549
 30
0.0
 11
46.27006892586456
 21
213.6356473233163
 31
0.0
  0
SPLINE
  5
32D5
330
2
100
AcDbEntity
  8
0
100
AcDbSpline
210
0.0
220
0.0
230
1.0
 70
     8
 71
     3
 72
    11
 73
     7
 74
     0
 42
0.0000000001
 43
0.0000000001
 40
0.0
 40
0.0
 40
0.0
 40
0.0
 40
0.4601364636755307
 40
1.04988694485363
 40
1.713742833862792
 40
2.320347933405154
 40
2.320347933405154
 40
2.320347933405154
 40
2.320347933405179
 10
44.5075689263196
 20
212.3552290404772
 30
0.0
 10
44.52998658342744
 20
212.5102524801571
 30
0.0
 10
44.58113663866072
 20
212.8639672980746
 30
0.0
 10
45.0170218001943
 20
213.2886949696763
 30
0.0
 10
45.62207251520175
 20
213.5078821496421
 30
0.0
 10
46.04725713937756
 20
213.4388908500315
 30
0.0
 10
46.24980874902866
 20
213.4246705778549
 30
0.0
  0
LINE
  5
32D6
330
2
100
AcDbEntity
  8
0
100
AcDbLine
 10
48.72006235443541
 20
213.7722290404772
 30
0.0
 11
48.22006235443542
 21
213.2722290404772
 31
0.0
  0
LINE
  5
32D7
330
2
100
AcDbEntity
  8
0
100
AcDbLine
 10
48.22006235443542
 20
211.2722290404772
 30
0.0
 11
48.22006235443542
 21
213.2722290404772
 31
0.0
  0
LINE
  5
32D8
330
2
100
AcDbEntity
  8
0
100
AcDbLine
 10
48.22006235443542
 20
213.2722290404772
 30
0.0
 11
47.16504631548471
 21
213.2722290404772
 31
0.0
  0
LINE
  5
32D9
330
2
100
AcDbEntity
  8
0
100
AcDbLine
 10
90.72006892586447
 20
212.7722290404772
 30
0.0
 11
90.72006892586447
 21
184.7722310404773
 31
0.0
  0
LINE
  5
32DA
330
2
100
AcDbEntity
  8
0
100
AcDbLine
 10
88.22006892586447
 20
182.7722310404773
 30
0.0
 11
88.22006892586447
 21
181.2722310404773
 31
0.0
  0
LINE
  5
32DB
330
2
100
AcDbEntity
  8
0
100
AcDbLine
 10
88.72006892586446
 20
182.7722310404773
 30
0.0
 11
90.72006892586447
 21
184.7722310404773
 31
0.0
  0
LINE
  5
32DC
330
2
100
AcDbEntity
  8
0
100
AcDbLine
 10
89.72007592586448
 20
213.7722290404772
 30
0.0
 11
90.72007592586448
 21
212.7722290404772
 31
0.0
  0
LINE
  5
32DD
330
2
100
AcDbEntity
  8
0
100
AcDbLine
 10
327.5637398237784
 20
212.7722290404773
 30
0.0
 11
327.5637398237784
 21
184.7722310404774
 31
0.0
  0
LINE
  5
32DF
330
2
100
AcDbEntity
  8
0
100
AcDbLine
 10
327.5637398237784
 20
184.7722310404774
 30
0.0
 11
328.9754710173031
 21
183.3604998469527
 31
0.0
  0
LINE
  5
32E0
330
2
100
AcDbEntity
  8
0
100
AcDbLine
 10
328.5637398237784
 20
213.7722290404773
 30
0.0
 11
327.5637398237784
 21
212.7722290404773
 31
0.0
  0
LINE
  5
32E2
330
2
100
AcDbEntity
  8
0
100
AcDbLine
 10
377.5637248237784
 20
212.7722290404773
 30
0.0
 11
377.5637248237784
 21
184.7722310404774
 31
0.0
  0
LINE
  5
32E5
330
2
100
AcDbEntity
  8
0
100
AcDbLine
 10
376.1519938875857
 20
183.3605001042847
 30
0.0
 11
377.5637248237784
 21
184.7722310404774
 31
0.0
  0
ARC
  5
32E6
330
2
100
AcDbEntity
  8
0
100
AcDbCircle
 10
374.0637398237784
 20
204.8722290404773
 30
0.0
 40
9.0
100
AcDbArc
 50
74.11914999171973
 51
105.8808500082802
  0
SPLINE
  5
32E7
330
2
100
AcDbEntity
  8
0
100
AcDbSpline
210
0.0
220
0.0
230
1.0
 70
     8
 71
     3
 72
    11
 73
     7
 74
     0
 42
0.0000000001
 43
0.0000000001
 40
0.0
 40
0.0
 40
0.0
 40
0.0
 40
0.4601364636755307
 40
1.04988694485363
 40
1.713742833862792
 40
2.320347933405154
 40
2.320347933405154
 40
2.320347933405154
 40
2.320347933405179
 10
373.7762398233233
 20
212.3552290404774
 30
0.0
 10
373.7538221662155
 20
212.5102524801572
 30
0.0
 10
373.7026721109823
 20
212.8639672980747
 30
0.0
 10
373.2667869494487
 20
213.2886949696764
 30
0.0
 10
372.6617362344412
 20
213.5078821496423
 30
0.0
 10
372.2365516102654
 20
213.4388908500316
 30
0.0
 10
372.0340000006143
 20
213.4246705778549
 30
0.0
  0
LINE
  5
32E8
330
2
100
AcDbEntity
  8
0
100
AcDbLine
 10
370.0637248237784
 20
211.2722290404773
 30
0.0
 11
377.5637248237784
 21
211.2722290404774
 31
0.0
  0
LINE
  5
32E9
330
2
100
AcDbEntity
  8
0
100
AcDbLine
 10
372.0340000006143
 20
213.4246705778549
 30
0.0
 11
372.0137398237784
 21
213.6356473233165
 31
0.0
  0
LINE
  5
32EA
330
2
100
AcDbEntity
  8
0
100
AcDbLine
 10
370.5637398237784
 20
211.2722290404774
 30
0.0
 11
370.6616759626662
 21
212.3916442302956
 31
0.0
  0
ARC
  5
32EB
330
2
100
AcDbEntity
  8
0
100
AcDbCircle
 10
371.9567290701854
 20
212.2783417647236
 30
0.0
 40
1.3
100
AcDbArc
 50
105.8808500082802
 51
175.0000000000001
  0
LINE
  5
32EC
330
2
100
AcDbEntity
  8
0
100
AcDbLine
 10
369.5637248237784
 20
213.7722290404773
 30
0.0
 11
370.0637248237784
 21
213.2722290404773
 31
0.0
  0
LINE
  5
32ED
330
2
100
AcDbEntity
  8
0
100
AcDbLine
 10
370.0637248237784
 20
211.2722290404773
 30
0.0
 11
370.0637248237784
 21
213.2722290404774
 31
0.0
  0
LINE
  5
32EE
330
2
100
AcDbEntity
  8
0
100
AcDbLine
 10
370.0637248237784
 20
213.2722290404773
 30
0.0
 11
371.118762434158
 21
213.2722290404773
 31
0.0
  0
LINE
  5
32EF
330
2
100
AcDbEntity
  8
0
100
AcDbLine
 10
375.4016486398046
 20
213.7722290404773
 30
0.0
 11
376.5637248237784
 21
213.7722290404773
 31
0.0
  0
LINE
  5
32F0
330
2
100
AcDbEntity
  8
0
100
AcDbLine
 10
377.5637398237783
 20
211.2722290404774
 30
0.0
 11
377.4658036848905
 21
212.3916442302956
 31
0.0
  0
ARC
  5
32F1
330
2
100
AcDbEntity
  8
0
100
AcDbCircle
 10
376.1707505773713
 20
212.2783417647236
 30
0.0
 40
1.3
100
AcDbArc
 50
4.999999999999778
 51
74.11914999171973
  0
LINE
  5
32F2
330
2
100
AcDbEntity
  8
0
100
AcDbLine
 10
376.0934796469425
 20
213.4246705778549
 30
0.0
 11
376.1137398237784
 21
213.6356473233165
 31
0.0
  0
LINE
  5
32F3
330
2
100
AcDbEntity
  8
0
100
AcDbLine
 10
374.3512398242335
 20
212.3552290404774
 30
0.0
 11
373.7762398233233
 21
212.3552290404774
 31
0.0
  0
SPLINE
  5
32F4
330
2
100
AcDbEntity
  8
0
100
AcDbSpline
210
0.0
220
0.0
230
1.0
 70
     8
 71
     3
 72
    11
 73
     7
 74
     0
 42
0.0000000001
 43
0.0000000001
 40
0.0
 40
0.0
 40
0.0
 40
0.0
 40
0.4601364636755307
 40
1.04988694485363
 40
1.713742833862792
 40
2.320347933405154
 40
2.320347933405154
 40
2.320347933405154
 40
2.320347933405179
 10
374.3512398242335
 20
212.3552290404774
 30
0.0
 10
374.3736574813413
 20
212.5102524801572
 30
0.0
 10
374.4248075365746
 20
212.8639672980747
 30
0.0
 10
374.8606926981082
 20
213.2886949696764
 30
0.0
 10
375.4657434131156
 20
213.5078821496423
 30
0.0
 10
375.8909280372914
 20
213.4388908500316
 30
0.0
 10
376.0934796469425
 20
213.4246705778549
 30
0.0
  0
LINE
  5
32F5
330
2
100
AcDbEntity
  8
0
100
AcDbLine
 10
376.5637248237784
 20
213.7722290404773
 30
0.0
 11
377.5637248237784
 21
212.7722290404773
 31
0.0
  0
LINE
  5
3357
330
2
100
AcDbEntity
  8
CENTER
100
AcDbLine
 10
697.5019837754348
 20
178.0785300404774
 30
0.0
 11
697.5019837754348
 21
219.1597290404774
 31
0.0
  0
LINE
  5
3358
330
2
100
AcDbEntity
  8
CENTER
100
AcDbLine
 10
730.4457397754347
 20
204.2722290404773
 30
0.0
 11
668.5496808116968
 21
204.2722290404773
 31
0.0
  0
VIEWPORT
  5
2D58
330
2D57
100
AcDbEntity
 67
     1
  8
0
100
AcDbViewport
 10
141.9915723183326
 20
100.2423531216788
 30
0.0
 40
307.5451694137619
 41
196.2674151694464
 68
     1
 69
     1
1001
ACAD
1000
MVIEW
1002
{
1070
    16
1010
0.0
1020
0.0
1030
0.0
1010
0.0
1020
0.0
1030
1.0
1040
0.0
1040
196.2674151694464
1040
141.9915723183326
1040
100.2423531216788
1040
50.0
1040
0.0
1040
0.0
1070
     0
1070
   100
1070
     1
1070
     1
1070
     0
1070
     0
1070
     0
1070
     0
1040
0.0
1040
0.0
1040
0.0
1040
10.0
1040
10.0
1040
10.0
1040
10.0
1070
     0
1002
{
1002
}
1002
}
  0
TEXT
  5
2D59
330
2D57
100
AcDbEntity
 67
     1
  8
TEXT
100
AcDbText
 10
266.4665517915716
 20
9.492177985111482
 30
0.0
 40
2.0
  1
2005.07.11
 41
0.7
100
AcDbText
  0
TEXT
  5
2D5A
330
2D57
100
AcDbEntity
 67
     1
  8
TEXT
100
AcDbText
 10
221.2876186247744
 20
25.81289445791026
 30
0.0
 40
2.0
  1
F2SM12-T40T
100
AcDbText
  0
INSERT
  5
2D5B
330
2D57
100
AcDbEntity
 67
     1
  8
0
100
AcDbBlockReference
 66
     1
  2
外寸枠A4テンプレート
 10
0.0
 20
0.0
 30
0.0
  0
ATTRIB
  5
2D5C
330
2D5B
100
AcDbEntity
 67
     1
  8
TEXT
100
AcDbText
 10
218.8880285714284
 20
34.33735183158626
 30
0.0
 40
2.500000000000001
  1
F2SM-12-10～120-T40T
 72
     4
 11
241.8165999999999
 21
35.58735183158626
 31
0.0
100
AcDbAttribute
  2
T　I　T　L　E
 70
     0
  0
ATTRIB
  5
2D5D
330
2D5B
100
AcDbEntity
 67
     1
  8
TEXT
100
AcDbText
 10
231.4275923057046
 20
7.13444951887557
 30
0.0
 40
2.0
  1
1：3
 72
     4
 11
234.056163734276
 21
8.13444951887557
 31
0.0
100
AcDbAttribute
  2
FREE
 70
     0
  0
ATTRIB
  5
2D5E
330
2D5B
100
AcDbEntity
 67
     1
  8
TEXT
100
AcDbText
 10
205.1985180173093
 20
6.884449518875568
 30
0.0
 40
2.500000000000004
  1
海野
 72
     4
 11
207.865184683976
 21
8.13444951887557
 31
0.0
100
AcDbAttribute
  2
海野
 70
     0
  0
ATTRIB
  5
2D5F
330
2D5B
100
AcDbEntity
 67
     1
  8
TEXT
100
AcDbText
 10
222.6686227589094
 20
6.884449518875568
 30
0.0
 40
2.500000000000004
  1
川上
 72
     4
 11
225.3352894255761
 21
8.13444951887557
 31
0.0
100
AcDbAttribute
  2
鳥居
 70
     0
  0
ATTRIB
  5
2D60
330
2D5B
100
AcDbEntity
 67
     1
  8
TEXT
100
AcDbText
 10
213.9476826899094
 20
6.884449518875567
 30
0.0
 40
2.500000000000004
  1
永坂
 72
     4
 11
216.6143493565761
 21
8.13444951887557
 31
0.0
100
AcDbAttribute
  2
永坂
 70
     0
  0
SEQEND
  5
2D61
330
2D5B
100
AcDbEntity
 67
     1
  8
0
  0
VIEWPORT
  5
2D62
330
2D57
100
AcDbEntity
 67
     1
  8
DEFPOINTS
100
AcDbViewport
 10
180.4057268936827
 20
122.8003607901247
 30
0.0
 40
199.1885462126344
 41
101.9570987893231
 68
    -1
 69
     2
1001
ACAD
1000
MVIEW
1002
{
1070
    16
1010
0.0
1020
0.0
1030
0.0
1010
0.0
1020
0.0
1030
1.0
1040
0.0
1040
305.8712957836092
1040
531.0023580272953
1040
151.5390438264949
1040
50.0
1040
0.0
1040
0.0
1070
     0
1070
   100
1070
     1
1070
     3
1070
     0
1070
     0
1070
     0
1070
     0
1040
0.0
1040
0.0
1040
0.0
1040
10.0
1040
10.0
1040
18.0
1040
18.0
1070
     0
1002
{
1003
TITLE
1002
}
1002
}
  0
VIEWPORT
  5
2D63
330
2D57
100
AcDbEntity
 67
     1
  8
DEFPOINTS
100
AcDbViewport
 10
49.84490117154848
 20
132.8686245606133
 30
0.0
 40
74.68373433834336
 41
81.82057124834585
 68
    -1
 69
     3
1001
ACAD
1000
MVIEW
1002
{
1070
    16
1010
0.0
1020
0.0
1030
0.0
1010
0.0
1020
0.0
1030
1.0
1040
0.0
1040
245.4617125939227
1040
109.9904586440613
1040
351.5916666225418
1040
50.0
1040
0.0
1040
0.0
1070
     0
1070
   100
1070
     1
1070
     3
1070
     0
1070
     0
1070
     0
1070
     0
1040
0.0
1040
0.0
1040
0.0
1040
10.0
1040
10.0
1040
18.0
1040
18.0
1070
     0
1002
{
1003
TITLE
1002
}
1002
}
  0
INSERT
  5
2D64
330
2D57
100
AcDbEntity
 67
     1
  8
TEXT
100
AcDbBlockReference
  2
1
 10
202.0
 20
40.0
 30
0.0
  0
INSERT
  5
2E2C
330
2D57
100
AcDbEntity
 67
     1
  8
TEXT
100
AcDbBlockReference
  2
GSPEC_F2S-12-10-120
 10
3.0
 20
4.0
 30
0.0
  0
INSERT
  5
2F02
330
2D57
100
AcDbEntity
 67
     1
  8
TEXT
100
AcDbBlockReference
  2
MSPEC_T40-75
 10
3.0
 20
4.0
 30
0.0
  0
ENDSEC
  0
SECTION
  2
OBJECTS
  0
DICTIONARY
  5
7
330
0
100
AcDbDictionary
  3
ACAD_GROUP
350
75
  3
ACAD_LAYOUT
350
61
  3
ACAD_MLINESTYLE
350
76
  3
ACAD_PLOTSETTINGS
350
77
  3
ACAD_PLOTSTYLENAME
350
6
  3
ACADDIM
350
480
  3
ACDBHEADERROUNDTRIPXREC
350
349E
  3
ACDBVARIABLEDICTIONARY
350
102
  3
DWGPROPS
350
3D2
  0
DICTIONARY
  5
34BF
330
2
100
AcDbDictionary
280
     1
  3
ACAD_LAYOUTSELFREF
360
34C0
  0
DICTIONARY
  5
34C2
330
2D57
100
AcDbDictionary
280
     1
  3
ACAD_LAYOUTSELFREF
360
34C3
  0
DICTIONARY
  5
75
102
{ACAD_REACTORS
330
7
102
}
330
7
100
AcDbDictionary
  0
DICTIONARY
  5
61
102
{ACAD_REACTORS
330
7
102
}
330
7
100
AcDbDictionary
  0
DICTIONARY
  5
76
102
{ACAD_REACTORS
330
7
102
}
330
7
100
AcDbDictionary
  3
STANDARD
350
78
  0
DICTIONARY
  5
77
102
{ACAD_REACTORS
330
7
102
}
330
7
100
AcDbDictionary
  0
ACDBDICTIONARYWDFLT
  5
6
102
{ACAD_REACTORS
330
7
102
}
330
7
100
AcDbDictionary
281
     1
  3
Normal
350
5
100
AcDbDictionaryWithDefault
340
5
  0
XRECORD
  5
480
102
{ACAD_REACTORS
330
7
102
}
330
7
100
AcDbXrecord
 90
   990106
  3

 60
     0
 61
     0
 62
     1
 63
     3
 64
     1
 65
     0
 66
     0
 67
     3
 68
     1
 69
     0
 70
     0
 71
     0
 72
     0
 40
0.0
170
     2
340
0
  0
DICTIONARY
  5
349E
102
{ACAD_REACTORS
330
7
102
}
330
7
100
AcDbDictionary
  3
CEPSNTYPE
350
34A8
  3
DIMSTYLEDATA
350
34AC
  3
FINGERPRINTGUID
350
34A9
  3
HYPERLINKBASE
350
34A1
  3
INSUNITS
350
34A7
  3
LAYOUTDICT
350
34A3
  3
LWETCUNION
350
34A6
  3
PLOTSETDICT
350
34A4
  3
PLOTSTYLNAMDICT
350
34A5
  3
PSVPSCALE
350
34AB
  3
PUCSBASE
350
34AF
  3
PUCSORGBACK
350
34B5
  3
PUCSORGBOTTOM
350
34B1
  3
PUCSORGFRONT
350
34B4
  3
PUCSORGLEFT
350
34B2
  3
PUCSORGRIGHT
350
34B3
  3
PUCSORGTOP
350
34B0
  3
PUCSORTHOREF
350
34AD
  3
PUCSORTHOVIEW
350
34AE
  3
STYLESHEET
350
34A2
  3
TSTACKALIGN
350
349F
  3
TSTACKSIZE
350
34A0
  3
UCSBASE
350
34B8
  3
UCSORGBACK
350
34BE
  3
UCSORGBOTTOM
350
34BA
  3
UCSORGFRONT
350
34BD
  3
UCSORGLEFT
350
34BB
  3
UCSORGRIGHT
350
34BC
  3
UCSORGTOP
350
34B9
  3
UCSORTHOREF
350
34B6
  3
UCSORTHOVIEW
350
34B7
  3
VERSIONGUID
350
34AA
  0
DICTIONARY
  5
102
102
{ACAD_REACTORS
330
7
102
}
330
7
100
AcDbDictionary
  3
DIMASSOC
350
103
  0
XRECORD
  5
3D2
102
{ACAD_REACTORS
330
7
102
}
330
7
100
AcDbXrecord
  1
DWGPROPS COOKIE
  2

  3

  4

  6

  7

  8

  9

300
=
301
=
302
=
303
=
304
=
305
=
306
=
307
=
308
=
309
=
 40
0.5353330671296296
 41
2452052.431989363
 42
2453406.550756377
  1

 90
        0
  0
XRECORD
  5
34C0
102
{ACAD_REACTORS
330
34BF
102
}
330
34BF
100
AcDbXrecord
340
2
  0
XRECORD
  5
34C3
102
{ACAD_REACTORS
330
34C2
102
}
330
34C2
100
AcDbXrecord
340
2D57
  0
MLINESTYLE
  5
78
102
{ACAD_REACTORS
330
76
102
}
330
76
100
AcDbMlineStyle
  2
STANDARD
 70
     0
  3

 62
     0
 51
90.0
 52
90.0
 71
     2
 49
0.5
 62
   256
  6
BYLAYER
 49
-0.5
 62
   256
  6
BYLAYER
  0
ACDBPLACEHOLDER
  5
5
102
{ACAD_REACTORS
330
6
102
}
330
6
100
AcDbPlaceHolder
280
     0
  0
XRECORD
  5
34A8
102
{ACAD_REACTORS
330
349E
102
}
330
349E
100
AcDbXrecord
 90
        0
  0
XRECORD
  5
34AC
102
{ACAD_REACTORS
330
349E
102
}
330
349E
100
AcDbXrecord
1000
DSTYLE
1002
{
1070
   179
 70
     2
1070
   277
 70
     6
1002
}
  0
XRECORD
  5
34A9
102
{ACAD_REACTORS
330
349E
102
}
330
349E
100
AcDbXrecord
  1
{6385560B-F4B1-4644-A7C2-A3E32AC3D232}
  0
XRECORD
  5
34A1
102
{ACAD_REACTORS
330
349E
102
}
330
349E
100
AcDbXrecord
  1

  0
XRECORD
  5
34A7
102
{ACAD_REACTORS
330
349E
102
}
330
349E
100
AcDbXrecord
 90
        0
  0
XRECORD
  5
34A3
102
{ACAD_REACTORS
330
349E
102
}
330
349E
100
AcDbXrecord
340
61
  0
XRECORD
  5
34A6
102
{ACAD_REACTORS
330
349E
102
}
330
349E
100
AcDbXrecord
 90
    10781
  0
XRECORD
  5
34A4
102
{ACAD_REACTORS
330
349E
102
}
330
349E
100
AcDbXrecord
340
77
  0
XRECORD
  5
34A5
102
{ACAD_REACTORS
330
349E
102
}
330
349E
100
AcDbXrecord
340
6
  0
XRECORD
  5
34AB
102
{ACAD_REACTORS
330
349E
102
}
330
349E
100
AcDbXrecord
 40
0.0
  0
XRECORD
  5
34AF
102
{ACAD_REACTORS
330
349E
102
}
330
349E
100
AcDbXrecord
340
0
  0
XRECORD
  5
34B5
102
{ACAD_REACTORS
330
349E
102
}
330
349E
100
AcDbXrecord
 10
0.0
 20
0.0
 30
0.0
  0
XRECORD
  5
34B1
102
{ACAD_REACTORS
330
349E
102
}
330
349E
100
AcDbXrecord
 10
0.0
 20
0.0
 30
0.0
  0
XRECORD
  5
34B4
102
{ACAD_REACTORS
330
349E
102
}
330
349E
100
AcDbXrecord
 10
0.0
 20
0.0
 30
0.0
  0
XRECORD
  5
34B2
102
{ACAD_REACTORS
330
349E
102
}
330
349E
100
AcDbXrecord
 10
0.0
 20
0.0
 30
0.0
  0
XRECORD
  5
34B3
102
{ACAD_REACTORS
330
349E
102
}
330
349E
100
AcDbXrecord
 10
0.0
 20
0.0
 30
0.0
  0
XRECORD
  5
34B0
102
{ACAD_REACTORS
330
349E
102
}
330
349E
100
AcDbXrecord
 10
0.0
 20
0.0
 30
0.0
  0
XRECORD
  5
34AD
102
{ACAD_REACTORS
330
349E
102
}
330
349E
100
AcDbXrecord
340
0
  0
XRECORD
  5
34AE
102
{ACAD_REACTORS
330
349E
102
}
330
349E
100
AcDbXrecord
 70
     0
  0
XRECORD
  5
34A2
102
{ACAD_REACTORS
330
349E
102
}
330
349E
100
AcDbXrecord
  1
Sekkei.ctb
  0
XRECORD
  5
349F
102
{ACAD_REACTORS
330
349E
102
}
330
349E
100
AcDbXrecord
 90
        1
  0
XRECORD
  5
34A0
102
{ACAD_REACTORS
330
349E
102
}
330
349E
100
AcDbXrecord
 90
       70
  0
XRECORD
  5
34B8
102
{ACAD_REACTORS
330
349E
102
}
330
349E
100
AcDbXrecord
340
0
  0
XRECORD
  5
34BE
102
{ACAD_REACTORS
330
349E
102
}
330
349E
100
AcDbXrecord
 10
0.0
 20
0.0
 30
0.0
  0
XRECORD
  5
34BA
102
{ACAD_REACTORS
330
349E
102
}
330
349E
100
AcDbXrecord
 10
0.0
 20
0.0
 30
0.0
  0
XRECORD
  5
34BD
102
{ACAD_REACTORS
330
349E
102
}
330
349E
100
AcDbXrecord
 10
0.0
 20
0.0
 30
0.0
  0
XRECORD
  5
34BB
102
{ACAD_REACTORS
330
349E
102
}
330
349E
100
AcDbXrecord
 10
0.0
 20
0.0
 30
0.0
  0
XRECORD
  5
34BC
102
{ACAD_REACTORS
330
349E
102
}
330
349E
100
AcDbXrecord
 10
0.0
 20
0.0
 30
0.0
  0
XRECORD
  5
34B9
102
{ACAD_REACTORS
330
349E
102
}
330
349E
100
AcDbXrecord
 10
0.0
 20
0.0
 30
0.0
  0
XRECORD
  5
34B6
102
{ACAD_REACTORS
330
349E
102
}
330
349E
100
AcDbXrecord
340
0
  0
XRECORD
  5
34B7
102
{ACAD_REACTORS
330
349E
102
}
330
349E
100
AcDbXrecord
 70
     0
  0
XRECORD
  5
34AA
102
{ACAD_REACTORS
330
349E
102
}
330
349E
100
AcDbXrecord
  1
{F2D4E05E-8F09-451C-8C41-AF13ECFAE1C0}
  0
DICTIONARYVAR
  5
103
102
{ACAD_REACTORS
330
102
102
}
330
102
100
DictionaryVariables
280
     0
  1
1
  0
ENDSEC
  0
EOF
