  0
SECTION
  2
HEADER
  9
$ACADVER
  1
AC1014
  9
$ACADMAINTVER
 70
     9
  9
$DWGCODEPAGE
  3
ANSI_932
  9
$INSBASE
 10
0.0
 20
0.0
 30
0.0
  9
$EXTMIN
 10
35.77860278906496
 20
39.66581656667676
 30
0.0
  9
$EXTMAX
 10
828.2582277177532
 20
423.0908279168644
 30
0.0
  9
$LIMMIN
 10
0.0
 20
0.0
  9
$LIMMAX
 10
297.0
 20
210.0
  9
$ORTHOMODE
 70
     1
  9
$REGENMODE
 70
     1
  9
$FILLMODE
 70
     1
  9
$QTEXTMODE
 70
     0
  9
$MIRRTEXT
 70
     0
  9
$DRAGMODE
 70
     2
  9
$LTSCALE
 40
3.0
  9
$OSMODE
 70
    37
  9
$ATTMODE
 70
     1
  9
$TEXTSIZE
 40
2.0
  9
$TRACEWID
 40
1.0
  9
$TEXTSTYLE
  7
STANDARD
  9
$CLAYER
  8
0
  9
$CELTYPE
  6
BYLAYER
  9
$CECOLOR
 62
   256
  9
$CELTSCALE
 40
1.0
  9
$DELOBJ
 70
     1
  9
$DISPSILH
 70
     0
  9
$DIMSCALE
 40
3.0
  9
$DIMASZ
 40
1.8
  9
$DIMEXO
 40
0.625
  9
$DIMDLI
 40
3.75
  9
$DIMRND
 40
0.0
  9
$DIMDLE
 40
0.0
  9
$DIMEXE
 40
0.8
  9
$DIMTP
 40
0.0
  9
$DIMTM
 40
0.0
  9
$DIMTXT
 40
1.8
  9
$DIMCEN
 40
2.5
  9
$DIMTSZ
 40
0.0
  9
$DIMTOL
 70
     0
  9
$DIMLIM
 70
     0
  9
$DIMTIH
 70
     0
  9
$DIMTOH
 70
     0
  9
$DIMSE1
 70
     0
  9
$DIMSE2
 70
     0
  9
$DIMTAD
 70
     1
  9
$DIMZIN
 70
     8
  9
$DIMBLK
  1

  9
$DIMASO
 70
     1
  9
$DIMSHO
 70
     1
  9
$DIMPOST
  1

  9
$DIMAPOST
  1

  9
$DIMALT
 70
     0
  9
$DIMALTD
 70
     4
  9
$DIMALTF
 40
0.0394
  9
$DIMLFAC
 40
1.0
  9
$DIMTOFL
 70
     1
  9
$DIMTVP
 40
0.0
  9
$DIMTIX
 70
     0
  9
$DIMSOXD
 70
     0
  9
$DIMSAH
 70
     0
  9
$DIMBLK1
  1

  9
$DIMBLK2
  1

  9
$DIMSTYLE
  2
STANDARD
  9
$DIMCLRD
 70
     0
  9
$DIMCLRE
 70
     0
  9
$DIMCLRT
 70
     0
  9
$DIMTFAC
 40
1.0
  9
$DIMGAP
 40
0.75
  9
$DIMJUST
 70
     0
  9
$DIMSD1
 70
     0
  9
$DIMSD2
 70
     0
  9
$DIMTOLJ
 70
     1
  9
$DIMTZIN
 70
     0
  9
$DIMALTZ
 70
     0
  9
$DIMALTTZ
 70
     0
  9
$DIMFIT
 70
     3
  9
$DIMUPT
 70
     0
  9
$DIMUNIT
 70
     2
  9
$DIMDEC
 70
     2
  9
$DIMTDEC
 70
     2
  9
$DIMALTU
 70
     8
  9
$DIMALTTD
 70
     4
  9
$DIMTXSTY
  7
STANDARD
  9
$DIMAUNIT
 70
     0
  9
$LUNITS
 70
     2
  9
$LUPREC
 70
     3
  9
$SKETCHINC
 40
1.0
  9
$FILLETRAD
 40
10.0
  9
$AUNITS
 70
     0
  9
$AUPREC
 70
     2
  9
$MENU
  1
.
  9
$ELEVATION
 40
0.0
  9
$PELEVATION
 40
0.0
  9
$THICKNESS
 40
0.0
  9
$LIMCHECK
 70
     0
  9
$BLIPMODE
 70
     0
  9
$CHAMFERA
 40
0.0
  9
$CHAMFERB
 40
0.0
  9
$CHAMFERC
 40
20.0
  9
$CHAMFERD
 40
0.0
  9
$SKPOLY
 70
     0
  9
$TDCREATE
 40
2453557.745358970
  9
$TDUPDATE
 40
2453676.388512361
  9
$TDINDWG
 40
0.3549663657
  9
$TDUSRTIMER
 40
0.3549661921
  9
$USRTIMER
 70
     1
  9
$ANGBASE
 50
0.0
  9
$ANGDIR
 70
     0
  9
$PDMODE
 70
     0
  9
$PDSIZE
 40
-10.0
  9
$PLINEWID
 40
0.0
  9
$COORDS
 70
     0
  9
$SPLFRAME
 70
     0
  9
$SPLINETYPE
 70
     6
  9
$SPLINESEGS
 70
     8
  9
$ATTDIA
 70
     0
  9
$ATTREQ
 70
     1
  9
$HANDLING
 70
-16383
  9
$HANDSEED
  5
244F
  9
$SURFTAB1
 70
     6
  9
$SURFTAB2
 70
     6
  9
$SURFTYPE
 70
     6
  9
$SURFU
 70
     6
  9
$SURFV
 70
     6
  9
$UCSNAME
  2

  9
$UCSORG
 10
0.0
 20
0.0
 30
0.0
  9
$UCSXDIR
 10
1.0
 20
0.0
 30
0.0
  9
$UCSYDIR
 10
0.0
 20
1.0
 30
0.0
  9
$PUCSNAME
  2

  9
$PUCSORG
 10
0.0
 20
0.0
 30
0.0
  9
$PUCSXDIR
 10
1.0
 20
0.0
 30
0.0
  9
$PUCSYDIR
 10
0.0
 20
1.0
 30
0.0
  9
$USERI1
 70
     0
  9
$USERI2
 70
     0
  9
$USERI3
 70
     0
  9
$USERI4
 70
     0
  9
$USERI5
 70
     0
  9
$USERR1
 40
0.0
  9
$USERR2
 40
0.0
  9
$USERR3
 40
0.0
  9
$USERR4
 40
0.0
  9
$USERR5
 40
0.0
  9
$WORLDVIEW
 70
     1
  9
$SHADEDGE
 70
     3
  9
$SHADEDIF
 70
    70
  9
$TILEMODE
 70
     1
  9
$MAXACTVP
 70
    48
  9
$PINSBASE
 10
0.0
 20
0.0
 30
0.0
  9
$PLIMCHECK
 70
     0
  9
$PEXTMIN
 10
0.0
 20
0.0
 30
0.0
  9
$PEXTMAX
 10
0.0
 20
0.0
 30
0.0
  9
$PLIMMIN
 10
0.0
 20
0.0
  9
$PLIMMAX
 10
12.0
 20
9.0
  9
$UNITMODE
 70
     0
  9
$VISRETAIN
 70
     1
  9
$PLINEGEN
 70
     0
  9
$PSLTSCALE
 70
     1
  9
$TREEDEPTH
 70
  3020
  9
$PICKSTYLE
 70
     1
  9
$CMLSTYLE
  2
STANDARD
  9
$CMLJUST
 70
     0
  9
$CMLSCALE
 40
1.0
  9
$PROXYGRAPHICS
 70
     1
  9
$MEASUREMENT
 70
     0
  0
ENDSEC
  0
SECTION
  2
CLASSES
  0
CLASS
  1
DICTIONARYVAR
  2
AcDbDictionaryVar
  3
AutoCAD 2000
 90
        0
280
     0
281
     0
  0
CLASS
  1
ACDBDICTIONARYWDFLT
  2
AcDbDictionaryWithDefault
  3
AutoCAD 2000
 90
        0
280
     0
281
     0
  0
CLASS
  1
ACDBPLACEHOLDER
  2
AcDbPlaceHolder
  3
AutoCAD 2000
 90
        0
280
     0
281
     0
  0
CLASS
  1
LAYOUT
  2
AcDbLayout
  3
AutoCAD 2000
 90
        0
280
     0
281
     0
  0
CLASS
  1
LONG_TRANSACTION
  2
AcDbLongTransaction
  3
AutoCAD 2000
 90
        0
280
     0
281
     0
  0
CLASS
  1
LWPOLYLINE
  2
AcDbPolyline
  3
AutoCAD 2000
 90
        0
280
     0
281
     1
  0
CLASS
  1
HATCH
  2
AcDbHatch
  3
AutoCAD 2000
 90
        0
280
     0
281
     1
  0
CLASS
  1
XRECORD
  2
AcDbXrecord
  3
AutoCAD 2000
 90
        0
280
     0
281
     0
  0
CLASS
  1
LONG_TRANSACTION
  2
AcDbLongTransaction
  3
AutoCAD 2000
 90
        0
280
     0
281
     0
  0
CLASS
  1
LWPOLYLINE
  2
AcDbPolyline
  3
AutoCAD 2000
 90
        0
280
     0
281
     1
  0
CLASS
  1
HATCH
  2
AcDbHatch
  3
AutoCAD 2000
 90
        0
280
     0
281
     1
  0
CLASS
  1
XRECORD
  2
AcDbXrecord
  3
AutoCAD 2000
 90
        0
280
     0
281
     0
  0
ENDSEC
  0
SECTION
  2
TABLES
  0
TABLE
  2
VPORT
  5
6E
330
0
100
AcDbSymbolTable
 70
     2
  0
VPORT
  5
242A
330
6E
100
AcDbSymbolTableRecord
100
AcDbViewportTableRecord
  2
*ACTIVE
 70
     0
 10
0.0
 20
0.0
 11
1.0
 21
1.0
 12
440.9130390486762
 22
252.2265123685779
 13
0.0
 23
0.0
 14
10.0
 24
10.0
 15
10.0
 25
10.0
 16
0.0
 26
0.0
 36
1.0
 17
0.0
 27
0.0
 37
0.0
 40
519.7895336798617
 41
1.566970091027308
 42
50.0
 43
0.0
 44
0.0
 50
0.0
 51
0.0
 71
     0
 72
   100
 73
     1
 74
     3
 75
     0
 76
     0
 77
     0
 78
     0
  0
ENDTAB
  0
TABLE
  2
LTYPE
  5
69
330
0
100
AcDbSymbolTable
 70
     6
  0
LTYPE
  5
6A
330
69
100
AcDbSymbolTableRecord
100
AcDbLinetypeTableRecord
  2
BYBLOCK
 70
     0
  3

 72
    65
 73
     0
 40
0.0
  0
LTYPE
  5
6B
330
69
100
AcDbSymbolTableRecord
100
AcDbLinetypeTableRecord
  2
BYLAYER
 70
     0
  3

 72
    65
 73
     0
 40
0.0
  0
LTYPE
  5
8
330
69
100
AcDbSymbolTableRecord
100
AcDbLinetypeTableRecord
  2
CONTINUOUS
 70
     0
  3
Solid line
 72
    65
 73
     0
 40
0.0
  0
LTYPE
  5
27C
330
69
100
AcDbSymbolTableRecord
100
AcDbLinetypeTableRecord
  2
SEKKEI_A2_
 70
     0
  3
center(A2)  ____ _ ____ _ ____ _ ____ _ ____ _ 
 72
    65
 73
     4
 40
14.28749999999999
 49
9.525
 74
     0
 49
-1.587499999999999
 74
     0
 49
1.587499999999999
 74
     0
 49
-1.587499999999999
 74
     0
  0
LTYPE
  5
2B4
330
69
100
AcDbSymbolTableRecord
100
AcDbLinetypeTableRecord
  2
HIDDEN2
 70
     0
  3
Hidden (.5x) _ _ _ _ _ _ _ _ _ _ _ _ _ _ _ _ _
 72
    65
 73
     2
 40
4.762499999999998
 49
3.174999999999998
 74
     0
 49
-1.587499999999999
 74
     0
  0
LTYPE
  5
477
330
69
100
AcDbSymbolTableRecord
100
AcDbLinetypeTableRecord
  2
SEKKEI-P_A4_
 70
     0
  3
Phantom(A4)  ____ _ _ ____ _ _ ____ _ _ _____
 72
    65
 73
     6
 40
15.0
 49
7.5
 74
     0
 49
-1.5
 74
     0
 49
1.5
 74
     0
 49
-1.5
 74
     0
 49
1.5
 74
     0
 49
-1.5
 74
     0
  0
LTYPE
  5
48F
330
69
100
AcDbSymbolTableRecord
100
AcDbLinetypeTableRecord
  2
SEKKEI_H
 70
     0
  3
Hidden-S _ _ _ _ _ _ _ _ _ _ _ _ _ _ _ _ _
 72
    65
 73
     2
 40
2.381249999999999
 49
1.587499999999999
 74
     0
 49
-0.79375
 74
     0
  0
LTYPE
  5
494
330
69
100
AcDbSymbolTableRecord
100
AcDbLinetypeTableRecord
  2
SEKKEI_P_S
 70
     0
  3
Phantom_S   __ _ _ __ _ _ __ _ _ ___
 72
    65
 73
     6
 40
7.5
 49
3.75
 74
     0
 49
-0.75
 74
     0
 49
0.75
 74
     0
 49
-0.75
 74
     0
 49
0.75
 74
     0
 49
-0.75
 74
     0
  0
ENDTAB
  0
TABLE
  2
LAYER
  5
66
330
0
100
AcDbSymbolTable
 70
     6
  0
LAYER
  5
5E
330
66
100
AcDbSymbolTableRecord
100
AcDbLayerTableRecord
  2
0
 70
     0
 62
     7
  6
CONTINUOUS
  0
LAYER
  5
3E
330
66
100
AcDbSymbolTableRecord
100
AcDbLayerTableRecord
  2
CENTER
 70
     0
 62
     3
  6
SEKKEI_A2_
  0
LAYER
  5
2B5
330
66
100
AcDbSymbolTableRecord
100
AcDbLayerTableRecord
  2
HIDS
 70
     0
 62
     1
  6
HIDDEN2
  0
LAYER
  5
2BA
330
66
100
AcDbSymbolTableRecord
100
AcDbLayerTableRecord
  2
HOJO
 70
     0
 62
     4
  6
CONTINUOUS
  0
LAYER
  5
3FA
330
66
100
AcDbSymbolTableRecord
100
AcDbLayerTableRecord
  2
TITLE
 70
     0
 62
     4
  6
CONTINUOUS
  0
LAYER
  5
478
330
66
100
AcDbSymbolTableRecord
100
AcDbLayerTableRecord
  2
PHAS
 70
     0
 62
     2
  6
SEKKEI-P_A4_
  0
ENDTAB
  0
TABLE
  2
STYLE
  5
67
330
0
100
AcDbSymbolTable
 70
     1
  0
STYLE
  5
16
330
67
100
AcDbSymbolTableRecord
100
AcDbTextStyleTableRecord
  2
STANDARD
 70
     0
 40
0.0
 41
1.0
 50
0.0
 71
     0
 42
2.0
  3
simplex.shx
  4
extfont.shx
  0
ENDTAB
  0
TABLE
  2
VIEW
  5
6C
330
0
100
AcDbSymbolTable
 70
     0
  0
ENDTAB
  0
TABLE
  2
UCS
  5
6D
330
0
100
AcDbSymbolTable
 70
     0
  0
ENDTAB
  0
TABLE
  2
APPID
  5
70
330
0
100
AcDbSymbolTable
 70
     1
  0
APPID
  5
71
330
70
100
AcDbSymbolTableRecord
100
AcDbRegAppTableRecord
  2
ACAD
 70
     0
  0
ENDTAB
  0
TABLE
  2
DIMSTYLE
  5
72
330
0
100
AcDbSymbolTable
 70
     1
  0
DIMSTYLE
105
73
330
72
100
AcDbSymbolTableRecord
100
AcDbDimStyleTableRecord
  2
STANDARD
 70
     0
  3

  4

  5

  6

  7

 40
3.0
 41
1.8
 42
0.625
 43
3.75
 44
0.8
 45
0.0
 46
0.0
 47
0.0
 48
0.0
140
1.8
141
2.5
142
0.0
143
0.0394
144
1.0
145
0.0
146
1.0
147
0.75
 71
     0
 72
     0
 73
     0
 74
     0
 75
     0
 76
     0
 77
     1
 78
     8
170
     0
171
     4
172
     1
173
     0
174
     0
175
     0
176
     0
177
     0
178
     0
270
     2
271
     2
272
     2
273
     8
274
     4
340
16
275
     0
280
     0
281
     0
282
     0
283
     1
284
     0
285
     0
286
     0
287
     3
288
     0
  0
ENDTAB
  0
TABLE
  2
BLOCK_RECORD
  5
1
330
0
100
AcDbSymbolTable
 70
     1
  0
BLOCK_RECORD
  5
2
102
{ACAD_XDICTIONARY
360
241B
102
}
330
1
100
AcDbSymbolTableRecord
100
AcDbBlockTableRecord
  2
*MODEL_SPACE
  0
BLOCK_RECORD
  5
2425
102
{ACAD_XDICTIONARY
360
244D
102
}
330
1
100
AcDbSymbolTableRecord
100
AcDbBlockTableRecord
  2
*PAPER_SPACE
  0
ENDTAB
  0
ENDSEC
  0
SECTION
  2
BLOCKS
  0
BLOCK
  5
5D
330
2
100
AcDbEntity
  8
0
100
AcDbBlockBegin
  2
*MODEL_SPACE
 70
     0
 10
0.0
 20
0.0
 30
0.0
  3
*MODEL_SPACE
  1

  0
ENDBLK
  5
5F
330
2
100
AcDbEntity
  8
0
100
AcDbBlockEnd
  0
BLOCK
  5
2427
330
2425
100
AcDbEntity
 67
     1
  8
0
100
AcDbBlockBegin
  2
*PAPER_SPACE
 70
     0
 10
0.0
 20
0.0
 30
0.0
  3
*PAPER_SPACE
  1

  0
ENDBLK
  5
2428
330
2425
100
AcDbEntity
 67
     1
  8
0
100
AcDbBlockEnd
  0
ENDSEC
  0
SECTION
  2
ENTITIES
  0
LINE
  5
7FC
330
2
100
AcDbEntity
  8
HIDS
100
AcDbLine
 10
381.3475393156591
 20
112.5033779652117
 30
0.0
 11
425.916081315659
 21
112.5033779652117
 31
0.0
  0
LINE
  5
7FD
330
2
100
AcDbEntity
  8
HIDS
100
AcDbLine
 10
427.3475393156591
 20
192.5033779652116
 30
0.0
 11
382.7789973156591
 21
192.5033779652116
 31
0.0
  0
LINE
  5
80B
330
2
100
AcDbEntity
  8
HIDS
100
AcDbLine
 10
383.312627315659
 20
114.8705429652117
 30
0.0
 11
404.347539315659
 21
114.5033779652117
 31
0.0
  0
LINE
  5
80C
330
2
100
AcDbEntity
  8
HIDS
100
AcDbLine
 10
383.312627315659
 20
190.1362059652116
 30
0.0
 11
404.347539315659
 21
190.5033779652115
 31
0.0
  0
CIRCLE
  5
810
330
2
100
AcDbEntity
  8
HOJO
100
AcDbCircle
 10
268.8546247572991
 20
186.0033779652116
 30
0.0
 40
4.0
  0
CIRCLE
  5
811
330
2
100
AcDbEntity
  8
0
100
AcDbCircle
 10
268.8546247572991
 20
186.0033779652116
 30
0.0
 40
4.25
  0
CIRCLE
  5
812
330
2
100
AcDbEntity
  8
HOJO
100
AcDbCircle
 10
182.8546247572992
 20
186.0033779652116
 30
0.0
 40
4.0
  0
CIRCLE
  5
813
330
2
100
AcDbEntity
  8
0
100
AcDbCircle
 10
182.8546247572992
 20
186.0033779652116
 30
0.0
 40
4.25
  0
LINE
  5
814
330
2
100
AcDbEntity
  8
HIDS
100
AcDbLine
 10
379.2434743156591
 20
191.0389159652116
 30
0.0
 11
365.8120173156591
 21
177.6074579652116
 31
0.0
  0
ARC
  5
815
330
2
100
AcDbEntity
  8
0
100
AcDbCircle
 10
177.8546247572992
 20
182.5033779652116
 30
0.0
 40
2.0
100
AcDbArc
 50
180.0
 51
270.0
  0
ARC
  5
816
330
2
100
AcDbEntity
  8
0
100
AcDbCircle
 10
273.8546247572991
 20
182.5033779652116
 30
0.0
 40
2.0
100
AcDbArc
 50
270.0
 51
0.0
  0
LINE
  5
817
330
2
100
AcDbEntity
  8
0
100
AcDbLine
 10
44.29913275729926
 20
187.5033779652116
 30
0.0
 11
44.29913275729926
 21
117.5033779652117
 31
0.0
  0
LINE
  5
818
330
2
100
AcDbEntity
  8
0
100
AcDbLine
 10
93.29912075729929
 20
112.5033779652117
 30
0.0
 11
93.29912075729929
 21
192.5033779652116
 31
0.0
  0
ARC
  5
819
330
2
100
AcDbEntity
  8
0
100
AcDbCircle
 10
197.8546247572992
 20
183.5033779652116
 30
0.0
 40
2.0
100
AcDbArc
 50
319.3987049999997
 51
0.0
  0
LINE
  5
81A
330
2
100
AcDbEntity
  8
0
100
AcDbLine
 10
189.4532727572991
 20
173.7017879652116
 30
0.0
 11
197.3731337572992
 21
182.9416409652116
 31
0.0
  0
ARC
  5
81B
330
2
100
AcDbEntity
  8
0
100
AcDbCircle
 10
253.8546247572992
 20
183.5033779652116
 30
0.0
 40
2.0
100
AcDbArc
 50
180.0
 51
220.6012879999999
  0
LINE
  5
81C
330
2
100
AcDbEntity
  8
0
100
AcDbLine
 10
262.255991757299
 20
173.7017879652116
 30
0.0
 11
254.336100757299
 21
182.9416409652116
 31
0.0
  0
LINE
  5
81E
330
2
100
AcDbEntity
  8
0
100
AcDbLine
 10
275.8546247572991
 20
119.0033779652116
 30
0.0
 11
275.8546247572991
 21
186.0033779652116
 31
0.0
  0
LINE
  5
820
330
2
100
AcDbEntity
  8
0
100
AcDbLine
 10
175.8546247572992
 20
186.0033779652116
 30
0.0
 11
175.8546247572992
 21
168.8318079652117
 31
0.0
  0
LINE
  5
821
330
2
100
AcDbEntity
  8
0
100
AcDbLine
 10
102.7991207572992
 20
190.5033779652115
 30
0.0
 11
102.7991207572992
 21
114.5033779652117
 31
0.0
  0
ARC
  5
825
330
2
100
AcDbEntity
  8
HIDS
100
AcDbCircle
 10
378.347539315659
 20
184.2051139652116
 30
0.0
 40
3.0
100
AcDbArc
 50
309.3567009999997
 51
0.0
  0
LINE
  5
827
330
2
100
AcDbEntity
  8
0
100
AcDbLine
 10
102.7991207572992
 20
122.2544159652116
 30
0.0
 11
175.8546247572992
 21
122.2544159652116
 31
0.0
  0
LINE
  5
828
330
2
100
AcDbEntity
  8
0
100
AcDbLine
 10
102.7991207572992
 20
114.5033779652117
 30
0.0
 11
174.4958757572991
 21
114.5033779652117
 31
0.0
  0
LINE
  5
829
330
2
100
AcDbEntity
  8
CENTER
100
AcDbLine
 10
283.3953957572991
 20
152.5033779652116
 30
0.0
 11
35.77860278906496
 21
152.5033779652116
 31
0.0
  0
LINE
  5
82B
330
2
100
AcDbEntity
  8
0
100
AcDbLine
 10
49.29913275729926
 20
112.5033779652117
 30
0.0
 11
93.29912075729929
 21
112.5033779652117
 31
0.0
  0
ARC
  5
82C
330
2
100
AcDbEntity
  8
0
100
AcDbCircle
 10
49.29913975729926
 20
117.5033779652117
 30
0.0
 40
5.0
100
AcDbArc
 50
180.0
 51
270.0
  0
LINE
  5
82D
330
2
100
AcDbEntity
  8
0
100
AcDbLine
 10
93.29912075729929
 20
122.2543769652115
 30
0.0
 11
102.7991207572992
 21
122.2543769652115
 31
0.0
  0
LINE
  5
82E
330
2
100
AcDbEntity
  8
0
100
AcDbLine
 10
93.29912075729929
 20
114.5033779652117
 30
0.0
 11
102.7991207572992
 21
114.5033779652117
 31
0.0
  0
LINE
  5
82F
330
2
100
AcDbEntity
  8
0
100
AcDbLine
 10
47.04913275729928
 20
176.5033779652116
 30
0.0
 11
93.29912075729929
 21
176.5033779652116
 31
0.0
  0
LINE
  5
830
330
2
100
AcDbEntity
  8
0
100
AcDbLine
 10
47.04913275729928
 20
126.5033779652116
 30
0.0
 11
93.29912075729929
 21
126.5033779652116
 31
0.0
  0
CIRCLE
  5
831
330
2
100
AcDbEntity
  8
HOJO
100
AcDbCircle
 10
268.8546247572991
 20
119.0033779652116
 30
0.0
 40
4.0
  0
CIRCLE
  5
832
330
2
100
AcDbEntity
  8
0
100
AcDbCircle
 10
268.8546247572991
 20
119.0033779652116
 30
0.0
 40
4.25
  0
CIRCLE
  5
833
330
2
100
AcDbEntity
  8
0
100
AcDbCircle
 10
268.8546247572991
 20
119.0033779652116
 30
0.0
 40
3.399999999999999
  0
LINE
  5
835
330
2
100
AcDbEntity
  8
0
100
AcDbLine
 10
273.8546247572991
 20
171.5033779652116
 30
0.0
 11
271.3546247572991
 21
171.5033779652116
 31
0.0
  0
LINE
  5
836
330
2
100
AcDbEntity
  8
0
100
AcDbLine
 10
273.8546247572991
 20
180.5033779652116
 30
0.0
 11
271.3546247572991
 21
180.5033779652116
 31
0.0
  0
LINE
  5
837
330
2
100
AcDbEntity
  8
0
100
AcDbLine
 10
271.3546247572991
 20
174.2033599652117
 30
0.0
 11
272.8546247572992
 21
175.0693879652116
 31
0.0
  0
LINE
  5
838
330
2
100
AcDbEntity
  8
0
100
AcDbLine
 10
271.3546247572991
 20
177.8033659652116
 30
0.0
 11
272.8546247572992
 21
176.9373379652116
 31
0.0
  0
CIRCLE
  5
839
330
2
100
AcDbEntity
  8
0
100
AcDbCircle
 10
271.3546247572991
 20
176.0033779652116
 30
0.0
 40
3.5
  0
CIRCLE
  5
83A
330
2
100
AcDbEntity
  8
0
100
AcDbCircle
 10
271.3546247572991
 20
176.0033779652116
 30
0.0
 40
3.799999999999998
  0
LINE
  5
83B
330
2
100
AcDbEntity
  8
0
100
AcDbLine
 10
273.8546247572991
 20
133.5033779652116
 30
0.0
 11
271.3546247572991
 21
133.5033779652116
 31
0.0
  0
LINE
  5
83C
330
2
100
AcDbEntity
  8
0
100
AcDbLine
 10
273.8546247572991
 20
124.5033779652116
 30
0.0
 11
271.3546247572991
 21
124.5033779652116
 31
0.0
  0
LINE
  5
83E
330
2
100
AcDbEntity
  8
0
100
AcDbLine
 10
271.3546247572991
 20
130.8033959652117
 30
0.0
 11
272.8546247572992
 21
129.9373679652117
 31
0.0
  0
LINE
  5
83F
330
2
100
AcDbEntity
  8
0
100
AcDbLine
 10
271.3546247572991
 20
127.2033899652116
 30
0.0
 11
272.8546247572992
 21
128.0694179652116
 31
0.0
  0
CIRCLE
  5
840
330
2
100
AcDbEntity
  8
0
100
AcDbCircle
 10
271.3546247572991
 20
129.0033779652116
 30
0.0
 40
3.5
  0
CIRCLE
  5
841
330
2
100
AcDbEntity
  8
0
100
AcDbCircle
 10
271.3546247572991
 20
129.0033779652116
 30
0.0
 40
3.799999999999998
  0
ARC
  5
842
330
2
100
AcDbEntity
  8
0
100
AcDbCircle
 10
268.8546247572991
 20
119.0033779652116
 30
0.0
 40
7.0
100
AcDbArc
 50
227.3640749999997
 51
0.0
  0
CIRCLE
  5
845
330
2
100
AcDbEntity
  8
0
100
AcDbCircle
 10
180.3546247572992
 20
129.0033779652116
 30
0.0
 40
3.5
  0
CIRCLE
  5
846
330
2
100
AcDbEntity
  8
0
100
AcDbCircle
 10
180.3546247572992
 20
129.0033779652116
 30
0.0
 40
3.799999999999998
  0
ARC
  5
847
330
2
100
AcDbEntity
  8
0
100
AcDbCircle
 10
180.3546247572992
 20
129.0033779652116
 30
0.0
 40
4.5
100
AcDbArc
 50
270.0
 51
90.0
  0
ARC
  5
848
330
2
100
AcDbEntity
  8
0
100
AcDbCircle
 10
271.3546247572991
 20
129.0033779652116
 30
0.0
 40
4.5
100
AcDbArc
 50
90.0
 51
270.0
  0
LINE
  5
84A
330
2
100
AcDbEntity
  8
0
100
AcDbLine
 10
190.3731337572992
 20
133.3049679652116
 30
0.0
 11
199.3731337572992
 21
122.8049599652117
 31
0.0
  0
LINE
  5
84B
330
2
100
AcDbEntity
  8
0
100
AcDbLine
 10
189.4532727572991
 20
131.3049679652116
 30
0.0
 11
197.3731337572992
 21
122.0651149652116
 31
0.0
  0
LINE
  5
84C
330
2
100
AcDbEntity
  8
0
100
AcDbLine
 10
261.336100757299
 20
133.3049679652116
 30
0.0
 11
252.3361157572991
 21
122.8049599652117
 31
0.0
  0
LINE
  5
84D
330
2
100
AcDbEntity
  8
0
100
AcDbLine
 10
262.255991757299
 20
131.3049679652116
 30
0.0
 11
254.336100757299
 21
122.0651149652116
 31
0.0
  0
LINE
  5
84E
330
2
100
AcDbEntity
  8
0
100
AcDbLine
 10
175.8546247572992
 20
136.1749479652116
 30
0.0
 11
175.8546247572992
 21
119.0033779652116
 31
0.0
  0
LINE
  5
84F
330
2
100
AcDbEntity
  8
0
100
AcDbLine
 10
244.8546247572992
 20
117.0033779652116
 30
0.0
 11
206.8546247572991
 21
117.0033779652116
 31
0.0
  0
LINE
  5
850
330
2
100
AcDbEntity
  8
0
100
AcDbLine
 10
182.8546247572992
 20
112.0033779652116
 30
0.0
 11
268.8546247572991
 21
112.0033779652116
 31
0.0
  0
ARC
  5
851
330
2
100
AcDbEntity
  8
0
100
AcDbCircle
 10
177.8546247572992
 20
122.5033779652116
 30
0.0
 40
2.0
100
AcDbArc
 50
90.0
 51
180.0
  0
LINE
  5
852
330
2
100
AcDbEntity
  8
0
100
AcDbLine
 10
175.1910047572992
 20
114.3786829652116
 30
0.0
 11
180.421641757299
 21
112.4397949652117
 31
0.0
  0
ARC
  5
853
330
2
100
AcDbEntity
  8
0
100
AcDbCircle
 10
182.8546247572992
 20
119.0033779652116
 30
0.0
 40
7.0
100
AcDbArc
 50
180.0
 51
312.6359250000002
  0
ARC
  5
855
330
2
100
AcDbEntity
  8
0
100
AcDbCircle
 10
174.4958757572991
 20
112.5033779652117
 30
0.0
 40
2.0
100
AcDbArc
 50
69.66126999999999
 51
90.0
  0
ARC
  5
856
330
2
100
AcDbEntity
  8
0
100
AcDbCircle
 10
202.2552897572992
 20
122.0033779652117
 30
0.0
 40
10.0
100
AcDbArc
 50
247.6683580000006
 51
270.0
  0
ARC
  5
858
330
2
100
AcDbEntity
  8
0
100
AcDbCircle
 10
191.6600137572991
 20
109.4396339652117
 30
0.0
 40
6.0
100
AcDbArc
 50
59.64169700000056
 51
132.6359250000002
  0
CIRCLE
  5
859
330
2
100
AcDbEntity
  8
HOJO
100
AcDbCircle
 10
182.8546247572992
 20
119.0033779652116
 30
0.0
 40
4.0
  0
CIRCLE
  5
85A
330
2
100
AcDbEntity
  8
0
100
AcDbCircle
 10
182.8546247572992
 20
119.0033779652116
 30
0.0
 40
4.25
  0
CIRCLE
  5
85B
330
2
100
AcDbEntity
  8
0
100
AcDbCircle
 10
182.8546247572992
 20
119.0033779652116
 30
0.0
 40
3.399999999999999
  0
LINE
  5
85C
330
2
100
AcDbEntity
  8
0
100
AcDbLine
 10
177.8546247572992
 20
124.5033779652116
 30
0.0
 11
180.3546247572992
 21
124.5033779652116
 31
0.0
  0
ARC
  5
85D
330
2
100
AcDbEntity
  8
0
100
AcDbCircle
 10
199.8546247572992
 20
120.2683849652117
 30
0.0
 40
2.0
100
AcDbArc
 50
180.0
 51
249.5126799999996
  0
ARC
  5
85E
330
2
100
AcDbEntity
  8
0
100
AcDbCircle
 10
201.8546247572992
 20
119.6384639652116
 30
0.0
 40
2.0
100
AcDbArc
 50
180.0
 51
255.5224910000005
  0
ARC
  5
85F
330
2
100
AcDbEntity
  8
0
100
AcDbCircle
 10
206.8546247572991
 20
139.0033779652116
 30
0.0
 40
22.0
100
AcDbArc
 50
249.5126879999995
 51
270.0
  0
ARC
  5
860
330
2
100
AcDbEntity
  8
0
100
AcDbCircle
 10
209.8546247572992
 20
140.5033779652116
 30
0.0
 40
30.0
100
AcDbArc
 50
239.6417009999999
 51
247.6683580000006
  0
LINE
  5
861
330
2
100
AcDbEntity
  8
0
100
AcDbLine
 10
199.7303877572991
 20
122.1972709652117
 30
0.0
 11
197.7303877572991
 21
121.4574189652116
 31
0.0
  0
ARC
  5
862
330
2
100
AcDbEntity
  8
0
100
AcDbCircle
 10
195.8546247572991
 20
120.7635329652116
 30
0.0
 40
2.0
100
AcDbArc
 50
0.0
 51
40.60129500000027
  0
ARC
  5
863
330
2
100
AcDbEntity
  8
0
100
AcDbCircle
 10
197.8546247572992
 20
121.5033779652116
 30
0.0
 40
2.0
100
AcDbArc
 50
0.0
 51
40.60129500000027
  0
LINE
  5
864
330
2
100
AcDbEntity
  8
0
100
AcDbLine
 10
199.8546247572992
 20
121.5033779652116
 30
0.0
 11
199.8546247572992
 21
119.6384639652116
 31
0.0
  0
LINE
  5
865
330
2
100
AcDbEntity
  8
0
100
AcDbLine
 10
197.8546247572992
 20
120.7635329652116
 30
0.0
 11
197.8546247572992
 21
120.2683849652117
 31
0.0
  0
ARC
  5
866
330
2
100
AcDbEntity
  8
0
100
AcDbCircle
 10
249.4539597572992
 20
122.0033779652117
 30
0.0
 40
10.0
100
AcDbArc
 50
270.0
 51
292.3316419999995
  0
ARC
  5
868
330
2
100
AcDbEntity
  8
0
100
AcDbCircle
 10
241.8546247572991
 20
140.5033779652116
 30
0.0
 40
30.0
100
AcDbArc
 50
292.3316419999995
 51
300.3583029999994
  0
ARC
  5
869
330
2
100
AcDbEntity
  8
0
100
AcDbCircle
 10
251.8546247572992
 20
120.2683849652117
 30
0.0
 40
2.0
100
AcDbArc
 50
290.4873119999995
 51
0.0
  0
ARC
  5
86A
330
2
100
AcDbEntity
  8
0
100
AcDbCircle
 10
249.8546247572992
 20
119.6384639652116
 30
0.0
 40
2.0
100
AcDbArc
 50
284.4775089999994
 51
0.0
  0
ARC
  5
86B
330
2
100
AcDbEntity
  8
0
100
AcDbCircle
 10
244.8546247572992
 20
139.0033779652116
 30
0.0
 40
22.0
100
AcDbArc
 50
270.0
 51
290.4873049999995
  0
LINE
  5
86C
330
2
100
AcDbEntity
  8
0
100
AcDbLine
 10
251.9788617572991
 20
122.1972709652117
 30
0.0
 11
253.9788617572992
 21
121.4574189652116
 31
0.0
  0
ARC
  5
86D
330
2
100
AcDbEntity
  8
0
100
AcDbCircle
 10
255.8546247572992
 20
120.7635329652116
 30
0.0
 40
2.0
100
AcDbArc
 50
139.398712
 51
180.0
  0
ARC
  5
86E
330
2
100
AcDbEntity
  8
0
100
AcDbCircle
 10
253.8546247572992
 20
121.5033779652116
 30
0.0
 40
2.0
100
AcDbArc
 50
139.398712
 51
180.0
  0
LINE
  5
86F
330
2
100
AcDbEntity
  8
0
100
AcDbLine
 10
251.8546247572992
 20
121.5033779652116
 30
0.0
 11
251.8546247572992
 21
119.6384639652116
 31
0.0
  0
LINE
  5
870
330
2
100
AcDbEntity
  8
0
100
AcDbLine
 10
253.8546247572992
 20
120.7635329652116
 30
0.0
 11
253.8546247572992
 21
120.2683849652117
 31
0.0
  0
ARC
  5
871
330
2
100
AcDbEntity
  8
0
100
AcDbCircle
 10
260.0492357572992
 20
109.4396339652117
 30
0.0
 40
6.0
100
AcDbArc
 50
47.3640670000003
 51
120.358299
  0
LINE
  5
872
330
2
100
AcDbEntity
  8
0
100
AcDbLine
 10
184.8546247572992
 20
166.0033779652116
 30
0.0
 11
184.8546247572992
 21
139.0033779652116
 31
0.0
  0
LINE
  5
873
330
2
100
AcDbEntity
  8
0
100
AcDbLine
 10
179.8546247572992
 20
141.8318079652117
 30
0.0
 11
179.8546247572992
 21
163.1749479652116
 31
0.0
  0
LINE
  5
874
330
2
100
AcDbEntity
  8
0
100
AcDbLine
 10
175.3546247572992
 20
178.1938379652116
 30
0.0
 11
175.3546247572992
 21
126.8129099652117
 31
0.0
  0
ARC
  5
875
330
2
100
AcDbEntity
  8
0
100
AcDbCircle
 10
177.8546247572992
 20
135.5033779652116
 30
0.0
 40
2.0
100
AcDbArc
 50
180.0
 51
270.0
  0
LINE
  5
877
330
2
100
AcDbEntity
  8
0
100
AcDbLine
 10
179.2688397572991
 20
140.4175929652117
 30
0.0
 11
176.4404097572992
 21
137.5891629652117
 31
0.0
  0
LINE
  5
878
330
2
100
AcDbEntity
  8
0
100
AcDbLine
 10
175.3546247572992
 20
126.8129099652117
 30
0.0
 11
175.8546247572992
 21
126.8129099652117
 31
0.0
  0
ARC
  5
879
330
2
100
AcDbEntity
  8
0
100
AcDbCircle
 10
177.8546247572992
 20
136.1749479652116
 30
0.0
 40
2.0
100
AcDbArc
 50
134.9999999999994
 51
180.0
  0
ARC
  5
87A
330
2
100
AcDbEntity
  8
0
100
AcDbCircle
 10
187.4897107572992
 20
134.0033779652116
 30
0.0
 40
2.0
100
AcDbArc
 50
194.4775090000004
 51
270.0
  0
LINE
  5
87B
330
2
100
AcDbEntity
  8
0
100
AcDbLine
 10
189.690333757299
 20
133.8204099652116
 30
0.0
 11
188.7704727572991
 21
131.8204099652116
 31
0.0
  0
LINE
  5
87C
330
2
100
AcDbEntity
  8
0
100
AcDbLine
 10
180.3546247572992
 20
127.2033899652116
 30
0.0
 11
181.8546247572992
 21
128.0694179652116
 31
0.0
  0
LINE
  5
87D
330
2
100
AcDbEntity
  8
0
100
AcDbLine
 10
181.8546247572992
 20
129.9373679652117
 30
0.0
 11
181.8546247572992
 21
128.0694179652116
 31
0.0
  0
LINE
  5
87E
330
2
100
AcDbEntity
  8
0
100
AcDbLine
 10
180.3546247572992
 20
130.8033959652117
 30
0.0
 11
181.8546247572992
 21
129.9373679652117
 31
0.0
  0
LINE
  5
87F
330
2
100
AcDbEntity
  8
0
100
AcDbLine
 10
180.3546247572992
 20
130.8033959652117
 30
0.0
 11
178.8546247572992
 21
129.9373679652117
 31
0.0
  0
LINE
  5
880
330
2
100
AcDbEntity
  8
0
100
AcDbLine
 10
178.8546247572992
 20
129.9373679652117
 30
0.0
 11
178.8546247572992
 21
128.0694179652116
 31
0.0
  0
LINE
  5
881
330
2
100
AcDbEntity
  8
0
100
AcDbLine
 10
180.3546247572992
 20
127.2033899652116
 30
0.0
 11
178.8546247572992
 21
128.0694179652116
 31
0.0
  0
LINE
  5
882
330
2
100
AcDbEntity
  8
0
100
AcDbLine
 10
187.9347487572991
 20
132.0033779652116
 30
0.0
 11
187.4897107572992
 21
132.0033779652116
 31
0.0
  0
ARC
  5
883
330
2
100
AcDbEntity
  8
0
100
AcDbCircle
 10
187.9347487572991
 20
130.0033779652116
 30
0.0
 40
2.0
100
AcDbArc
 50
40.60129500000027
 51
90.0
  0
ARC
  5
884
330
2
100
AcDbEntity
  8
0
100
AcDbCircle
 10
187.0808977572991
 20
136.0033779652116
 30
0.0
 40
2.0
100
AcDbArc
 50
188.626923
 51
270.0
  0
LINE
  5
885
330
2
100
AcDbEntity
  8
0
100
AcDbLine
 10
177.8546247572992
 20
133.5033779652116
 30
0.0
 11
180.3546247572992
 21
133.5033779652116
 31
0.0
  0
ARC
  5
886
330
2
100
AcDbEntity
  8
0
100
AcDbCircle
 10
206.8546247572991
 20
139.0033779652116
 30
0.0
 40
22.0
100
AcDbArc
 50
180.0
 51
194.4775090000004
  0
LINE
  5
887
330
2
100
AcDbEntity
  8
0
100
AcDbLine
 10
188.8546247572992
 20
134.0033779652116
 30
0.0
 11
187.0808977572991
 21
134.0033779652116
 31
0.0
  0
ARC
  5
888
330
2
100
AcDbEntity
  8
0
100
AcDbCircle
 10
188.8546247572992
 20
132.0033779652116
 30
0.0
 40
2.0
100
AcDbArc
 50
40.60129500000027
 51
90.0
  0
ARC
  5
889
330
2
100
AcDbEntity
  8
0
100
AcDbCircle
 10
177.8546247572992
 20
141.8318079652117
 30
0.0
 40
2.0
100
AcDbArc
 50
314.9999999999993
 51
0.0
  0
ARC
  5
88B
330
2
100
AcDbEntity
  8
0
100
AcDbCircle
 10
177.8546247572992
 20
169.5033779652116
 30
0.0
 40
2.0
100
AcDbArc
 50
90.0
 51
180.0
  0
CIRCLE
  5
88C
330
2
100
AcDbEntity
  8
0
100
AcDbCircle
 10
180.3546247572992
 20
176.0033779652116
 30
0.0
 40
3.5
  0
CIRCLE
  5
88D
330
2
100
AcDbEntity
  8
0
100
AcDbCircle
 10
180.3546247572992
 20
176.0033779652116
 30
0.0
 40
3.799999999999998
  0
LINE
  5
88E
330
2
100
AcDbEntity
  8
0
100
AcDbLine
 10
179.2688397572991
 20
164.5891629652117
 30
0.0
 11
176.4404097572992
 21
167.4175929652117
 31
0.0
  0
ARC
  5
88F
330
2
100
AcDbEntity
  8
0
100
AcDbCircle
 10
177.8546247572992
 20
168.8318079652117
 30
0.0
 40
2.0
100
AcDbArc
 50
180.0
 51
225.0000000000006
  0
LINE
  5
890
330
2
100
AcDbEntity
  8
0
100
AcDbLine
 10
175.3546247572992
 20
178.1938379652116
 30
0.0
 11
175.8546247572992
 21
178.1938379652116
 31
0.0
  0
ARC
  5
891
330
2
100
AcDbEntity
  8
0
100
AcDbCircle
 10
206.8546247572991
 20
166.0033779652116
 30
0.0
 40
22.0
100
AcDbArc
 50
165.5224909999994
 51
180.0
  0
ARC
  5
892
330
2
100
AcDbEntity
  8
0
100
AcDbCircle
 10
177.8546247572992
 20
163.1749479652116
 30
0.0
 40
2.0
100
AcDbArc
 50
0.0
 51
45.00000000000057
  0
LINE
  5
893
330
2
100
AcDbEntity
  8
0
100
AcDbLine
 10
190.3731337572992
 20
171.7017879652116
 30
0.0
 11
199.3731337572992
 21
182.2017879652116
 31
0.0
  0
ARC
  5
895
330
2
100
AcDbEntity
  8
0
100
AcDbCircle
 10
180.3546247572992
 20
176.0033779652116
 30
0.0
 40
4.5
100
AcDbArc
 50
270.0
 51
90.0
  0
LINE
  5
896
330
2
100
AcDbEntity
  8
0
100
AcDbLine
 10
178.8546247572992
 20
175.0693879652116
 30
0.0
 11
178.8546247572992
 21
176.9373379652116
 31
0.0
  0
LINE
  5
897
330
2
100
AcDbEntity
  8
0
100
AcDbLine
 10
181.8546247572992
 20
175.0693879652116
 30
0.0
 11
181.8546247572992
 21
176.9373379652116
 31
0.0
  0
ARC
  5
898
330
2
100
AcDbEntity
  8
0
100
AcDbCircle
 10
187.4897107572992
 20
171.0033779652116
 30
0.0
 40
2.0
100
AcDbArc
 50
90.0
 51
165.5224909999994
  0
ARC
  5
899
330
2
100
AcDbEntity
  8
0
100
AcDbCircle
 10
187.0808977572991
 20
169.0033779652116
 30
0.0
 40
2.0
100
AcDbArc
 50
90.0
 51
171.3730769999999
  0
LINE
  5
89A
330
2
100
AcDbEntity
  8
0
100
AcDbLine
 10
177.8546247572992
 20
171.5033779652116
 30
0.0
 11
180.3546247572992
 21
171.5033779652116
 31
0.0
  0
LINE
  5
89B
330
2
100
AcDbEntity
  8
0
100
AcDbLine
 10
180.3546247572992
 20
174.2033599652117
 30
0.0
 11
181.8546247572992
 21
175.0693879652116
 31
0.0
  0
LINE
  5
89C
330
2
100
AcDbEntity
  8
0
100
AcDbLine
 10
180.3546247572992
 20
174.2033599652117
 30
0.0
 11
178.8546247572992
 21
175.0693879652116
 31
0.0
  0
LINE
  5
89D
330
2
100
AcDbEntity
  8
0
100
AcDbLine
 10
187.9347487572991
 20
173.0033779652116
 30
0.0
 11
187.4897107572992
 21
173.0033779652116
 31
0.0
  0
LINE
  5
89E
330
2
100
AcDbEntity
  8
0
100
AcDbLine
 10
188.8546247572992
 20
171.0033779652116
 30
0.0
 11
187.0808977572991
 21
171.0033779652116
 31
0.0
  0
LINE
  5
89F
330
2
100
AcDbEntity
  8
0
100
AcDbLine
 10
189.690333757299
 20
171.1863459652116
 30
0.0
 11
188.7704727572991
 21
173.1863459652116
 31
0.0
  0
ARC
  5
8A0
330
2
100
AcDbEntity
  8
0
100
AcDbCircle
 10
188.8546247572992
 20
173.0033779652116
 30
0.0
 40
2.0
100
AcDbArc
 50
270.0
 51
319.3987049999997
  0
ARC
  5
8A1
330
2
100
AcDbEntity
  8
0
100
AcDbCircle
 10
187.9347487572991
 20
175.0033779652116
 30
0.0
 40
2.0
100
AcDbArc
 50
270.0
 51
319.3987049999997
  0
LINE
  5
8A2
330
2
100
AcDbEntity
  8
0
100
AcDbLine
 10
177.8546247572992
 20
180.5033779652116
 30
0.0
 11
180.3546247572992
 21
180.5033779652116
 31
0.0
  0
LINE
  5
8A3
330
2
100
AcDbEntity
  8
0
100
AcDbLine
 10
180.3546247572992
 20
177.8033659652116
 30
0.0
 11
178.8546247572992
 21
176.9373379652116
 31
0.0
  0
LINE
  5
8A4
330
2
100
AcDbEntity
  8
0
100
AcDbLine
 10
180.3546247572992
 20
177.8033659652116
 30
0.0
 11
181.8546247572992
 21
176.9373379652116
 31
0.0
  0
ARC
  5
8A5
330
2
100
AcDbEntity
  8
0
100
AcDbCircle
 10
236.8546247572992
 20
152.5033779652116
 30
0.0
 40
6.0
100
AcDbArc
 50
109.4712219999995
 51
70.52877800000044
  0
CIRCLE
  5
8A6
330
2
100
AcDbEntity
  8
0
100
AcDbCircle
 10
236.8546247572992
 20
152.5033779652116
 30
0.0
 40
10.0
  0
CIRCLE
  5
8A7
330
2
100
AcDbEntity
  8
0
100
AcDbCircle
 10
236.8546247572992
 20
152.5033779652116
 30
0.0
 40
25.002001
  0
CIRCLE
  5
8A8
330
2
100
AcDbEntity
  8
0
100
AcDbCircle
 10
236.8546247572992
 20
152.5033779652116
 30
0.0
 40
23.0
  0
CIRCLE
  5
8A9
330
2
100
AcDbEntity
  8
0
100
AcDbCircle
 10
236.8546247572992
 20
152.5033779652116
 30
0.0
 40
16.0
  0
CIRCLE
  5
8AA
330
2
100
AcDbEntity
  8
0
100
AcDbCircle
 10
236.8546247572992
 20
152.5033779652116
 30
0.0
 40
19.5
  0
LINE
  5
8AB
330
2
100
AcDbEntity
  8
0
100
AcDbLine
 10
266.8546247572991
 20
166.0033779652116
 30
0.0
 11
266.8546247572991
 21
139.0033779652116
 31
0.0
  0
ARC
  5
8AC
330
2
100
AcDbEntity
  8
0
100
AcDbCircle
 10
264.2195537572993
 20
134.0033779652116
 30
0.0
 40
2.0
100
AcDbArc
 50
270.0
 51
345.5224909999996
  0
LINE
  5
8AD
330
2
100
AcDbEntity
  8
0
100
AcDbLine
 10
262.0189007572992
 20
133.8204099652116
 30
0.0
 11
262.9387917572992
 21
131.8204099652116
 31
0.0
  0
ARC
  5
8AE
330
2
100
AcDbEntity
  8
0
100
AcDbCircle
 10
263.7744857572992
 20
130.0033779652116
 30
0.0
 40
2.0
100
AcDbArc
 50
90.0
 51
139.398712
  0
LINE
  5
8AF
330
2
100
AcDbEntity
  8
0
100
AcDbLine
 10
271.3546247572991
 20
130.8033959652117
 30
0.0
 11
269.8546247572991
 21
129.9373679652117
 31
0.0
  0
LINE
  5
8B0
330
2
100
AcDbEntity
  8
0
100
AcDbLine
 10
271.3546247572991
 20
127.2033899652116
 30
0.0
 11
269.8546247572991
 21
128.0694179652116
 31
0.0
  0
LINE
  5
8B1
330
2
100
AcDbEntity
  8
0
100
AcDbLine
 10
269.8546247572991
 20
129.9373679652117
 30
0.0
 11
269.8546247572991
 21
128.0694179652116
 31
0.0
  0
LINE
  5
8B2
330
2
100
AcDbEntity
  8
0
100
AcDbLine
 10
263.7744857572992
 20
132.0033779652116
 30
0.0
 11
264.2195537572993
 21
132.0033779652116
 31
0.0
  0
LINE
  5
8B3
330
2
100
AcDbEntity
  8
0
100
AcDbLine
 10
262.8546247572991
 20
134.0033779652116
 30
0.0
 11
264.628336757299
 21
134.0033779652116
 31
0.0
  0
ARC
  5
8B4
330
2
100
AcDbEntity
  8
0
100
AcDbCircle
 10
262.8546247572991
 20
132.0033779652116
 30
0.0
 40
2.0
100
AcDbArc
 50
90.0
 51
139.398712
  0
ARC
  5
8B5
330
2
100
AcDbEntity
  8
0
100
AcDbCircle
 10
244.8546247572992
 20
139.0033779652116
 30
0.0
 40
22.0
100
AcDbArc
 50
345.5224880000002
 51
0.0
  0
ARC
  5
8B6
330
2
100
AcDbEntity
  8
0
100
AcDbCircle
 10
264.628336757299
 20
136.0033779652116
 30
0.0
 40
2.0
100
AcDbArc
 50
270.0
 51
351.373077
  0
LINE
  5
8B7
330
2
100
AcDbEntity
  8
0
100
AcDbLine
 10
238.8546247572992
 20
160.3033809652116
 30
0.0
 11
238.8546247572992
 21
158.1602379652117
 31
0.0
  0
LINE
  5
8B8
330
2
100
AcDbEntity
  8
0
100
AcDbLine
 10
234.8546247572992
 20
160.3033809652116
 30
0.0
 11
234.8546247572992
 21
158.1602379652117
 31
0.0
  0
LINE
  5
8B9
330
2
100
AcDbEntity
  8
0
100
AcDbLine
 10
234.8546247572992
 20
160.3033809652116
 30
0.0
 11
238.8546247572992
 21
160.3033809652116
 31
0.0
  0
ARC
  5
8BA
330
2
100
AcDbEntity
  8
0
100
AcDbCircle
 10
244.8546247572992
 20
166.0033779652116
 30
0.0
 40
22.0
100
AcDbArc
 50
0.0
 51
14.47751199999975
  0
LINE
  5
8BB
330
2
100
AcDbEntity
  8
0
100
AcDbLine
 10
261.336100757299
 20
171.7017879652116
 30
0.0
 11
252.3361157572991
 21
182.2017879652116
 31
0.0
  0
ARC
  5
8BC
330
2
100
AcDbEntity
  8
0
100
AcDbCircle
 10
271.3546247572991
 20
176.0033779652116
 30
0.0
 40
4.5
100
AcDbArc
 50
90.0
 51
270.0
  0
LINE
  5
8BE
330
2
100
AcDbEntity
  8
0
100
AcDbLine
 10
269.8546247572991
 20
175.0693879652116
 30
0.0
 11
269.8546247572991
 21
176.9373379652116
 31
0.0
  0
LINE
  5
8BF
330
2
100
AcDbEntity
  8
0
100
AcDbLine
 10
262.8546247572991
 20
171.0033779652116
 30
0.0
 11
264.628336757299
 21
171.0033779652116
 31
0.0
  0
ARC
  5
8C0
330
2
100
AcDbEntity
  8
0
100
AcDbCircle
 10
263.7744857572992
 20
175.0033779652116
 30
0.0
 40
2.0
100
AcDbArc
 50
220.6012879999999
 51
270.0
  0
LINE
  5
8C1
330
2
100
AcDbEntity
  8
0
100
AcDbLine
 10
262.0189007572992
 20
171.1863459652116
 30
0.0
 11
262.9387917572992
 21
173.1863459652116
 31
0.0
  0
ARC
  5
8C2
330
2
100
AcDbEntity
  8
0
100
AcDbCircle
 10
262.8546247572991
 20
173.0033779652116
 30
0.0
 40
2.0
100
AcDbArc
 50
220.6012879999999
 51
270.0
  0
LINE
  5
8C3
330
2
100
AcDbEntity
  8
0
100
AcDbLine
 10
271.3546247572991
 20
174.2033599652117
 30
0.0
 11
269.8546247572991
 21
175.0693879652116
 31
0.0
  0
ARC
  5
8C4
330
2
100
AcDbEntity
  8
0
100
AcDbCircle
 10
264.2195537572993
 20
171.0033779652116
 30
0.0
 40
2.0
100
AcDbArc
 50
14.47751199999975
 51
90.0
  0
ARC
  5
8C5
330
2
100
AcDbEntity
  8
0
100
AcDbCircle
 10
264.628336757299
 20
169.0033779652116
 30
0.0
 40
2.0
100
AcDbArc
 50
8.626926999999758
 51
90.0
  0
LINE
  5
8C6
330
2
100
AcDbEntity
  8
0
100
AcDbLine
 10
263.7744857572992
 20
173.0033779652116
 30
0.0
 11
264.2195537572993
 21
173.0033779652116
 31
0.0
  0
LINE
  5
8C7
330
2
100
AcDbEntity
  8
0
100
AcDbLine
 10
271.3546247572991
 20
177.8033659652116
 30
0.0
 11
269.8546247572991
 21
176.9373379652116
 31
0.0
  0
LINE
  5
8C8
330
2
100
AcDbEntity
  8
HIDS
100
AcDbLine
 10
370.9505663156591
 20
126.5033779652116
 30
0.0
 11
378.347539315659
 21
119.1064049652116
 31
0.0
  0
ARC
  5
8C9
330
2
100
AcDbEntity
  8
HIDS
100
AcDbCircle
 10
367.3475393156591
 20
129.5033779652116
 30
0.0
 40
3.0
100
AcDbArc
 50
180.0
 51
270.0
  0
ARC
  5
8CF
330
2
100
AcDbEntity
  8
HIDS
100
AcDbCircle
 10
404.347539315659
 20
152.5033779652116
 30
0.0
 40
38.0
100
AcDbArc
 50
129.3567049999994
 51
230.6432950000004
  0
ARC
  5
8D0
330
2
100
AcDbEntity
  8
0
100
AcDbCircle
 10
273.8546247572991
 20
122.5033779652116
 30
0.0
 40
2.0
100
AcDbArc
 50
0.0
 51
90.0
  0
ARC
  5
8DC
330
2
100
AcDbEntity
  8
HIDS
100
AcDbCircle
 10
381.3475393156591
 20
115.5033779652117
 30
0.0
 40
3.0
100
AcDbArc
 50
180.0
 51
270.0
  0
LINE
  5
8E0
330
2
100
AcDbEntity
  8
HIDS
100
AcDbLine
 10
381.3475393156591
 20
116.8702369652116
 30
0.0
 11
381.3475393156591
 21
120.8016419652117
 31
0.0
  0
LINE
  5
8E1
330
2
100
AcDbEntity
  8
HIDS
100
AcDbLine
 10
378.347539315659
 20
115.5033779652117
 30
0.0
 11
378.347539315659
 21
119.1064049652116
 31
0.0
  0
ARC
  5
8E2
330
2
100
AcDbEntity
  8
HIDS
100
AcDbCircle
 10
383.3475393156591
 20
116.8702369652116
 30
0.0
 40
2.0
100
AcDbArc
 50
180.0
 51
268.9999999999998
  0
ARC
  5
8E4
330
2
100
AcDbEntity
  8
HIDS
100
AcDbCircle
 10
378.347539315659
 20
120.8016419652117
 30
0.0
 40
3.0
100
AcDbArc
 50
0.0
 51
50.64329900000029
  0
LINE
  5
8EB
330
2
100
AcDbEntity
  8
0
100
AcDbLine
 10
271.8546247572991
 20
141.8318079652117
 30
0.0
 11
271.8546247572991
 21
163.1749479652116
 31
0.0
  0
LINE
  5
8EC
330
2
100
AcDbEntity
  8
0
100
AcDbLine
 10
272.4404097572992
 20
140.4175929652117
 30
0.0
 11
275.2688397572991
 21
137.5891629652117
 31
0.0
  0
ARC
  5
8ED
330
2
100
AcDbEntity
  8
0
100
AcDbCircle
 10
273.8546247572991
 20
135.5033779652116
 30
0.0
 40
2.0
100
AcDbArc
 50
270.0
 51
0.0
  0
LINE
  5
8EE
330
2
100
AcDbEntity
  8
0
100
AcDbLine
 10
272.8546247572992
 20
129.9373679652117
 30
0.0
 11
272.8546247572992
 21
128.0694179652116
 31
0.0
  0
ARC
  5
8EF
330
2
100
AcDbEntity
  8
0
100
AcDbCircle
 10
273.8546247572991
 20
136.1749479652116
 30
0.0
 40
2.0
100
AcDbArc
 50
0.0
 51
45.00000000000057
  0
ARC
  5
8F0
330
2
100
AcDbEntity
  8
0
100
AcDbCircle
 10
273.8546247572991
 20
141.8318079652117
 30
0.0
 40
2.0
100
AcDbArc
 50
180.0
 51
225.0000000000006
  0
ARC
  5
8F1
330
2
100
AcDbEntity
  8
0
100
AcDbCircle
 10
273.8546247572991
 20
168.8318079652117
 30
0.0
 40
2.0
100
AcDbArc
 50
314.9999999999993
 51
0.0
  0
ARC
  5
8F2
330
2
100
AcDbEntity
  8
0
100
AcDbCircle
 10
273.8546247572991
 20
163.1749479652116
 30
0.0
 40
2.0
100
AcDbArc
 50
134.9999999999994
 51
180.0
  0
LINE
  5
8F3
330
2
100
AcDbEntity
  8
0
100
AcDbLine
 10
272.4404097572992
 20
164.5891629652117
 30
0.0
 11
275.2688397572991
 21
167.4175929652117
 31
0.0
  0
LINE
  5
8F4
330
2
100
AcDbEntity
  8
0
100
AcDbLine
 10
272.8546247572992
 20
175.0693879652116
 30
0.0
 11
272.8546247572992
 21
176.9373379652116
 31
0.0
  0
ARC
  5
8F5
330
2
100
AcDbEntity
  8
0
100
AcDbCircle
 10
273.8546247572991
 20
169.5033779652116
 30
0.0
 40
2.0
100
AcDbArc
 50
0.0
 51
90.0
  0
LINE
  5
8F6
330
2
100
AcDbEntity
  8
HIDS
100
AcDbLine
 10
364.3475393156591
 20
129.5033779652116
 30
0.0
 11
364.3475393156591
 21
174.0719199652116
 31
0.0
  0
LINE
  5
909
330
2
100
AcDbEntity
  8
HIDS
100
AcDbLine
 10
367.3475393156591
 20
126.5033779652116
 30
0.0
 11
370.9505663156591
 21
126.5033779652116
 31
0.0
  0
ARC
  5
932
330
2
100
AcDbEntity
  8
HIDS
100
AcDbCircle
 10
369.3475393156591
 20
174.0719199652116
 30
0.0
 40
5.0
100
AcDbArc
 50
134.9999999999994
 51
180.0
  0
LINE
  5
961
330
2
100
AcDbEntity
  8
0
100
AcDbLine
 10
102.7991207572992
 20
182.7523399652116
 30
0.0
 11
175.8546247572992
 21
182.7523399652116
 31
0.0
  0
LINE
  5
962
330
2
100
AcDbEntity
  8
0
100
AcDbLine
 10
102.7991207572992
 20
190.5033779652115
 30
0.0
 11
174.4958757572991
 21
190.5033779652115
 31
0.0
  0
LINE
  5
963
330
2
100
AcDbEntity
  8
0
100
AcDbLine
 10
49.29913275729926
 20
192.5033779652116
 30
0.0
 11
93.29912075729929
 21
192.5033779652116
 31
0.0
  0
ARC
  5
964
330
2
100
AcDbEntity
  8
0
100
AcDbCircle
 10
49.29913275729926
 20
187.5033779652116
 30
0.0
 40
5.0
100
AcDbArc
 50
90.0
 51
180.0
  0
LINE
  5
969
330
2
100
AcDbEntity
  8
0
100
AcDbLine
 10
93.29912075729929
 20
182.7523709652116
 30
0.0
 11
102.7991207572992
 21
182.7523709652116
 31
0.0
  0
LINE
  5
96A
330
2
100
AcDbEntity
  8
0
100
AcDbLine
 10
93.29912075729929
 20
190.5033779652115
 30
0.0
 11
102.7991207572992
 21
190.5033779652115
 31
0.0
  0
CIRCLE
  5
971
330
2
100
AcDbEntity
  8
0
100
AcDbCircle
 10
268.8546247572991
 20
186.0033779652116
 30
0.0
 40
3.399999999999999
  0
ARC
  5
972
330
2
100
AcDbEntity
  8
0
100
AcDbCircle
 10
268.8546247572991
 20
186.0033779652116
 30
0.0
 40
7.0
100
AcDbArc
 50
0.0
 51
132.6359250000002
  0
LINE
  5
974
330
2
100
AcDbEntity
  8
0
100
AcDbLine
 10
244.8546247572992
 20
188.0033779652116
 30
0.0
 11
206.8546247572991
 21
188.0033779652116
 31
0.0
  0
LINE
  5
975
330
2
100
AcDbEntity
  8
0
100
AcDbLine
 10
182.8546247572992
 20
193.0033779652116
 30
0.0
 11
268.8546247572991
 21
193.0033779652116
 31
0.0
  0
LINE
  5
976
330
2
100
AcDbEntity
  8
0
100
AcDbLine
 10
175.1910047572992
 20
190.6280729652116
 30
0.0
 11
180.421641757299
 21
192.5669609652116
 31
0.0
  0
ARC
  5
977
330
2
100
AcDbEntity
  8
0
100
AcDbCircle
 10
182.8546247572992
 20
186.0033779652116
 30
0.0
 40
7.0
100
AcDbArc
 50
47.3640670000003
 51
180.0
  0
ARC
  5
979
330
2
100
AcDbEntity
  8
0
100
AcDbCircle
 10
174.4958757572991
 20
192.5033779652116
 30
0.0
 40
2.0
100
AcDbArc
 50
270.0
 51
290.3387299999998
  0
ARC
  5
97A
330
2
100
AcDbEntity
  8
0
100
AcDbCircle
 10
191.6600137572991
 20
195.5671139652116
 30
0.0
 40
6.0
100
AcDbArc
 50
227.3640749999997
 51
300.3583029999994
  0
CIRCLE
  5
97B
330
2
100
AcDbEntity
  8
0
100
AcDbCircle
 10
182.8546247572992
 20
186.0033779652116
 30
0.0
 40
3.399999999999999
  0
ARC
  5
97C
330
2
100
AcDbEntity
  8
0
100
AcDbCircle
 10
201.8546247572992
 20
185.3682919652117
 30
0.0
 40
2.0
100
AcDbArc
 50
104.4775089999994
 51
180.0
  0
ARC
  5
97D
330
2
100
AcDbEntity
  8
0
100
AcDbCircle
 10
206.8546247572991
 20
166.0033779652116
 30
0.0
 40
22.0
100
AcDbArc
 50
90.0
 51
110.4873119999995
  0
ARC
  5
97E
330
2
100
AcDbEntity
  8
0
100
AcDbCircle
 10
199.8546247572992
 20
184.7383789652116
 30
0.0
 40
2.0
100
AcDbArc
 50
110.4873119999995
 51
180.0
  0
LINE
  5
97F
330
2
100
AcDbEntity
  8
0
100
AcDbLine
 10
199.7303877572991
 20
182.8094849652116
 30
0.0
 11
197.7303877572991
 21
183.5493369652116
 31
0.0
  0
ARC
  5
980
330
2
100
AcDbEntity
  8
0
100
AcDbCircle
 10
195.8546247572991
 20
184.2432309652116
 30
0.0
 40
2.0
100
AcDbArc
 50
319.3987049999997
 51
0.0
  0
LINE
  5
981
330
2
100
AcDbEntity
  8
0
100
AcDbLine
 10
199.8546247572992
 20
183.5033779652116
 30
0.0
 11
199.8546247572992
 21
185.3682919652117
 31
0.0
  0
LINE
  5
982
330
2
100
AcDbEntity
  8
0
100
AcDbLine
 10
197.8546247572992
 20
184.2432309652116
 30
0.0
 11
197.8546247572992
 21
184.7383789652116
 31
0.0
  0
ARC
  5
983
330
2
100
AcDbEntity
  8
0
100
AcDbCircle
 10
202.2552897572992
 20
183.0033779652116
 30
0.0
 40
10.0
100
AcDbArc
 50
90.0
 51
112.3316419999994
  0
ARC
  5
984
330
2
100
AcDbEntity
  8
0
100
AcDbCircle
 10
209.8546247572992
 20
164.5033779652116
 30
0.0
 40
30.0
100
AcDbArc
 50
112.3316419999994
 51
120.358299
  0
ARC
  5
985
330
2
100
AcDbEntity
  8
0
100
AcDbCircle
 10
241.8546247572991
 20
164.5033779652116
 30
0.0
 40
30.0
100
AcDbArc
 50
59.64169700000056
 51
67.66835800000054
  0
ARC
  5
986
330
2
100
AcDbEntity
  8
0
100
AcDbCircle
 10
244.8546247572992
 20
166.0033779652116
 30
0.0
 40
22.0
100
AcDbArc
 50
69.51268799999964
 51
90.0
  0
ARC
  5
987
330
2
100
AcDbEntity
  8
0
100
AcDbCircle
 10
251.8546247572992
 20
184.7383789652116
 30
0.0
 40
2.0
100
AcDbArc
 50
0.0
 51
69.51268799999964
  0
ARC
  5
988
330
2
100
AcDbEntity
  8
0
100
AcDbCircle
 10
249.8546247572992
 20
185.3682919652117
 30
0.0
 40
2.0
100
AcDbArc
 50
0.0
 51
75.52249100000058
  0
LINE
  5
989
330
2
100
AcDbEntity
  8
0
100
AcDbLine
 10
251.9788617572991
 20
182.8094849652116
 30
0.0
 11
253.9788617572992
 21
183.5493369652116
 31
0.0
  0
ARC
  5
98A
330
2
100
AcDbEntity
  8
0
100
AcDbCircle
 10
255.8546247572992
 20
184.2432309652116
 30
0.0
 40
2.0
100
AcDbArc
 50
180.0
 51
220.6012879999999
  0
LINE
  5
98B
330
2
100
AcDbEntity
  8
0
100
AcDbLine
 10
251.8546247572992
 20
183.5033779652116
 30
0.0
 11
251.8546247572992
 21
185.3682919652117
 31
0.0
  0
LINE
  5
98C
330
2
100
AcDbEntity
  8
0
100
AcDbLine
 10
253.8546247572992
 20
184.2432309652116
 30
0.0
 11
253.8546247572992
 21
184.7383789652116
 31
0.0
  0
ARC
  5
98D
330
2
100
AcDbEntity
  8
0
100
AcDbCircle
 10
249.4539597572992
 20
183.0033779652116
 30
0.0
 40
10.0
100
AcDbArc
 50
67.66835800000054
 51
90.0
  0
ARC
  5
98E
330
2
100
AcDbEntity
  8
0
100
AcDbCircle
 10
260.0492357572992
 20
195.5671139652116
 30
0.0
 40
6.0
100
AcDbArc
 50
239.6417009999999
 51
312.6359329999996
  0
ARC
  5
991
330
2
100
AcDbEntity
  8
HIDS
100
AcDbCircle
 10
383.3475393156591
 20
188.1365109652116
 30
0.0
 40
2.0
100
AcDbArc
 50
91.00000000000013
 51
180.0
  0
LINE
  5
992
330
2
100
AcDbEntity
  8
HIDS
100
AcDbLine
 10
381.3475393156591
 20
188.1365109652116
 30
0.0
 11
381.3475393156591
 21
184.2051139652116
 31
0.0
  0
ARC
  5
993
330
2
100
AcDbEntity
  8
HIDS
100
AcDbCircle
 10
382.7789973156591
 20
187.5033779652116
 30
0.0
 40
5.0
100
AcDbArc
 50
90.0
 51
134.9999999999994
  0
CIRCLE
  5
994
330
2
100
AcDbEntity
  8
HOJO
100
AcDbCircle
 10
595.1822167495187
 20
186.0033779652116
 30
0.0
 40
4.0
  0
CIRCLE
  5
995
330
2
100
AcDbEntity
  8
HOJO
100
AcDbCircle
 10
681.1822167495186
 20
186.0033779652116
 30
0.0
 40
4.0
  0
LINE
  5
996
330
2
100
AcDbEntity
  8
HIDS
100
AcDbLine
 10
430.3475393156591
 20
185.9003509652117
 30
0.0
 11
437.7445123156591
 21
178.5033779652116
 31
0.0
  0
LINE
  5
997
330
2
100
AcDbEntity
  8
0
100
AcDbLine
 10
819.7376977495189
 20
187.5033779652116
 30
0.0
 11
819.7376977495189
 21
117.5033779652117
 31
0.0
  0
LINE
  5
998
330
2
100
AcDbEntity
  8
0
100
AcDbLine
 10
770.7376977495187
 20
112.5033779652117
 30
0.0
 11
770.7376977495187
 21
192.5033779652116
 31
0.0
  0
ARC
  5
999
330
2
100
AcDbEntity
  8
0
100
AcDbCircle
 10
666.1822167495187
 20
183.5033779652116
 30
0.0
 40
2.0
100
AcDbArc
 50
180.0
 51
220.6012879999999
  0
LINE
  5
99A
330
2
100
AcDbEntity
  8
0
100
AcDbLine
 10
674.5835837495187
 20
173.7017879652116
 30
0.0
 11
666.6637227495186
 21
182.9416409652116
 31
0.0
  0
ARC
  5
99B
330
2
100
AcDbEntity
  8
0
100
AcDbCircle
 10
610.1822167495186
 20
183.5033779652116
 30
0.0
 40
2.0
100
AcDbArc
 50
319.3987049999997
 51
0.0
  0
LINE
  5
99C
330
2
100
AcDbEntity
  8
0
100
AcDbLine
 10
601.7808497495187
 20
173.7017879652116
 30
0.0
 11
609.7007107495187
 21
182.9416409652116
 31
0.0
  0
LINE
  5
99E
330
2
100
AcDbEntity
  8
0
100
AcDbLine
 10
588.1822167495187
 20
119.0033779652116
 30
0.0
 11
588.1822167495187
 21
186.0033779652116
 31
0.0
  0
LINE
  5
9A0
330
2
100
AcDbEntity
  8
0
100
AcDbLine
 10
688.1822167495187
 20
186.0033779652116
 30
0.0
 11
688.1822167495187
 21
168.8318079652117
 31
0.0
  0
LINE
  5
9A1
330
2
100
AcDbEntity
  8
0
100
AcDbLine
 10
761.2376977495187
 20
190.5033779652115
 30
0.0
 11
761.2376977495187
 21
114.5033779652117
 31
0.0
  0
ARC
  5
9A4
330
2
100
AcDbEntity
  8
HIDS
100
AcDbCircle
 10
430.3475393156591
 20
184.2051139652116
 30
0.0
 40
3.0
100
AcDbArc
 50
180.0
 51
230.6432950000004
  0
ARC
  5
9A7
330
2
100
AcDbEntity
  8
0
100
AcDbCircle
 10
672.3768577495189
 20
109.4396339652117
 30
0.0
 40
6.0
100
AcDbArc
 50
47.3640670000003
 51
120.358299
  0
LINE
  5
9A8
330
2
100
AcDbEntity
  8
0
100
AcDbLine
 10
675.1822167495187
 20
134.0033779652116
 30
0.0
 11
676.9559597495186
 21
134.0033779652116
 31
0.0
  0
ARC
  5
9A9
330
2
100
AcDbEntity
  8
0
100
AcDbCircle
 10
676.1020777495189
 20
130.0033779652116
 30
0.0
 40
2.0
100
AcDbArc
 50
90.0
 51
139.398712
  0
LINE
  5
9AA
330
2
100
AcDbEntity
  8
0
100
AcDbLine
 10
675.1822167495187
 20
171.0033779652116
 30
0.0
 11
676.9559597495186
 21
171.0033779652116
 31
0.0
  0
ARC
  5
9AB
330
2
100
AcDbEntity
  8
0
100
AcDbCircle
 10
676.1020777495189
 20
175.0033779652116
 30
0.0
 40
2.0
100
AcDbArc
 50
220.6012879999999
 51
270.0
  0
LINE
  5
9AC
330
2
100
AcDbEntity
  8
0
100
AcDbLine
 10
681.1822167495186
 20
112.0033779652116
 30
0.0
 11
595.1822167495187
 21
112.0033779652116
 31
0.0
  0
LINE
  5
9AE
330
2
100
AcDbEntity
  8
CENTER
100
AcDbLine
 10
580.6414457495187
 20
152.5033779652116
 30
0.0
 11
828.2582277177532
 21
152.5033779652116
 31
0.0
  0
LINE
  5
9AF
330
2
100
AcDbEntity
  8
HIDS
100
AcDbLine
 10
442.8830613156589
 20
127.3993049652117
 30
0.0
 11
429.451604315659
 21
113.9678399652116
 31
0.0
  0
ARC
  5
9B2
330
2
100
AcDbEntity
  8
HIDS
100
AcDbCircle
 10
404.347539315659
 20
152.5033779652116
 30
0.0
 40
38.0
100
AcDbArc
 50
309.3567009999997
 51
50.64329900000029
  0
ARC
  5
9B7
330
2
100
AcDbEntity
  8
HIDS
100
AcDbCircle
 10
425.916081315659
 20
117.5033779652117
 30
0.0
 40
5.0
100
AcDbArc
 50
270.0
 51
314.9999999999993
  0
LINE
  5
9B9
330
2
100
AcDbEntity
  8
HIDS
100
AcDbLine
 10
425.3824513156591
 20
114.8705429652117
 30
0.0
 11
404.347539315659
 21
114.5033779652117
 31
0.0
  0
LINE
  5
9BD
330
2
100
AcDbEntity
  8
HIDS
100
AcDbLine
 10
427.3475393156591
 20
116.8702369652116
 30
0.0
 11
427.3475393156591
 21
120.8016419652117
 31
0.0
  0
ARC
  5
9BE
330
2
100
AcDbEntity
  8
HIDS
100
AcDbCircle
 10
425.347539315659
 20
116.8702369652116
 30
0.0
 40
2.0
100
AcDbArc
 50
271.0
 51
0.0
  0
ARC
  5
9C2
330
2
100
AcDbEntity
  8
HIDS
100
AcDbCircle
 10
430.3475393156591
 20
120.8016419652117
 30
0.0
 40
3.0
100
AcDbArc
 50
129.3567049999994
 51
180.0
  0
LINE
  5
9C8
330
2
100
AcDbEntity
  8
HIDS
100
AcDbLine
 10
444.3475393156591
 20
175.5033779652116
 30
0.0
 11
444.3475393156591
 21
130.9348359652117
 31
0.0
  0
ARC
  5
9F1
330
2
100
AcDbEntity
  8
HIDS
100
AcDbCircle
 10
439.3475393156591
 20
130.9348359652117
 30
0.0
 40
5.0
100
AcDbArc
 50
314.9999999999993
 51
0.0
  0
ARC
  5
A20
330
2
100
AcDbEntity
  8
HIDS
100
AcDbCircle
 10
441.347539315659
 20
175.5033779652116
 30
0.0
 40
3.0
100
AcDbArc
 50
0.0
 51
90.0
  0
LINE
  5
A23
330
2
100
AcDbEntity
  8
HIDS
100
AcDbLine
 10
441.347539315659
 20
178.5033779652116
 30
0.0
 11
437.7445123156591
 21
178.5033779652116
 31
0.0
  0
LINE
  5
A29
330
2
100
AcDbEntity
  8
0
100
AcDbLine
 10
673.6637227495187
 20
133.3049679652116
 30
0.0
 11
664.6637227495187
 21
122.8049599652117
 31
0.0
  0
LINE
  5
A2A
330
2
100
AcDbEntity
  8
0
100
AcDbLine
 10
674.5835837495187
 20
131.3049679652116
 30
0.0
 11
666.6637227495186
 21
122.0651149652116
 31
0.0
  0
LINE
  5
A2B
330
2
100
AcDbEntity
  8
0
100
AcDbLine
 10
602.7007107495187
 20
133.3049679652116
 30
0.0
 11
611.7007107495187
 21
122.8049599652117
 31
0.0
  0
LINE
  5
A2C
330
2
100
AcDbEntity
  8
0
100
AcDbLine
 10
601.7808497495187
 20
131.3049679652116
 30
0.0
 11
609.7007107495187
 21
122.0651149652116
 31
0.0
  0
ARC
  5
A2D
330
2
100
AcDbEntity
  8
0
100
AcDbCircle
 10
614.1822167495186
 20
119.6384639652116
 30
0.0
 40
2.0
100
AcDbArc
 50
180.0
 51
255.5224910000005
  0
ARC
  5
A2E
330
2
100
AcDbEntity
  8
0
100
AcDbCircle
 10
619.1822167495187
 20
139.0033779652116
 30
0.0
 40
22.0
100
AcDbArc
 50
249.5126879999995
 51
270.0
  0
ARC
  5
A2F
330
2
100
AcDbEntity
  8
0
100
AcDbCircle
 10
614.5828517495186
 20
122.0033779652117
 30
0.0
 40
10.0
100
AcDbArc
 50
247.6683499999999
 51
270.0
  0
ARC
  5
A30
330
2
100
AcDbEntity
  8
0
100
AcDbCircle
 10
595.1822167495187
 20
119.0033779652116
 30
0.0
 40
7.0
100
AcDbArc
 50
180.0
 51
312.6359250000002
  0
CIRCLE
  5
A32
330
2
100
AcDbEntity
  8
HOJO
100
AcDbCircle
 10
595.1822167495187
 20
119.0033779652116
 30
0.0
 40
4.0
  0
CIRCLE
  5
A33
330
2
100
AcDbEntity
  8
0
100
AcDbCircle
 10
595.1822167495187
 20
119.0033779652116
 30
0.0
 40
3.399999999999999
  0
ARC
  5
A35
330
2
100
AcDbEntity
  8
0
100
AcDbCircle
 10
612.1822167495187
 20
120.2683849652117
 30
0.0
 40
2.0
100
AcDbArc
 50
180.0
 51
249.5126799999996
  0
ARC
  5
A36
330
2
100
AcDbEntity
  8
0
100
AcDbCircle
 10
603.9875757495187
 20
109.4396339652117
 30
0.0
 40
6.0
100
AcDbArc
 50
59.64169700000056
 51
132.6359250000002
  0
ARC
  5
A37
330
2
100
AcDbEntity
  8
0
100
AcDbCircle
 10
622.1822167495187
 20
140.5033779652116
 30
0.0
 40
30.0
100
AcDbArc
 50
239.6416930000005
 51
247.6683499999999
  0
LINE
  5
A38
330
2
100
AcDbEntity
  8
0
100
AcDbLine
 10
612.0580097495187
 20
122.1972709652117
 30
0.0
 11
610.0580097495187
 21
121.4574189652116
 31
0.0
  0
ARC
  5
A39
330
2
100
AcDbEntity
  8
0
100
AcDbCircle
 10
608.1822167495187
 20
120.7635329652116
 30
0.0
 40
2.0
100
AcDbArc
 50
0.0
 51
40.60129500000027
  0
ARC
  5
A3A
330
2
100
AcDbEntity
  8
0
100
AcDbCircle
 10
610.1822167495186
 20
121.5033779652116
 30
0.0
 40
2.0
100
AcDbArc
 50
0.0
 51
40.60129500000027
  0
LINE
  5
A3B
330
2
100
AcDbEntity
  8
0
100
AcDbLine
 10
612.1822167495187
 20
121.5033779652116
 30
0.0
 11
612.1822167495187
 21
119.6384639652116
 31
0.0
  0
LINE
  5
A3C
330
2
100
AcDbEntity
  8
0
100
AcDbLine
 10
610.1822167495186
 20
120.7635329652116
 30
0.0
 11
610.1822167495186
 21
120.2683849652117
 31
0.0
  0
LINE
  5
A3D
330
2
100
AcDbEntity
  8
0
100
AcDbLine
 10
619.1822167495187
 20
117.0033779652116
 30
0.0
 11
657.1822167495187
 21
117.0033779652116
 31
0.0
  0
ARC
  5
A3E
330
2
100
AcDbEntity
  8
0
100
AcDbCircle
 10
661.7815817495189
 20
122.0033779652117
 30
0.0
 40
10.0
100
AcDbArc
 50
270.0
 51
292.3316350000003
  0
ARC
  5
A3F
330
2
100
AcDbEntity
  8
0
100
AcDbCircle
 10
657.1822167495187
 20
139.0033779652116
 30
0.0
 40
22.0
100
AcDbArc
 50
270.0
 51
290.4873049999995
  0
ARC
  5
A40
330
2
100
AcDbEntity
  8
0
100
AcDbCircle
 10
664.1822167495186
 20
120.2683849652117
 30
0.0
 40
2.0
100
AcDbArc
 50
290.4873119999995
 51
0.0
  0
ARC
  5
A41
330
2
100
AcDbEntity
  8
0
100
AcDbCircle
 10
662.1822167495187
 20
119.6384639652116
 30
0.0
 40
2.0
100
AcDbArc
 50
284.4775089999994
 51
0.0
  0
ARC
  5
A42
330
2
100
AcDbEntity
  8
0
100
AcDbCircle
 10
654.1822167495187
 20
140.5033779652116
 30
0.0
 40
30.0
100
AcDbArc
 50
292.3316350000003
 51
300.3583069999994
  0
LINE
  5
A43
330
2
100
AcDbEntity
  8
0
100
AcDbLine
 10
664.3064237495187
 20
122.1972709652117
 30
0.0
 11
666.3064237495189
 21
121.4574189652116
 31
0.0
  0
ARC
  5
A44
330
2
100
AcDbEntity
  8
0
100
AcDbCircle
 10
668.1822167495186
 20
120.7635329652116
 30
0.0
 40
2.0
100
AcDbArc
 50
139.398712
 51
180.0
  0
ARC
  5
A45
330
2
100
AcDbEntity
  8
0
100
AcDbCircle
 10
666.1822167495187
 20
121.5033779652116
 30
0.0
 40
2.0
100
AcDbArc
 50
139.398712
 51
180.0
  0
LINE
  5
A46
330
2
100
AcDbEntity
  8
0
100
AcDbLine
 10
664.1822167495186
 20
121.5033779652116
 30
0.0
 11
664.1822167495186
 21
119.6384639652116
 31
0.0
  0
LINE
  5
A47
330
2
100
AcDbEntity
  8
0
100
AcDbLine
 10
666.1822167495187
 20
120.7635329652116
 30
0.0
 11
666.1822167495187
 21
120.2683849652117
 31
0.0
  0
CIRCLE
  5
A48
330
2
100
AcDbEntity
  8
0
100
AcDbCircle
 10
627.1822167495187
 20
152.5033779652116
 30
0.0
 40
25.002001
  0
CIRCLE
  5
A49
330
2
100
AcDbEntity
  8
0
100
AcDbCircle
 10
627.1822167495187
 20
152.5033779652116
 30
0.0
 40
23.0
  0
CIRCLE
  5
A4A
330
2
100
AcDbEntity
  8
0
100
AcDbCircle
 10
627.1822167495187
 20
152.5033779652116
 30
0.0
 40
16.0
  0
CIRCLE
  5
A4B
330
2
100
AcDbEntity
  8
0
100
AcDbCircle
 10
627.1822167495187
 20
152.5033779652116
 30
0.0
 40
19.5
  0
LINE
  5
A4C
330
2
100
AcDbEntity
  8
0
100
AcDbLine
 10
597.1822167495187
 20
166.0033779652116
 30
0.0
 11
597.1822167495187
 21
139.0033779652116
 31
0.0
  0
LINE
  5
A4D
330
2
100
AcDbEntity
  8
0
100
AcDbLine
 10
592.1822167495187
 20
141.8318079652117
 30
0.0
 11
592.1822167495187
 21
163.1749479652116
 31
0.0
  0
LINE
  5
A4E
330
2
100
AcDbEntity
  8
0
100
AcDbLine
 10
591.5964017495187
 20
140.4175929652117
 30
0.0
 11
588.7680317495187
 21
137.5891629652117
 31
0.0
  0
ARC
  5
A4F
330
2
100
AcDbEntity
  8
0
100
AcDbCircle
 10
599.8172877495187
 20
134.0033779652116
 30
0.0
 40
2.0
100
AcDbArc
 50
194.4775090000004
 51
270.0
  0
ARC
  5
A50
330
2
100
AcDbEntity
  8
0
100
AcDbCircle
 10
599.4084737495187
 20
136.0033779652116
 30
0.0
 40
2.0
100
AcDbArc
 50
188.626923
 51
270.0
  0
ARC
  5
A51
330
2
100
AcDbEntity
  8
0
100
AcDbCircle
 10
590.1822167495187
 20
136.1749479652116
 30
0.0
 40
2.0
100
AcDbArc
 50
134.9999999999994
 51
180.0
  0
ARC
  5
A52
330
2
100
AcDbEntity
  8
0
100
AcDbCircle
 10
619.1822167495187
 20
139.0033779652116
 30
0.0
 40
22.0
100
AcDbArc
 50
180.0
 51
194.4775090000004
  0
LINE
  5
A53
330
2
100
AcDbEntity
  8
0
100
AcDbLine
 10
602.0179097495187
 20
133.8204099652116
 30
0.0
 11
601.0980497495189
 21
131.8204099652116
 31
0.0
  0
LINE
  5
A54
330
2
100
AcDbEntity
  8
0
100
AcDbLine
 10
600.2623557495187
 20
132.0033779652116
 30
0.0
 11
599.8172877495187
 21
132.0033779652116
 31
0.0
  0
ARC
  5
A55
330
2
100
AcDbEntity
  8
0
100
AcDbCircle
 10
600.2623557495187
 20
130.0033779652116
 30
0.0
 40
2.0
100
AcDbArc
 50
40.60129500000027
 51
90.0
  0
LINE
  5
A56
330
2
100
AcDbEntity
  8
0
100
AcDbLine
 10
601.1822167495187
 20
134.0033779652116
 30
0.0
 11
599.4084737495187
 21
134.0033779652116
 31
0.0
  0
ARC
  5
A57
330
2
100
AcDbEntity
  8
0
100
AcDbCircle
 10
601.1822167495187
 20
132.0033779652116
 30
0.0
 40
2.0
100
AcDbArc
 50
40.60129500000027
 51
90.0
  0
ARC
  5
A58
330
2
100
AcDbEntity
  8
0
100
AcDbCircle
 10
590.1822167495187
 20
141.8318079652117
 30
0.0
 40
2.0
100
AcDbArc
 50
314.9999999999993
 51
0.0
  0
ARC
  5
A59
330
2
100
AcDbEntity
  8
0
100
AcDbCircle
 10
619.1822167495187
 20
166.0033779652116
 30
0.0
 40
22.0
100
AcDbArc
 50
165.5224909999994
 51
180.0
  0
ARC
  5
A5A
330
2
100
AcDbEntity
  8
0
100
AcDbCircle
 10
590.1822167495187
 20
168.8318079652117
 30
0.0
 40
2.0
100
AcDbArc
 50
180.0
 51
225.0000000000006
  0
LINE
  5
A5B
330
2
100
AcDbEntity
  8
0
100
AcDbLine
 10
591.5964017495187
 20
164.5891629652117
 30
0.0
 11
588.7680317495187
 21
167.4175929652117
 31
0.0
  0
ARC
  5
A5C
330
2
100
AcDbEntity
  8
0
100
AcDbCircle
 10
590.1822167495187
 20
163.1749479652116
 30
0.0
 40
2.0
100
AcDbArc
 50
0.0
 51
45.00000000000057
  0
ARC
  5
A5D
330
2
100
AcDbEntity
  8
0
100
AcDbCircle
 10
599.8172877495187
 20
171.0033779652116
 30
0.0
 40
2.0
100
AcDbArc
 50
90.0
 51
165.5224909999994
  0
ARC
  5
A5E
330
2
100
AcDbEntity
  8
0
100
AcDbCircle
 10
599.4084737495187
 20
169.0033779652116
 30
0.0
 40
2.0
100
AcDbArc
 50
90.0
 51
171.3730769999999
  0
LINE
  5
A5F
330
2
100
AcDbEntity
  8
0
100
AcDbLine
 10
602.7007107495187
 20
171.7017879652116
 30
0.0
 11
611.7007107495187
 21
182.2017879652116
 31
0.0
  0
LINE
  5
A60
330
2
100
AcDbEntity
  8
0
100
AcDbLine
 10
600.2623557495187
 20
173.0033779652116
 30
0.0
 11
599.8172877495187
 21
173.0033779652116
 31
0.0
  0
LINE
  5
A61
330
2
100
AcDbEntity
  8
0
100
AcDbLine
 10
601.1822167495187
 20
171.0033779652116
 30
0.0
 11
599.4084737495187
 21
171.0033779652116
 31
0.0
  0
LINE
  5
A62
330
2
100
AcDbEntity
  8
0
100
AcDbLine
 10
602.0179097495187
 20
171.1863459652116
 30
0.0
 11
601.0980497495189
 21
173.1863459652116
 31
0.0
  0
ARC
  5
A63
330
2
100
AcDbEntity
  8
0
100
AcDbCircle
 10
601.1822167495187
 20
173.0033779652116
 30
0.0
 40
2.0
100
AcDbArc
 50
270.0
 51
319.3987049999997
  0
ARC
  5
A64
330
2
100
AcDbEntity
  8
0
100
AcDbCircle
 10
600.2623557495187
 20
175.0033779652116
 30
0.0
 40
2.0
100
AcDbArc
 50
270.0
 51
319.3987049999997
  0
ARC
  5
A65
330
2
100
AcDbEntity
  8
0
100
AcDbCircle
 10
627.1822167495187
 20
152.5033779652116
 30
0.0
 40
6.0
100
AcDbArc
 50
109.4712219999995
 51
70.52877800000044
  0
CIRCLE
  5
A66
330
2
100
AcDbEntity
  8
0
100
AcDbCircle
 10
627.1822167495187
 20
152.5033779652116
 30
0.0
 40
10.0
  0
LINE
  5
A67
330
2
100
AcDbEntity
  8
0
100
AcDbLine
 10
674.3465237495187
 20
133.8204099652116
 30
0.0
 11
675.2663837495187
 21
131.8204099652116
 31
0.0
  0
ARC
  5
A68
330
2
100
AcDbEntity
  8
0
100
AcDbCircle
 10
675.1822167495187
 20
132.0033779652116
 30
0.0
 40
2.0
100
AcDbArc
 50
90.0
 51
139.398712
  0
LINE
  5
A69
330
2
100
AcDbEntity
  8
0
100
AcDbLine
 10
629.1822167495187
 20
160.3033809652116
 30
0.0
 11
629.1822167495187
 21
158.1602379652117
 31
0.0
  0
LINE
  5
A6A
330
2
100
AcDbEntity
  8
0
100
AcDbLine
 10
625.1822167495187
 20
160.3033809652116
 30
0.0
 11
625.1822167495187
 21
158.1602379652117
 31
0.0
  0
LINE
  5
A6B
330
2
100
AcDbEntity
  8
0
100
AcDbLine
 10
625.1822167495187
 20
160.3033809652116
 30
0.0
 11
629.1822167495187
 21
160.3033809652116
 31
0.0
  0
LINE
  5
A6C
330
2
100
AcDbEntity
  8
0
100
AcDbLine
 10
673.6637227495187
 20
171.7017879652116
 30
0.0
 11
664.6637227495187
 21
182.2017879652116
 31
0.0
  0
LINE
  5
A6D
330
2
100
AcDbEntity
  8
0
100
AcDbLine
 10
674.3465237495187
 20
171.1863459652116
 30
0.0
 11
675.2663837495187
 21
173.1863459652116
 31
0.0
  0
ARC
  5
A6E
330
2
100
AcDbEntity
  8
0
100
AcDbCircle
 10
675.1822167495187
 20
173.0033779652116
 30
0.0
 40
2.0
100
AcDbArc
 50
220.6012879999999
 51
270.0
  0
LINE
  5
A6F
330
2
100
AcDbEntity
  8
0
100
AcDbLine
 10
816.9876977495189
 20
176.5033779652116
 30
0.0
 11
770.7376977495187
 21
176.5033779652116
 31
0.0
  0
LINE
  5
A70
330
2
100
AcDbEntity
  8
0
100
AcDbLine
 10
816.9876977495189
 20
126.5033779652116
 30
0.0
 11
770.7376977495187
 21
126.5033779652116
 31
0.0
  0
LINE
  5
A71
330
2
100
AcDbEntity
  8
0
100
AcDbLine
 10
814.7376977495186
 20
112.5033779652117
 30
0.0
 11
770.7376977495187
 21
112.5033779652117
 31
0.0
  0
LINE
  5
A72
330
2
100
AcDbEntity
  8
0
100
AcDbLine
 10
688.1822167495187
 20
136.1749479652116
 30
0.0
 11
688.1822167495187
 21
119.0033779652116
 31
0.0
  0
LINE
  5
A73
330
2
100
AcDbEntity
  8
0
100
AcDbLine
 10
761.2376977495187
 20
122.2544159652116
 30
0.0
 11
688.1822167495187
 21
122.2544159652116
 31
0.0
  0
LINE
  5
A74
330
2
100
AcDbEntity
  8
0
100
AcDbLine
 10
761.2376977495187
 20
114.5033779652117
 30
0.0
 11
689.5409817495187
 21
114.5033779652117
 31
0.0
  0
ARC
  5
A75
330
2
100
AcDbEntity
  8
0
100
AcDbCircle
 10
681.1822167495186
 20
119.0033779652116
 30
0.0
 40
7.0
100
AcDbArc
 50
227.3640749999997
 51
0.0
  0
CIRCLE
  5
A77
330
2
100
AcDbEntity
  8
HOJO
100
AcDbCircle
 10
681.1822167495186
 20
119.0033779652116
 30
0.0
 40
4.0
  0
CIRCLE
  5
A78
330
2
100
AcDbEntity
  8
0
100
AcDbCircle
 10
681.1822167495186
 20
119.0033779652116
 30
0.0
 40
3.399999999999999
  0
LINE
  5
A79
330
2
100
AcDbEntity
  8
0
100
AcDbLine
 10
688.8458517495187
 20
114.3786829652116
 30
0.0
 11
683.6151997495187
 21
112.4397949652117
 31
0.0
  0
ARC
  5
A7A
330
2
100
AcDbEntity
  8
0
100
AcDbCircle
 10
689.5409817495187
 20
112.5033779652117
 30
0.0
 40
2.0
100
AcDbArc
 50
90.0
 51
110.33873
  0
LINE
  5
A7B
330
2
100
AcDbEntity
  8
0
100
AcDbLine
 10
770.7376977495187
 20
122.2543769652115
 30
0.0
 11
761.2376977495187
 21
122.2543769652115
 31
0.0
  0
LINE
  5
A7C
330
2
100
AcDbEntity
  8
0
100
AcDbLine
 10
770.7376977495187
 20
114.5033779652117
 30
0.0
 11
761.2376977495187
 21
114.5033779652117
 31
0.0
  0
LINE
  5
A7D
330
2
100
AcDbEntity
  8
0
100
AcDbLine
 10
679.1822167495187
 20
166.0033779652116
 30
0.0
 11
679.1822167495187
 21
139.0033779652116
 31
0.0
  0
LINE
  5
A7E
330
2
100
AcDbEntity
  8
0
100
AcDbLine
 10
684.1822167495187
 20
141.8318079652117
 30
0.0
 11
684.1822167495187
 21
163.1749479652116
 31
0.0
  0
LINE
  5
A7F
330
2
100
AcDbEntity
  8
0
100
AcDbLine
 10
684.7680317495187
 20
140.4175929652117
 30
0.0
 11
687.5964017495187
 21
137.5891629652117
 31
0.0
  0
ARC
  5
A80
330
2
100
AcDbEntity
  8
0
100
AcDbCircle
 10
676.5471457495188
 20
134.0033779652116
 30
0.0
 40
2.0
100
AcDbArc
 50
270.0
 51
345.5224909999996
  0
LINE
  5
A81
330
2
100
AcDbEntity
  8
0
100
AcDbLine
 10
676.1020777495189
 20
132.0033779652116
 30
0.0
 11
676.5471457495188
 21
132.0033779652116
 31
0.0
  0
ARC
  5
A82
330
2
100
AcDbEntity
  8
0
100
AcDbCircle
 10
657.1822167495187
 20
139.0033779652116
 30
0.0
 40
22.0
100
AcDbArc
 50
345.5224880000002
 51
0.0
  0
ARC
  5
A83
330
2
100
AcDbEntity
  8
0
100
AcDbCircle
 10
676.9559597495186
 20
136.0033779652116
 30
0.0
 40
2.0
100
AcDbArc
 50
270.0
 51
351.373077
  0
ARC
  5
A84
330
2
100
AcDbEntity
  8
0
100
AcDbCircle
 10
686.1822167495187
 20
136.1749479652116
 30
0.0
 40
2.0
100
AcDbArc
 50
0.0
 51
45.00000000000057
  0
ARC
  5
A85
330
2
100
AcDbEntity
  8
0
100
AcDbCircle
 10
686.1822167495187
 20
141.8318079652117
 30
0.0
 40
2.0
100
AcDbArc
 50
180.0
 51
225.0000000000006
  0
ARC
  5
A86
330
2
100
AcDbEntity
  8
0
100
AcDbCircle
 10
657.1822167495187
 20
166.0033779652116
 30
0.0
 40
22.0
100
AcDbArc
 50
0.0
 51
14.47751199999975
  0
ARC
  5
A87
330
2
100
AcDbEntity
  8
0
100
AcDbCircle
 10
686.1822167495187
 20
168.8318079652117
 30
0.0
 40
2.0
100
AcDbArc
 50
314.9999999999993
 51
0.0
  0
ARC
  5
A88
330
2
100
AcDbEntity
  8
0
100
AcDbCircle
 10
686.1822167495187
 20
163.1749479652116
 30
0.0
 40
2.0
100
AcDbArc
 50
134.9999999999994
 51
180.0
  0
LINE
  5
A89
330
2
100
AcDbEntity
  8
0
100
AcDbLine
 10
684.7680317495187
 20
164.5891629652117
 30
0.0
 11
687.5964017495187
 21
167.4175929652117
 31
0.0
  0
ARC
  5
A8A
330
2
100
AcDbEntity
  8
0
100
AcDbCircle
 10
676.5471457495188
 20
171.0033779652116
 30
0.0
 40
2.0
100
AcDbArc
 50
14.47751199999975
 51
90.0
  0
ARC
  5
A8B
330
2
100
AcDbEntity
  8
0
100
AcDbCircle
 10
676.9559597495186
 20
169.0033779652116
 30
0.0
 40
2.0
100
AcDbArc
 50
8.626926999999758
 51
90.0
  0
LINE
  5
A8C
330
2
100
AcDbEntity
  8
0
100
AcDbLine
 10
676.1020777495189
 20
173.0033779652116
 30
0.0
 11
676.5471457495188
 21
173.0033779652116
 31
0.0
  0
ARC
  5
A8D
330
2
100
AcDbEntity
  8
0
100
AcDbCircle
 10
814.7376977495186
 20
117.5033779652117
 30
0.0
 40
5.0
100
AcDbArc
 50
270.0
 51
0.0
  0
LINE
  5
A8E
330
2
100
AcDbEntity
  8
0
100
AcDbLine
 10
588.8891257495187
 20
414.0956809168645
 30
0.0
 11
687.4753077495187
 21
414.0956809168645
 31
0.0
  0
ARC
  5
A8F
330
2
100
AcDbEntity
  8
0
100
AcDbCircle
 10
672.3768577495189
 20
195.5671139652116
 30
0.0
 40
6.0
100
AcDbArc
 50
239.6416930000005
 51
312.6359250000002
  0
ARC
  5
A90
330
2
100
AcDbEntity
  8
0
100
AcDbCircle
 10
672.5241967495187
 20
377.3916709168644
 30
0.0
 40
11.0
100
AcDbArc
 50
248.924667
 51
295.7177279999999
  0
LINE
  5
A91
330
2
100
AcDbEntity
  8
0
100
AcDbLine
 10
663.5497097495187
 20
368.5956809168644
 30
0.0
 11
681.0949367495187
 21
368.5956809168644
 31
0.0
  0
ARC
  5
A92
330
2
100
AcDbEntity
  8
0
100
AcDbCircle
 10
672.5241967495187
 20
369.7996909168644
 30
0.0
 40
11.0
100
AcDbArc
 50
64.28227199999999
 51
111.0753329999997
  0
LINE
  5
A93
330
2
100
AcDbEntity
  8
0
100
AcDbLine
 10
663.5497097495187
 20
378.5956809168644
 30
0.0
 11
681.0949367495187
 21
378.5956809168644
 31
0.0
  0
LINE
  5
A94
330
2
100
AcDbEntity
  8
0
100
AcDbLine
 10
689.1822167495186
 20
401.5956809168645
 30
0.0
 11
588.6709867495189
 21
401.5956809168645
 31
0.0
  0
LINE
  5
A95
330
2
100
AcDbEntity
  8
0
100
AcDbLine
 10
687.4753077495187
 20
333.0956809168645
 30
0.0
 11
588.8891257495187
 21
333.0956809168645
 31
0.0
  0
LINE
  5
A96
330
2
100
AcDbEntity
  8
CENTER
100
AcDbLine
 10
580.6414457495187
 20
373.5956809168644
 30
0.0
 11
828.2582277177532
 21
373.5956809168644
 31
0.0
  0
LINE
  5
A97
330
2
100
AcDbEntity
  8
0
100
AcDbLine
 10
681.1822167495186
 20
193.0033779652116
 30
0.0
 11
595.1822167495187
 21
193.0033779652116
 31
0.0
  0
LINE
  5
A99
330
2
100
AcDbEntity
  8
0
100
AcDbLine
 10
672.5241967495187
 20
366.3916709168645
 30
0.0
 11
672.5241967495187
 21
333.0956809168645
 31
0.0
  0
LINE
  5
A9A
330
2
100
AcDbEntity
  8
0
100
AcDbLine
 10
663.5497097495187
 20
368.5956809168644
 30
0.0
 11
663.5497097495187
 21
333.0956809168645
 31
0.0
  0
LINE
  5
A9B
330
2
100
AcDbEntity
  8
0
100
AcDbLine
 10
612.8147237495189
 20
368.5956809168644
 30
0.0
 11
612.8147237495189
 21
333.0956809168645
 31
0.0
  0
LINE
  5
A9C
330
2
100
AcDbEntity
  8
0
100
AcDbLine
 10
603.8402367495187
 20
366.3916709168645
 30
0.0
 11
603.8402367495187
 21
333.0956809168645
 31
0.0
  0
LINE
  5
A9D
330
2
100
AcDbEntity
  8
0
100
AcDbLine
 10
588.1822167495187
 20
373.5956809168644
 30
0.0
 11
588.8891257495187
 21
333.0956809168645
 31
0.0
  0
LINE
  5
A9E
330
2
100
AcDbEntity
  8
CENTER
100
AcDbLine
 10
595.1822167495187
 20
329.7367639168645
 30
0.0
 11
595.1822167495187
 21
417.4117819168644
 31
0.0
  0
LINE
  5
A9F
330
2
100
AcDbEntity
  8
CENTER
100
AcDbLine
 10
627.1822167495187
 20
423.0908279168644
 30
0.0
 11
627.1822167495187
 21
324.1005339168645
 31
0.0
  0
LINE
  5
AA0
330
2
100
AcDbEntity
  8
HIDS
100
AcDbLine
 10
599.1822167495187
 20
333.0956809168645
 30
0.0
 11
599.1822167495187
 21
365.5956809168644
 31
0.0
  0
LINE
  5
AA1
330
2
100
AcDbEntity
  8
HIDS
100
AcDbLine
 10
591.1822167495187
 20
333.0956809168645
 30
0.0
 11
591.1822167495187
 21
365.5956809168644
 31
0.0
  0
LINE
  5
AA2
330
2
100
AcDbEntity
  8
HIDS
100
AcDbLine
 10
598.5822407495187
 20
401.5956809168645
 30
0.0
 11
598.5822407495187
 21
333.0956809168645
 31
0.0
  0
LINE
  5
AA3
330
2
100
AcDbEntity
  8
HIDS
100
AcDbLine
 10
591.7821927495187
 20
401.5956809168645
 30
0.0
 11
591.7821927495187
 21
333.0956809168645
 31
0.0
  0
LINE
  5
AA6
330
2
100
AcDbEntity
  8
HIDS
100
AcDbLine
 10
425.3824513156591
 20
190.1362059652116
 30
0.0
 11
404.347539315659
 21
190.5033779652115
 31
0.0
  0
ARC
  5
AA7
330
2
100
AcDbEntity
  8
HIDS
100
AcDbCircle
 10
427.3475393156591
 20
189.5033779652116
 30
0.0
 40
3.0
100
AcDbArc
 50
0.0
 51
90.0
  0
ARC
  5
AA8
330
2
100
AcDbEntity
  8
HIDS
100
AcDbCircle
 10
425.347539315659
 20
188.1365109652116
 30
0.0
 40
2.0
100
AcDbArc
 50
0.0
 51
88.99999999999987
  0
LINE
  5
AA9
330
2
100
AcDbEntity
  8
HIDS
100
AcDbLine
 10
430.3475393156591
 20
189.5033779652116
 30
0.0
 11
430.3475393156591
 21
185.9003509652117
 31
0.0
  0
LINE
  5
AAA
330
2
100
AcDbEntity
  8
HIDS
100
AcDbLine
 10
427.3475393156591
 20
188.1365109652116
 30
0.0
 11
427.3475393156591
 21
184.2051139652116
 31
0.0
  0
ARC
  5
AAB
330
2
100
AcDbEntity
  8
0
100
AcDbCircle
 10
614.1822167495186
 20
185.3682919652117
 30
0.0
 40
2.0
100
AcDbArc
 50
104.4775089999994
 51
180.0
  0
ARC
  5
AAC
330
2
100
AcDbEntity
  8
0
100
AcDbCircle
 10
619.1822167495187
 20
166.0033779652116
 30
0.0
 40
22.0
100
AcDbArc
 50
90.0
 51
110.4873119999995
  0
ARC
  5
AAD
330
2
100
AcDbEntity
  8
0
100
AcDbCircle
 10
614.5828517495186
 20
183.0033779652116
 30
0.0
 40
10.0
100
AcDbArc
 50
90.0
 51
112.3316419999994
  0
CIRCLE
  5
AAE
330
2
100
AcDbEntity
  8
0
100
AcDbCircle
 10
595.1822167495187
 20
186.0033779652116
 30
0.0
 40
3.399999999999999
  0
ARC
  5
AAF
330
2
100
AcDbEntity
  8
0
100
AcDbCircle
 10
595.1822167495187
 20
186.0033779652116
 30
0.0
 40
7.0
100
AcDbArc
 50
47.3640670000003
 51
180.0
  0
ARC
  5
AB1
330
2
100
AcDbEntity
  8
0
100
AcDbCircle
 10
603.9875757495187
 20
195.5671139652116
 30
0.0
 40
6.0
100
AcDbArc
 50
227.3640749999997
 51
300.3583069999994
  0
ARC
  5
AB2
330
2
100
AcDbEntity
  8
0
100
AcDbCircle
 10
612.1822167495187
 20
184.7383789652116
 30
0.0
 40
2.0
100
AcDbArc
 50
110.4873119999995
 51
180.0
  0
LINE
  5
AB3
330
2
100
AcDbEntity
  8
0
100
AcDbLine
 10
612.0580097495187
 20
182.8094849652116
 30
0.0
 11
610.0580097495187
 21
183.5493369652116
 31
0.0
  0
ARC
  5
AB4
330
2
100
AcDbEntity
  8
0
100
AcDbCircle
 10
608.1822167495187
 20
184.2432309652116
 30
0.0
 40
2.0
100
AcDbArc
 50
319.3987049999997
 51
0.0
  0
LINE
  5
AB5
330
2
100
AcDbEntity
  8
0
100
AcDbLine
 10
612.1822167495187
 20
183.5033779652116
 30
0.0
 11
612.1822167495187
 21
185.3682919652117
 31
0.0
  0
LINE
  5
AB6
330
2
100
AcDbEntity
  8
0
100
AcDbLine
 10
610.1822167495186
 20
184.2432309652116
 30
0.0
 11
610.1822167495186
 21
184.7383789652116
 31
0.0
  0
ARC
  5
AB7
330
2
100
AcDbEntity
  8
0
100
AcDbCircle
 10
622.1822167495187
 20
164.5033779652116
 30
0.0
 40
30.0
100
AcDbArc
 50
112.3316419999994
 51
120.358299
  0
LINE
  5
AB8
330
2
100
AcDbEntity
  8
0
100
AcDbLine
 10
619.1822167495187
 20
188.0033779652116
 30
0.0
 11
657.1822167495187
 21
188.0033779652116
 31
0.0
  0
ARC
  5
AB9
330
2
100
AcDbEntity
  8
0
100
AcDbCircle
 10
657.1822167495187
 20
166.0033779652116
 30
0.0
 40
22.0
100
AcDbArc
 50
69.51268799999964
 51
90.0
  0
ARC
  5
ABA
330
2
100
AcDbEntity
  8
0
100
AcDbCircle
 10
664.1822167495186
 20
184.7383789652116
 30
0.0
 40
2.0
100
AcDbArc
 50
0.0
 51
69.51268799999964
  0
ARC
  5
ABB
330
2
100
AcDbEntity
  8
0
100
AcDbCircle
 10
662.1822167495187
 20
185.3682919652117
 30
0.0
 40
2.0
100
AcDbArc
 50
0.0
 51
75.52249100000058
  0
LINE
  5
ABC
330
2
100
AcDbEntity
  8
0
100
AcDbLine
 10
664.3064237495187
 20
182.8094849652116
 30
0.0
 11
666.3064237495189
 21
183.5493369652116
 31
0.0
  0
ARC
  5
ABD
330
2
100
AcDbEntity
  8
0
100
AcDbCircle
 10
668.1822167495186
 20
184.2432309652116
 30
0.0
 40
2.0
100
AcDbArc
 50
180.0
 51
220.6012879999999
  0
LINE
  5
ABE
330
2
100
AcDbEntity
  8
0
100
AcDbLine
 10
664.1822167495186
 20
183.5033779652116
 30
0.0
 11
664.1822167495186
 21
185.3682919652117
 31
0.0
  0
LINE
  5
ABF
330
2
100
AcDbEntity
  8
0
100
AcDbLine
 10
666.1822167495187
 20
184.2432309652116
 30
0.0
 11
666.1822167495187
 21
184.7383789652116
 31
0.0
  0
ARC
  5
AC0
330
2
100
AcDbEntity
  8
0
100
AcDbCircle
 10
654.1822167495187
 20
164.5033779652116
 30
0.0
 40
30.0
100
AcDbArc
 50
59.64169700000056
 51
67.66835800000054
  0
ARC
  5
AC1
330
2
100
AcDbEntity
  8
0
100
AcDbCircle
 10
661.7815817495189
 20
183.0033779652116
 30
0.0
 40
10.0
100
AcDbArc
 50
67.66835800000054
 51
90.0
  0
LINE
  5
AC2
330
2
100
AcDbEntity
  8
0
100
AcDbLine
 10
672.5241967495187
 20
414.0956809168645
 30
0.0
 11
672.5241967495187
 21
380.7996909168646
 31
0.0
  0
LINE
  5
AC3
330
2
100
AcDbEntity
  8
0
100
AcDbLine
 10
663.5497097495187
 20
414.0956809168645
 30
0.0
 11
663.5497097495187
 21
378.5956809168644
 31
0.0
  0
LINE
  5
AC4
330
2
100
AcDbEntity
  8
0
100
AcDbLine
 10
603.8402367495187
 20
414.0956809168645
 30
0.0
 11
603.8402367495187
 21
380.7996909168646
 31
0.0
  0
LINE
  5
AC5
330
2
100
AcDbEntity
  8
0
100
AcDbLine
 10
612.8147237495189
 20
414.0956809168645
 30
0.0
 11
612.8147237495189
 21
378.5956809168644
 31
0.0
  0
LINE
  5
AC6
330
2
100
AcDbEntity
  8
0
100
AcDbLine
 10
588.1822167495187
 20
373.5956809168644
 30
0.0
 11
588.8891257495187
 21
414.0956809168645
 31
0.0
  0
LINE
  5
AC7
330
2
100
AcDbEntity
  8
HIDS
  6
SEKKEI_H
100
AcDbLine
 10
599.4322167495186
 20
401.5956809168645
 30
0.0
 11
599.4322167495186
 21
414.0956809168645
 31
0.0
  0
LINE
  5
AC8
330
2
100
AcDbEntity
  8
HIDS
  6
SEKKEI_H
100
AcDbLine
 10
590.9322167495187
 20
401.5956809168645
 30
0.0
 11
590.9322167495187
 21
414.0956809168645
 31
0.0
  0
ARC
  5
AC9
330
2
100
AcDbEntity
  8
0
100
AcDbCircle
 10
603.8402367495187
 20
377.3916709168644
 30
0.0
 40
11.0
100
AcDbArc
 50
244.282272
 51
291.0753169999998
  0
LINE
  5
ACA
330
2
100
AcDbEntity
  8
HIDS
100
AcDbLine
 10
591.1822167495187
 20
365.5956809168644
 30
0.0
 11
599.1822167495187
 21
365.5956809168644
 31
0.0
  0
ARC
  5
ACB
330
2
100
AcDbEntity
  8
0
100
AcDbCircle
 10
595.2694967495188
 20
362.0956809168644
 30
0.0
 40
6.5
100
AcDbArc
 50
64.28227199999999
 51
90.0
  0
LINE
  5
ACC
330
2
100
AcDbEntity
  8
0
100
AcDbLine
 10
612.8147237495189
 20
368.5956809168644
 30
0.0
 11
595.2694967495188
 21
368.5956809168644
 31
0.0
  0
ARC
  5
ACD
330
2
100
AcDbEntity
  8
0
100
AcDbCircle
 10
595.2694967495188
 20
385.0956809168644
 30
0.0
 40
6.5
100
AcDbArc
 50
270.0
 51
295.7177279999999
  0
LINE
  5
ACE
330
2
100
AcDbEntity
  8
0
100
AcDbLine
 10
612.8147237495189
 20
378.5956809168644
 30
0.0
 11
595.2694967495188
 21
378.5956809168644
 31
0.0
  0
LINE
  5
ACF
330
2
100
AcDbEntity
  8
0
100
AcDbLine
 10
599.0669217495187
 20
367.4813009168644
 30
0.0
 11
598.0901147495187
 21
367.9518209168644
 31
0.0
  0
ARC
  5
AD0
330
2
100
AcDbEntity
  8
0
100
AcDbCircle
 10
612.8147237495189
 20
362.0956809168644
 30
0.0
 40
6.5
100
AcDbArc
 50
90.0
 51
111.0753329999997
  0
LINE
  5
AD1
330
2
100
AcDbEntity
  8
0
100
AcDbLine
 10
610.4773217495187
 20
368.1608969168645
 30
0.0
 11
607.7958027495188
 21
367.1274809168644
 31
0.0
  0
ARC
  5
AD2
330
2
100
AcDbEntity
  8
0
100
AcDbCircle
 10
603.8402367495187
 20
369.7996909168644
 30
0.0
 40
11.0
100
AcDbArc
 50
68.92466700000015
 51
115.717728
  0
LINE
  5
AD3
330
2
100
AcDbEntity
  8
0
100
AcDbLine
 10
599.0669217495187
 20
379.7100609168643
 30
0.0
 11
598.0901147495187
 21
379.2395719168646
 31
0.0
  0
ARC
  5
AD4
330
2
100
AcDbEntity
  8
0
100
AcDbCircle
 10
612.8147237495189
 20
385.0956809168644
 30
0.0
 40
6.5
100
AcDbArc
 50
248.924667
 51
270.0
  0
LINE
  5
AD5
330
2
100
AcDbEntity
  8
0
100
AcDbLine
 10
610.4773217495187
 20
379.0304649168644
 30
0.0
 11
607.7958027495188
 21
380.0638819168645
 31
0.0
  0
LINE
  5
AD6
330
2
100
AcDbEntity
  8
HIDS
100
AcDbLine
 10
591.1822167495187
 20
401.5956809168645
 30
0.0
 11
591.1822167495187
 21
381.5956809168643
 31
0.0
  0
LINE
  5
AD7
330
2
100
AcDbEntity
  8
HIDS
100
AcDbLine
 10
599.1822167495187
 20
401.5956809168645
 30
0.0
 11
599.1822167495187
 21
381.5956809168643
 31
0.0
  0
LINE
  5
AD8
330
2
100
AcDbEntity
  8
HIDS
100
AcDbLine
 10
591.1822167495187
 20
381.5956809168643
 30
0.0
 11
599.1822167495187
 21
381.5956809168643
 31
0.0
  0
LINE
  5
AD9
330
2
100
AcDbEntity
  8
0
100
AcDbLine
 10
665.8870507495187
 20
368.1608969168645
 30
0.0
 11
668.5686307495187
 21
367.1274809168644
 31
0.0
  0
ARC
  5
ADA
330
2
100
AcDbEntity
  8
0
100
AcDbCircle
 10
663.5497097495187
 20
362.0956809168644
 30
0.0
 40
6.5
100
AcDbArc
 50
68.92466700000015
 51
90.0
  0
LINE
  5
ADB
330
2
100
AcDbEntity
  8
0
100
AcDbLine
 10
665.8870507495187
 20
379.0304649168644
 30
0.0
 11
668.5686307495187
 21
380.0638819168645
 31
0.0
  0
ARC
  5
ADC
330
2
100
AcDbEntity
  8
0
100
AcDbCircle
 10
663.5497097495187
 20
385.0956809168644
 30
0.0
 40
6.5
100
AcDbArc
 50
270.0
 51
291.0753169999998
  0
LINE
  5
ADD
330
2
100
AcDbEntity
  8
0
100
AcDbLine
 10
819.7376977495189
 20
408.5956809168644
 30
0.0
 11
819.7376977495189
 21
338.5956809168645
 31
0.0
  0
LINE
  5
ADE
330
2
100
AcDbEntity
  8
0
100
AcDbLine
 10
770.7376977495187
 20
413.5956809168645
 30
0.0
 11
770.7376977495187
 21
381.0956809168644
 31
0.0
  0
LINE
  5
ADF
330
2
100
AcDbEntity
  8
0
100
AcDbLine
 10
683.6151997495187
 20
373.5956809168644
 30
0.0
 11
683.1794087495189
 21
348.6305929168644
 31
0.0
  0
LINE
  5
AE0
330
2
100
AcDbEntity
  8
0
100
AcDbLine
 10
689.1822167495186
 20
396.5956809168644
 30
0.0
 11
689.1822167495186
 21
350.5956809168644
 31
0.0
  0
LINE
  5
AE1
330
2
100
AcDbEntity
  8
CENTER
100
AcDbLine
 10
681.1822167495186
 20
329.7367639168645
 30
0.0
 11
681.1822167495186
 21
417.4117819168644
 31
0.0
  0
LINE
  5
AE2
330
2
100
AcDbEntity
  8
0
100
AcDbLine
 10
761.2376977495187
 20
335.5956809168645
 30
0.0
 11
761.2376977495187
 21
348.5956809168644
 31
0.0
  0
LINE
  5
AE3
330
2
100
AcDbEntity
  8
HIDS
100
AcDbLine
 10
685.1822167495186
 20
333.0956809168645
 30
0.0
 11
685.1822167495186
 21
365.5956809168644
 31
0.0
  0
LINE
  5
AE4
330
2
100
AcDbEntity
  8
HIDS
100
AcDbLine
 10
677.1822167495187
 20
333.0956809168645
 30
0.0
 11
677.1822167495187
 21
365.5956809168644
 31
0.0
  0
LINE
  5
AE5
330
2
100
AcDbEntity
  8
HIDS
100
AcDbLine
 10
684.5822407495187
 20
401.5956809168645
 30
0.0
 11
684.5822407495187
 21
333.0956809168645
 31
0.0
  0
LINE
  5
AE6
330
2
100
AcDbEntity
  8
HIDS
100
AcDbLine
 10
677.7821927495186
 20
401.5956809168645
 30
0.0
 11
677.7821927495186
 21
333.0956809168645
 31
0.0
  0
LINE
  5
AE7
330
2
100
AcDbEntity
  8
0
100
AcDbLine
 10
817.4876977495186
 20
349.5956809168644
 30
0.0
 11
770.7376977495187
 21
349.5956809168644
 31
0.0
  0
LINE
  5
AE8
330
2
100
AcDbEntity
  8
0
100
AcDbLine
 10
814.7376977495186
 20
333.5956809168645
 30
0.0
 11
770.7376977495187
 21
333.5956809168645
 31
0.0
  0
LINE
  5
AE9
330
2
100
AcDbEntity
  8
0
100
AcDbLine
 10
814.7376977495186
 20
192.5033779652116
 30
0.0
 11
770.7376977495187
 21
192.5033779652116
 31
0.0
  0
LINE
  5
AEA
330
2
100
AcDbEntity
  8
0
100
AcDbLine
 10
761.2376977495187
 20
182.7523399652116
 30
0.0
 11
688.1822167495187
 21
182.7523399652116
 31
0.0
  0
LINE
  5
AEB
330
2
100
AcDbEntity
  8
0
100
AcDbLine
 10
761.2376977495187
 20
190.5033779652115
 30
0.0
 11
689.5409817495187
 21
190.5033779652115
 31
0.0
  0
ARC
  5
AEC
330
2
100
AcDbEntity
  8
0
100
AcDbCircle
 10
681.1822167495186
 20
186.0033779652116
 30
0.0
 40
7.0
100
AcDbArc
 50
0.0
 51
132.6359250000002
  0
CIRCLE
  5
AED
330
2
100
AcDbEntity
  8
0
100
AcDbCircle
 10
681.1822167495186
 20
186.0033779652116
 30
0.0
 40
3.399999999999999
  0
LINE
  5
AEE
330
2
100
AcDbEntity
  8
0
100
AcDbLine
 10
688.8458517495187
 20
190.6280729652116
 30
0.0
 11
683.6151997495187
 21
192.5669609652116
 31
0.0
  0
ARC
  5
AEF
330
2
100
AcDbEntity
  8
0
100
AcDbCircle
 10
689.5409817495187
 20
192.5033779652116
 30
0.0
 40
2.0
100
AcDbArc
 50
249.6612699999999
 51
270.0
  0
LINE
  5
AF0
330
2
100
AcDbEntity
  8
0
100
AcDbLine
 10
770.7376977495187
 20
182.7523709652116
 30
0.0
 11
761.2376977495187
 21
182.7523709652116
 31
0.0
  0
LINE
  5
AF1
330
2
100
AcDbEntity
  8
0
100
AcDbLine
 10
770.7376977495187
 20
190.5033779652115
 30
0.0
 11
761.2376977495187
 21
190.5033779652115
 31
0.0
  0
LINE
  5
AFC
330
2
100
AcDbEntity
  8
0
100
AcDbLine
 10
770.7376977495187
 20
350.5956809168644
 30
0.0
 11
770.2376977495189
 21
350.5956809168644
 31
0.0
  0
LINE
  5
AFD
330
2
100
AcDbEntity
  8
0
100
AcDbLine
 10
689.4843407495187
 20
335.5956809168645
 30
0.0
 11
761.2376977495187
 21
335.5956809168645
 31
0.0
  0
LINE
  5
AFE
330
2
100
AcDbEntity
  8
0
100
AcDbLine
 10
687.4753077495187
 20
333.0956809168645
 30
0.0
 11
687.7807277495187
 21
350.5956809168644
 31
0.0
  0
ARC
  5
AFF
330
2
100
AcDbEntity
  8
0
100
AcDbCircle
 10
689.4843407495187
 20
333.5956809168645
 30
0.0
 40
2.0
100
AcDbArc
 50
90.0
 51
178.9999999999998
  0
ARC
  5
B00
330
2
100
AcDbEntity
  8
0
100
AcDbCircle
 10
685.1791037495187
 20
348.5956809168644
 30
0.0
 40
2.0
100
AcDbArc
 50
90.0
 51
178.9999999999998
  0
LINE
  5
B01
330
2
100
AcDbEntity
  8
0
100
AcDbLine
 10
770.7376977495187
 20
335.5956809168645
 30
0.0
 11
761.2376977495187
 21
335.5956809168645
 31
0.0
  0
ARC
  5
B02
330
2
100
AcDbEntity
  8
0
100
AcDbCircle
 10
814.7376977495186
 20
187.5033779652116
 30
0.0
 40
5.0
100
AcDbArc
 50
0.0
 51
90.0
  0
ARC
  5
B03
330
2
100
AcDbEntity
  8
0
100
AcDbCircle
 10
814.7376977495186
 20
338.5956809168645
 30
0.0
 40
5.0
100
AcDbArc
 50
270.0
 51
0.0
  0
LINE
  5
B04
330
2
100
AcDbEntity
  8
0
100
AcDbLine
 10
817.4876977495186
 20
397.5956809168644
 30
0.0
 11
770.7376977495187
 21
397.5956809168644
 31
0.0
  0
LINE
  5
B05
330
2
100
AcDbEntity
  8
0
100
AcDbLine
 10
814.7376977495186
 20
413.5956809168645
 30
0.0
 11
770.7376977495187
 21
413.5956809168645
 31
0.0
  0
LINE
  5
B06
330
2
100
AcDbEntity
  8
0
100
AcDbLine
 10
761.2376977495187
 20
398.5956809168644
 30
0.0
 11
761.2376977495187
 21
411.5956809168643
 31
0.0
  0
LINE
  5
B07
330
2
100
AcDbEntity
  8
0
100
AcDbLine
 10
687.4753077495187
 20
414.0956809168645
 30
0.0
 11
687.7807277495187
 21
396.5956809168644
 31
0.0
  0
LINE
  5
B08
330
2
100
AcDbEntity
  8
0
100
AcDbLine
 10
689.1822167495186
 20
410.9749539168644
 30
0.0
 11
689.1822167495186
 21
401.5956809168645
 31
0.0
  0
LINE
  5
B09
330
2
100
AcDbEntity
  8
HIDS
  6
SEKKEI_H
100
AcDbLine
 10
685.4322167495187
 20
401.5956809168645
 30
0.0
 11
685.4322167495187
 21
414.0956809168645
 31
0.0
  0
LINE
  5
B0A
330
2
100
AcDbEntity
  8
HIDS
  6
SEKKEI_H
100
AcDbLine
 10
676.9322167495187
 20
401.5956809168645
 30
0.0
 11
676.9322167495187
 21
414.0956809168645
 31
0.0
  0
LINE
  5
B0B
330
2
100
AcDbEntity
  8
0
100
AcDbLine
 10
770.7376977495187
 20
396.5956809168644
 30
0.0
 11
770.2376977495189
 21
396.5956809168644
 31
0.0
  0
LINE
  5
B0C
330
2
100
AcDbEntity
  8
0
100
AcDbLine
 10
683.6151997495187
 20
373.5956809168644
 30
0.0
 11
683.1794087495189
 21
398.5607689168644
 31
0.0
  0
LINE
  5
B0D
330
2
100
AcDbEntity
  8
HIDS
100
AcDbLine
 10
677.1822167495187
 20
365.5956809168644
 30
0.0
 11
685.1822167495186
 21
365.5956809168644
 31
0.0
  0
LINE
  5
B0E
330
2
100
AcDbEntity
  8
0
100
AcDbLine
 10
677.2975117495189
 20
367.4813009168644
 30
0.0
 11
678.2743187495188
 21
367.9518209168644
 31
0.0
  0
ARC
  5
B0F
330
2
100
AcDbEntity
  8
0
100
AcDbCircle
 10
681.0949367495187
 20
362.0956809168644
 30
0.0
 40
6.5
100
AcDbArc
 50
90.0
 51
115.717728
  0
LINE
  5
B10
330
2
100
AcDbEntity
  8
0
100
AcDbLine
 10
677.2975117495189
 20
379.7100609168643
 30
0.0
 11
678.2743187495188
 21
379.2395719168646
 31
0.0
  0
ARC
  5
B11
330
2
100
AcDbEntity
  8
0
100
AcDbCircle
 10
681.0949367495187
 20
385.0956809168644
 30
0.0
 40
6.5
100
AcDbArc
 50
244.282272
 51
270.0
  0
LINE
  5
B12
330
2
100
AcDbEntity
  8
HIDS
100
AcDbLine
 10
677.1822167495187
 20
401.5956809168645
 30
0.0
 11
677.1822167495187
 21
381.5956809168643
 31
0.0
  0
LINE
  5
B13
330
2
100
AcDbEntity
  8
HIDS
100
AcDbLine
 10
685.1822167495186
 20
401.5956809168645
 30
0.0
 11
685.1822167495186
 21
381.5956809168643
 31
0.0
  0
LINE
  5
B14
330
2
100
AcDbEntity
  8
HIDS
100
AcDbLine
 10
677.1822167495187
 20
381.5956809168643
 30
0.0
 11
685.1822167495186
 21
381.5956809168643
 31
0.0
  0
ARC
  5
B15
330
2
100
AcDbEntity
  8
0
100
AcDbCircle
 10
685.1791037495187
 20
398.5956809168644
 30
0.0
 40
2.0
100
AcDbArc
 50
181.0
 51
270.0
  0
LINE
  5
B22
330
2
100
AcDbEntity
  8
0
100
AcDbLine
 10
690.6305197495187
 20
411.5956809168643
 30
0.0
 11
761.2376977495187
 21
411.5956809168643
 31
0.0
  0
ARC
  5
B23
330
2
100
AcDbEntity
  8
0
100
AcDbCircle
 10
690.6305197495187
 20
409.5956809168645
 30
0.0
 40
2.0
100
AcDbArc
 50
90.0
 51
136.3987579999996
  0
LINE
  5
B24
330
2
100
AcDbEntity
  8
0
100
AcDbLine
 10
770.7376977495187
 20
411.5956809168643
 30
0.0
 11
761.2376977495187
 21
411.5956809168643
 31
0.0
  0
ARC
  5
B25
330
2
100
AcDbEntity
  8
0
100
AcDbCircle
 10
814.7376977495186
 20
408.5957119168644
 30
0.0
 40
5.0
100
AcDbArc
 50
0.0
 51
90.0
  0
LINE
  5
1183
330
2
100
AcDbEntity
  8
0
100
AcDbLine
 10
149.6974087632499
 20
310.5091680112071
 30
0.0
 11
190.1974087632498
 21
311.2161000112071
 31
0.0
  0
LINE
  5
1184
330
2
100
AcDbEntity
  8
0
100
AcDbLine
 10
149.6974087632499
 20
391.5091680112071
 30
0.0
 11
190.1974087632498
 21
390.8022440112071
 31
0.0
  0
LINE
  5
1185
330
2
100
AcDbEntity
  8
CENTER
100
AcDbLine
 10
92.95879176325
 20
351.0091680112072
 30
0.0
 11
206.4360257632499
 21
351.0091680112072
 31
0.0
  0
LINE
  5
1186
330
2
100
AcDbEntity
  8
PHAS
  6
SEKKEI_P_S
100
AcDbLine
 10
198.4738677632499
 20
335.1352820112071
 30
0.0
 11
185.09740276325
 21
331.5510690112071
 31
0.0
  0
LINE
  5
1187
330
2
100
AcDbEntity
  8
PHAS
  6
SEKKEI_P_S
100
AcDbLine
 10
198.4738677632499
 20
366.8830540112072
 30
0.0
 11
185.09740276325
 21
370.4672670112072
 31
0.0
  0
LWPOLYLINE
  5
118D
330
2
100
AcDbEntity
  8
HOJO
100
AcDbPolyline
 90
       21
 70
     0
 43
0.0
 10
109.1974087632499
 20
377.0692110112071
 10
112.6715297632499
 20
376.9335000112072
 10
116.2653107632499
 20
377.9010590112071
 10
119.5712487632499
 20
376.5987220112071
 10
119.73079476325
 20
372.7699710112072
 10
122.8416347632498
 20
368.5423860112071
 10
126.5108547632501
 20
367.0268530112071
 10
128.9038297632498
 20
362.3206760112072
 10
133.5302337632499
 20
360.7253550112071
 10
140.3103237632499
 20
361.3634920112071
 10
146.6118067632498
 20
360.7253550112071
 10
154.58836976325
 20
361.7623110112071
 10
160.9696257632499
 20
360.3265360112071
 10
166.71275876325
 20
362.0813730112071
 10
171.0998437632499
 20
361.2039620112071
 10
172.05702776325
 20
366.707776011207
 10
178.83711776325
 20
370.1377080112071
 10
178.9966337632499
 20
375.0831730112071
 10
182.8322357632498
 20
378.4157230112071
 10
186.4802147632499
 20
378.0588510112071
 10
190.1974087632498
 20
378.4305700112071
  0
LWPOLYLINE
  5
118E
330
2
100
AcDbEntity
  8
HOJO
100
AcDbPolyline
 90
       21
 70
     0
 43
0.0
 10
109.1974087632499
 20
324.9491250112071
 10
112.6715297632499
 20
325.0848290112072
 10
116.2653107632499
 20
324.1172770112072
 10
119.5712487632499
 20
325.4196140112071
 10
119.73079476325
 20
329.2483650112071
 10
122.8416347632498
 20
333.4759500112072
 10
126.5108547632501
 20
334.9914830112072
 10
128.9038297632498
 20
339.6976600112072
 10
133.5302337632499
 20
341.2929810112071
 10
140.3103237632499
 20
340.6548440112072
 10
146.6118067632498
 20
341.2929810112071
 10
154.58836976325
 20
340.2560250112072
 10
160.9696257632499
 20
341.6918000112072
 10
166.71275876325
 20
339.9369630112071
 10
171.0998437632499
 20
340.8143740112071
 10
172.05702776325
 20
335.3105600112072
 10
178.83711776325
 20
331.8806280112072
 10
178.9966337632499
 20
326.9351630112071
 10
182.8322357632498
 20
323.6026130112071
 10
186.4802147632499
 20
323.9594780112071
 10
190.1974087632498
 20
323.5877580112072
  0
LINE
  5
1192
330
2
100
AcDbEntity
  8
0
100
AcDbLine
 10
121.6974087632499
 20
391.0204290112072
 30
0.0
 11
121.6974087632499
 21
370.0973940112072
 31
0.0
  0
LINE
  5
1193
330
2
100
AcDbEntity
  8
0
100
AcDbLine
 10
109.1974087632499
 20
390.8022440112071
 30
0.0
 11
109.1974087632499
 21
311.2161000112071
 31
0.0
  0
LINE
  5
1194
330
2
100
AcDbEntity
  8
CENTER
100
AcDbLine
 10
149.6974087632499
 20
398.5572940112071
 30
0.0
 11
149.6974087632499
 21
303.4610420112072
 31
0.0
  0
LINE
  5
11B0
330
2
100
AcDbEntity
  8
PHAS
  6
SEKKEI_P_S
100
AcDbLine
 10
100.92094976325
 20
366.8830540112072
 30
0.0
 11
114.2974147632501
 21
370.4672670112072
 31
0.0
  0
LINE
  5
11B1
330
2
100
AcDbEntity
  8
PHAS
  6
SEKKEI_P_S
100
AcDbLine
 10
100.92094976325
 20
335.1352820112071
 30
0.0
 11
114.2974147632501
 21
331.5510690112071
 31
0.0
  0
LINE
  5
11B2
330
2
100
AcDbEntity
  8
PHAS
  6
SEKKEI_P_S
100
AcDbLine
 10
98.69740876325002
 20
363.9852730112071
 30
0.0
 11
98.69740876325002
 21
338.0961430112071
 31
0.0
  0
ARC
  5
11B3
330
2
100
AcDbEntity
  8
PHAS
  6
SEKKEI_P_S
100
AcDbCircle
 10
101.6974087632499
 20
338.0330630112071
 30
0.0
 40
3.0
100
AcDbArc
 50
180.0
 51
255.0000000000051
  0
ARC
  5
11B4
330
2
100
AcDbEntity
  8
PHAS
  6
SEKKEI_P_S
100
AcDbCircle
 10
101.6974087632499
 20
363.9852730112071
 30
0.0
 40
3.0
100
AcDbArc
 50
104.9999999999948
 51
180.0
  0
LINE
  5
11B5
330
2
100
AcDbEntity
  8
0
100
AcDbLine
 10
184.69731676325
 20
361.0091680112071
 30
0.0
 11
184.69731676325
 21
341.0091680112071
 31
0.0
  0
LINE
  5
11B6
330
2
100
AcDbEntity
  8
0
100
AcDbLine
 10
114.69750076325
 20
361.0091680112071
 30
0.0
 11
114.69750076325
 21
341.0091680112071
 31
0.0
  0
LINE
  5
11B7
330
2
100
AcDbEntity
  8
0
100
AcDbLine
 10
114.2974147632501
 20
371.8591740112072
 30
0.0
 11
114.2974147632501
 21
330.1591620112071
 31
0.0
  0
LINE
  5
11B8
330
2
100
AcDbEntity
  8
0
100
AcDbLine
 10
111.69740876325
 20
329.4095890112071
 30
0.0
 11
111.69740876325
 21
372.6087470112072
 31
0.0
  0
LINE
  5
11B9
330
2
100
AcDbEntity
  8
0
100
AcDbLine
 10
185.09740276325
 20
371.8591740112072
 30
0.0
 11
185.09740276325
 21
330.1591620112071
 31
0.0
  0
LINE
  5
11BA
330
2
100
AcDbEntity
  8
0
100
AcDbLine
 10
187.69740876325
 20
329.4095890112071
 30
0.0
 11
187.69740876325
 21
372.6087470112072
 31
0.0
  0
LINE
  5
11BB
330
2
100
AcDbEntity
  8
0
100
AcDbLine
 10
149.6974087632499
 20
310.5091680112071
 30
0.0
 11
109.1974087632499
 21
311.2161000112071
 31
0.0
  0
LINE
  5
11BC
330
2
100
AcDbEntity
  8
0
100
AcDbLine
 10
121.6974087632499
 20
310.9979070112071
 30
0.0
 11
121.6974087632499
 21
331.9209570112072
 31
0.0
  0
LINE
  5
11BD
330
2
100
AcDbEntity
  8
0
100
AcDbLine
 10
124.6974087632499
 20
338.5091680112072
 30
0.0
 11
128.2995207632499
 21
338.5091680112072
 31
0.0
  0
LINE
  5
11BE
330
2
100
AcDbEntity
  8
0
100
AcDbLine
 10
116.6974087632499
 20
330.1591620112071
 30
0.0
 11
116.6974087632499
 21
341.0091680112071
 31
0.0
  0
LINE
  5
11BF
330
2
100
AcDbEntity
  8
PHAS
100
AcDbLine
 10
115.4974267632497
 20
331.5091680112071
 30
0.0
 11
116.6974087632499
 21
331.5510690112071
 31
0.0
  0
ARC
  5
11C0
330
2
100
AcDbEntity
  8
PHAS
100
AcDbCircle
 10
115.4974267632497
 20
331.7291690112071
 30
0.0
 40
1.219999999999998
100
AcDbArc
 50
188.3022609999995
 51
349.6111449999996
  0
LINE
  5
11C1
330
2
100
AcDbEntity
  8
0
100
AcDbLine
 10
115.88146076325
 20
326.4863030112072
 30
0.0
 11
113.0133567632499
 21
327.5301950112071
 31
0.0
  0
LINE
  5
11C2
330
2
100
AcDbEntity
  8
0
100
AcDbLine
 10
114.2974147632501
 20
330.1591620112071
 30
0.0
 11
116.6974087632499
 21
330.1591620112071
 31
0.0
  0
LINE
  5
11C3
330
2
100
AcDbEntity
  8
0
100
AcDbLine
 10
111.69740876325
 20
331.5091680112071
 30
0.0
 11
114.2974147632501
 21
331.5091680112071
 31
0.0
  0
LINE
  5
11C4
330
2
100
AcDbEntity
  8
PHAS
100
AcDbLine
 10
115.4974267632497
 20
331.5091680112071
 30
0.0
 11
114.2974147632501
 21
331.5510690112071
 31
0.0
  0
LINE
  5
11C5
330
2
100
AcDbEntity
  8
0
100
AcDbLine
 10
109.1974087632499
 20
322.8389560112071
 30
0.0
 11
115.69740876325
 21
323.0091680112071
 31
0.0
  0
ARC
  5
11C6
330
2
100
AcDbEntity
  8
0
100
AcDbCircle
 10
113.69740876325
 20
329.4095890112071
 30
0.0
 40
2.0
100
AcDbArc
 50
180.0
 51
249.9999999999968
  0
LINE
  5
11C7
330
2
100
AcDbEntity
  8
0
100
AcDbLine
 10
114.6973777632499
 20
323.7091800112072
 30
0.0
 11
115.69740876325
 21
323.7091800112072
 31
0.0
  0
LINE
  5
11C8
330
2
100
AcDbEntity
  8
0
100
AcDbLine
 10
114.6973777632499
 20
323.7091800112072
 30
0.0
 11
114.6973777632499
 21
324.5394110112071
 31
0.0
  0
LINE
  5
11C9
330
2
100
AcDbEntity
  8
0
100
AcDbLine
 10
110.6973777632499
 20
324.0091530112071
 30
0.0
 11
110.6973777632499
 21
325.0077180112071
 31
0.0
  0
LINE
  5
11CA
330
2
100
AcDbEntity
  8
0
100
AcDbLine
 10
110.6973777632499
 20
324.0091530112071
 30
0.0
 11
114.6973777632499
 21
324.0091370112072
 31
0.0
  0
LINE
  5
11CB
330
2
100
AcDbEntity
  8
0
100
AcDbLine
 10
115.69740876325
 20
323.0091680112071
 30
0.0
 11
115.69740876325
 21
324.2701770112071
 31
0.0
  0
LINE
  5
11CC
330
2
100
AcDbEntity
  8
0
100
AcDbLine
 10
117.1974087632499
 20
324.4844640112071
 30
0.0
 11
117.1974087632499
 21
324.6069160112071
 31
0.0
  0
ARC
  5
11CD
330
2
100
AcDbEntity
  8
0
100
AcDbCircle
 10
115.1974087632499
 20
324.6069160112071
 30
0.0
 40
2.0
100
AcDbArc
 50
0.0
 51
69.99999200000162
  0
LINE
  5
11CE
330
2
100
AcDbEntity
  8
0
100
AcDbLine
 10
114.69750076325
 20
341.0091680112071
 30
0.0
 11
124.6974087632499
 21
341.0091680112071
 31
0.0
  0
LINE
  5
11CF
330
2
100
AcDbEntity
  8
0
100
AcDbLine
 10
117.6974087632499
 20
335.0091680112071
 30
0.0
 11
124.6974087632499
 21
335.0091680112071
 31
0.0
  0
LINE
  5
11D0
330
2
100
AcDbEntity
  8
0
100
AcDbLine
 10
117.6974087632499
 20
335.0091680112071
 30
0.0
 11
123.6974087632499
 21
341.0091680112071
 31
0.0
  0
LINE
  5
11D1
330
2
100
AcDbEntity
  8
0
100
AcDbLine
 10
123.6974087632499
 20
335.0091680112071
 30
0.0
 11
117.6974087632499
 21
341.0091680112071
 31
0.0
  0
LINE
  5
11D2
330
2
100
AcDbEntity
  8
0
100
AcDbLine
 10
117.6974087632499
 20
335.0091680112071
 30
0.0
 11
117.6974087632499
 21
341.0091680112071
 31
0.0
  0
LINE
  5
11D3
330
2
100
AcDbEntity
  8
0
100
AcDbLine
 10
117.6974087632499
 20
335.0091680112071
 30
0.0
 11
116.6974087632499
 21
334.4318210112072
 31
0.0
  0
LINE
  5
11D4
330
2
100
AcDbEntity
  8
0
100
AcDbLine
 10
124.6974087632499
 20
334.2424600112071
 30
0.0
 11
124.6974087632499
 21
341.0091680112071
 31
0.0
  0
LINE
  5
11D5
330
2
100
AcDbEntity
  8
0
100
AcDbLine
 10
123.6974087632499
 20
335.0091680112071
 30
0.0
 11
123.6974087632499
 21
341.0091680112071
 31
0.0
  0
LINE
  5
11D6
330
2
100
AcDbEntity
  8
0
100
AcDbLine
 10
142.73232076325
 20
335.8763400112072
 30
0.0
 11
126.8195707632501
 21
335.5985690112071
 31
0.0
  0
LINE
  5
11D7
330
2
100
AcDbEntity
  8
0
100
AcDbLine
 10
140.39940476325
 20
339.835615011207
 30
0.0
 11
128.8716637632497
 21
339.6343970112071
 31
0.0
  0
ARC
  5
11D8
330
2
100
AcDbEntity
  8
0
100
AcDbCircle
 10
142.6974087632499
 20
337.8760350112071
 30
0.0
 40
2.0
100
AcDbArc
 50
271.0000000000017
 51
0.0
  0
ARC
  5
11D9
330
2
100
AcDbEntity
  8
0
100
AcDbCircle
 10
140.3644927632498
 20
341.8353090112071
 30
0.0
 40
2.0
100
AcDbArc
 50
271.0000000000017
 51
330.0149539999981
  0
LINE
  5
11DA
330
2
100
AcDbEntity
  8
0
100
AcDbLine
 10
144.26854476325
 20
336.6384710112071
 30
0.0
 11
141.9356287632499
 21
340.5977610112072
 31
0.0
  0
LINE
  5
11DB
330
2
100
AcDbEntity
  8
0
100
AcDbLine
 10
144.6974087632499
 20
337.8760350112071
 30
0.0
 11
144.6974087632499
 21
341.0991190112071
 31
0.0
  0
LINE
  5
11DC
330
2
100
AcDbEntity
  8
0
100
AcDbLine
 10
156.6624967632499
 20
336.0945260112071
 30
0.0
 11
171.96715376325
 21
335.8273750112071
 31
0.0
  0
LINE
  5
11DD
330
2
100
AcDbEntity
  8
0
100
AcDbLine
 10
158.9954127632499
 20
340.0538000112072
 30
0.0
 11
171.26939976325
 21
339.8395510112072
 31
0.0
  0
ARC
  5
11DE
330
2
100
AcDbEntity
  8
0
100
AcDbCircle
 10
159.03032476325
 20
342.0534950112072
 30
0.0
 40
2.0
100
AcDbArc
 50
215.5904389999967
 51
268.9999999999981
  0
ARC
  5
11DF
330
2
100
AcDbEntity
  8
0
100
AcDbCircle
 10
156.69740876325
 20
338.0942200112071
 30
0.0
 40
2.0
100
AcDbArc
 50
180.0
 51
268.9999999999981
  0
LINE
  5
11E0
330
2
100
AcDbEntity
  8
0
100
AcDbLine
 10
157.45918876325
 20
340.8159460112071
 30
0.0
 11
155.1262727632499
 21
336.8566720112072
 31
0.0
  0
LINE
  5
11E1
330
2
100
AcDbEntity
  8
0
100
AcDbLine
 10
154.6974087632499
 20
338.0942200112071
 30
0.0
 11
154.6974087632499
 21
340.2805610112071
 31
0.0
  0
LINE
  5
11E2
330
2
100
AcDbEntity
  8
0
100
AcDbLine
 10
182.69740876325
 20
330.1591620112071
 30
0.0
 11
182.69740876325
 21
341.0091680112071
 31
0.0
  0
LINE
  5
11E3
330
2
100
AcDbEntity
  8
0
100
AcDbLine
 10
187.69740876325
 20
331.5091680112071
 30
0.0
 11
185.09740276325
 21
331.5091680112071
 31
0.0
  0
LINE
  5
11E4
330
2
100
AcDbEntity
  8
PHAS
100
AcDbLine
 10
183.89739076325
 20
331.5091680112071
 30
0.0
 11
182.69740876325
 21
331.5510690112071
 31
0.0
  0
LINE
  5
11E5
330
2
100
AcDbEntity
  8
PHAS
100
AcDbLine
 10
183.89739076325
 20
331.5091680112071
 30
0.0
 11
185.09740276325
 21
331.5510690112071
 31
0.0
  0
ARC
  5
11E6
330
2
100
AcDbEntity
  8
PHAS
100
AcDbCircle
 10
183.89739076325
 20
331.7291690112071
 30
0.0
 40
1.219999999999998
100
AcDbArc
 50
190.3888549999994
 51
351.6977370000001
  0
ARC
  5
11E7
330
2
100
AcDbEntity
  8
0
100
AcDbCircle
 10
185.6974087632498
 20
329.4095890112071
 30
0.0
 40
2.0
100
AcDbArc
 50
290.0000000000031
 51
0.0
  0
LINE
  5
11E8
330
2
100
AcDbEntity
  8
0
100
AcDbLine
 10
183.51326576325
 20
326.4862650112072
 30
0.0
 11
186.38146076325
 21
327.5301950112071
 31
0.0
  0
ARC
  5
11E9
330
2
100
AcDbEntity
  8
0
100
AcDbCircle
 10
184.19731676325
 20
324.6068780112072
 30
0.0
 40
2.0
100
AcDbArc
 50
110.0000079999982
 51
180.0
  0
LINE
  5
11EA
330
2
100
AcDbEntity
  8
0
100
AcDbLine
 10
182.1973167632498
 20
324.1542640112072
 30
0.0
 11
182.1973167632498
 21
324.6068780112072
 31
0.0
  0
LINE
  5
11EB
330
2
100
AcDbEntity
  8
0
100
AcDbLine
 10
185.09740276325
 20
330.1591620112071
 30
0.0
 11
182.69740876325
 21
330.1591620112071
 31
0.0
  0
LINE
  5
11EC
330
2
100
AcDbEntity
  8
0
100
AcDbLine
 10
184.69731676325
 20
341.0091680112071
 30
0.0
 11
174.6974087632498
 21
341.0091680112071
 31
0.0
  0
LINE
  5
11ED
330
2
100
AcDbEntity
  8
0
100
AcDbLine
 10
181.69740876325
 20
335.0091680112071
 30
0.0
 11
174.6974087632498
 21
335.0091680112071
 31
0.0
  0
LINE
  5
11EE
330
2
100
AcDbEntity
  8
0
100
AcDbLine
 10
181.69740876325
 20
335.0091680112071
 30
0.0
 11
175.6974087632498
 21
341.0091680112071
 31
0.0
  0
LINE
  5
11EF
330
2
100
AcDbEntity
  8
0
100
AcDbLine
 10
175.6974087632498
 20
335.0091680112071
 30
0.0
 11
181.69740876325
 21
341.0091680112071
 31
0.0
  0
LINE
  5
11F0
330
2
100
AcDbEntity
  8
0
100
AcDbLine
 10
174.6974087632498
 20
333.9748360112071
 30
0.0
 11
174.6974087632498
 21
341.0091680112071
 31
0.0
  0
LINE
  5
11F1
330
2
100
AcDbEntity
  8
0
100
AcDbLine
 10
175.6974087632498
 20
335.0091680112071
 30
0.0
 11
175.6974087632498
 21
341.0091680112071
 31
0.0
  0
LINE
  5
11F2
330
2
100
AcDbEntity
  8
0
100
AcDbLine
 10
174.6974087632498
 20
338.5091680112072
 30
0.0
 11
171.50075376325
 21
338.5091680112072
 31
0.0
  0
LINE
  5
11F3
330
2
100
AcDbEntity
  8
0
100
AcDbLine
 10
181.69740876325
 20
335.0091680112071
 30
0.0
 11
181.69740876325
 21
341.0091680112071
 31
0.0
  0
LINE
  5
11F4
330
2
100
AcDbEntity
  8
0
100
AcDbLine
 10
181.69740876325
 20
335.0091680112071
 30
0.0
 11
182.69740876325
 21
334.4318210112072
 31
0.0
  0
LINE
  5
11F5
330
2
100
AcDbEntity
  8
0
100
AcDbLine
 10
134.6975007632499
 20
344.5091680112071
 30
0.0
 11
164.69731676325
 21
344.5091680112071
 31
0.0
  0
LINE
  5
11F6
330
2
100
AcDbEntity
  8
0
100
AcDbLine
 10
184.69731676325
 20
358.8091710112071
 30
0.0
 11
114.69750076325
 21
358.8091710112071
 31
0.0
  0
LINE
  5
11F7
330
2
100
AcDbEntity
  8
0
100
AcDbLine
 10
164.69731676325
 20
357.5091680112072
 30
0.0
 11
134.6975007632499
 21
357.5091680112072
 31
0.0
  0
ARC
  5
11F8
330
2
100
AcDbEntity
  8
0
100
AcDbCircle
 10
142.6974087632499
 20
364.1423010112071
 30
0.0
 40
2.0
100
AcDbArc
 50
0.0
 51
88.99999999999822
  0
LINE
  5
11F9
330
2
100
AcDbEntity
  8
0
100
AcDbLine
 10
117.6974087632499
 20
367.0091680112071
 30
0.0
 11
123.6974087632499
 21
361.0091680112071
 31
0.0
  0
LINE
  5
11FA
330
2
100
AcDbEntity
  8
0
100
AcDbLine
 10
123.6974087632499
 20
367.0091680112071
 30
0.0
 11
117.6974087632499
 21
361.0091680112071
 31
0.0
  0
LINE
  5
11FB
330
2
100
AcDbEntity
  8
0
100
AcDbLine
 10
116.6974087632499
 20
371.8591740112072
 30
0.0
 11
116.6974087632499
 21
361.0091680112071
 31
0.0
  0
LINE
  5
11FC
330
2
100
AcDbEntity
  8
0
100
AcDbLine
 10
117.6974087632499
 20
367.0091680112071
 30
0.0
 11
117.6974087632499
 21
361.0091680112071
 31
0.0
  0
LINE
  5
11FD
330
2
100
AcDbEntity
  8
0
100
AcDbLine
 10
124.6974087632499
 20
361.0091680112071
 30
0.0
 11
124.6974087632499
 21
367.7758760112071
 31
0.0
  0
LINE
  5
11FE
330
2
100
AcDbEntity
  8
0
100
AcDbLine
 10
123.6974087632499
 20
367.0091680112071
 30
0.0
 11
123.6974087632499
 21
361.0091680112071
 31
0.0
  0
LINE
  5
11FF
330
2
100
AcDbEntity
  8
0
100
AcDbLine
 10
141.9356287632499
 20
361.4205750112071
 30
0.0
 11
144.26854476325
 21
365.3798650112071
 31
0.0
  0
LINE
  5
1200
330
2
100
AcDbEntity
  8
0
100
AcDbLine
 10
124.6974087632499
 20
363.5091680112072
 30
0.0
 11
128.2995207632499
 21
363.5091680112072
 31
0.0
  0
LINE
  5
1201
330
2
100
AcDbEntity
  8
0
100
AcDbLine
 10
122.6975007632499
 20
345.0091680112072
 30
0.0
 11
134.6975007632499
 21
345.0091680112072
 31
0.0
  0
LINE
  5
1202
330
2
100
AcDbEntity
  8
0
100
AcDbLine
 10
122.6975007632499
 20
356.6660280112071
 30
0.0
 11
134.6975007632499
 21
356.6660280112071
 31
0.0
  0
LINE
  5
1203
330
2
100
AcDbEntity
  8
0
100
AcDbLine
 10
116.6975007632499
 20
345.0091680112072
 30
0.0
 11
116.6975007632499
 21
357.0091680112071
 31
0.0
  0
LINE
  5
1204
330
2
100
AcDbEntity
  8
0
100
AcDbLine
 10
122.6975007632499
 20
344.7591680112072
 30
0.0
 11
122.6975007632499
 21
357.2591680112072
 31
0.0
  0
LINE
  5
1205
330
2
100
AcDbEntity
  8
0
100
AcDbLine
 10
121.5475067632498
 20
344.7591680112072
 30
0.0
 11
121.5475067632498
 21
357.2591680112072
 31
0.0
  0
LINE
  5
1206
330
2
100
AcDbEntity
  8
0
100
AcDbLine
 10
116.6975007632499
 20
345.0091680112072
 30
0.0
 11
114.69750076325
 21
343.8544740112071
 31
0.0
  0
LINE
  5
1207
330
2
100
AcDbEntity
  8
0
100
AcDbLine
 10
116.6975007632499
 20
345.0091680112072
 30
0.0
 11
121.5475067632498
 21
345.0091680112072
 31
0.0
  0
LINE
  5
1208
330
2
100
AcDbEntity
  8
0
100
AcDbLine
 10
121.5475067632498
 20
344.7591680112072
 30
0.0
 11
122.6975007632499
 21
344.7591680112072
 31
0.0
  0
LINE
  5
1209
330
2
100
AcDbEntity
  8
0
100
AcDbLine
 10
116.6975007632499
 20
357.0091680112071
 30
0.0
 11
114.69750076325
 21
358.1638770112071
 31
0.0
  0
LINE
  5
120A
330
2
100
AcDbEntity
  8
0
100
AcDbLine
 10
114.69750076325
 20
361.0091680112071
 30
0.0
 11
124.6974087632499
 21
361.0091680112071
 31
0.0
  0
LINE
  5
120B
330
2
100
AcDbEntity
  8
0
100
AcDbLine
 10
116.6975007632499
 20
356.6660280112071
 30
0.0
 11
121.5475067632498
 21
356.6660280112071
 31
0.0
  0
LINE
  5
120C
330
2
100
AcDbEntity
  8
0
100
AcDbLine
 10
121.5475067632498
 20
357.2591680112072
 30
0.0
 11
122.6975007632499
 21
357.2591680112072
 31
0.0
  0
LINE
  5
120D
330
2
100
AcDbEntity
  8
0
100
AcDbLine
 10
134.6975007632499
 20
344.5091680112071
 30
0.0
 11
134.6975007632499
 21
357.5091680112072
 31
0.0
  0
LINE
  5
120E
330
2
100
AcDbEntity
  8
0
100
AcDbLine
 10
140.39940476325
 20
362.1827210112072
 30
0.0
 11
128.8716637632497
 21
362.3839390112071
 31
0.0
  0
ARC
  5
120F
330
2
100
AcDbEntity
  8
0
100
AcDbCircle
 10
140.3644927632498
 20
360.1830270112071
 30
0.0
 40
2.0
100
AcDbArc
 50
29.9850520000009
 51
88.99999999999822
  0
LINE
  5
1210
330
2
100
AcDbEntity
  8
0
100
AcDbLine
 10
144.6974087632499
 20
360.9192170112072
 30
0.0
 11
144.6974087632499
 21
364.1423010112071
 31
0.0
  0
ARC
  5
1211
330
2
100
AcDbEntity
  8
0
100
AcDbCircle
 10
115.1974087632499
 20
377.4114200112072
 30
0.0
 40
2.0
100
AcDbArc
 50
290.0000079999983
 51
0.0
  0
LINE
  5
1212
330
2
100
AcDbEntity
  8
0
100
AcDbLine
 10
115.88146076325
 20
375.5320410112072
 30
0.0
 11
113.0133567632499
 21
374.4881410112071
 31
0.0
  0
LINE
  5
1213
330
2
100
AcDbEntity
  8
0
100
AcDbLine
 10
114.2974147632501
 20
371.8591740112072
 30
0.0
 11
116.6974087632499
 21
371.8591740112072
 31
0.0
  0
LINE
  5
1214
330
2
100
AcDbEntity
  8
PHAS
100
AcDbLine
 10
115.4974267632497
 20
370.5091680112071
 30
0.0
 11
116.6974087632499
 21
370.4672670112072
 31
0.0
  0
ARC
  5
1215
330
2
100
AcDbEntity
  8
PHAS
100
AcDbCircle
 10
115.4974267632497
 20
370.2891670112072
 30
0.0
 40
1.219999999999998
100
AcDbArc
 50
10.38885499999955
 51
171.6977390000004
  0
LINE
  5
1216
330
2
100
AcDbEntity
  8
0
100
AcDbLine
 10
111.69740876325
 20
370.5091680112071
 30
0.0
 11
114.2974147632501
 21
370.5091680112071
 31
0.0
  0
LINE
  5
1217
330
2
100
AcDbEntity
  8
PHAS
100
AcDbLine
 10
115.4974267632497
 20
370.5091680112071
 30
0.0
 11
114.2974147632501
 21
370.4672670112072
 31
0.0
  0
ARC
  5
1218
330
2
100
AcDbEntity
  8
0
100
AcDbCircle
 10
113.69740876325
 20
372.6087470112072
 30
0.0
 40
2.0
100
AcDbArc
 50
110.000000000003
 51
180.0
  0
LINE
  5
1219
330
2
100
AcDbEntity
  8
0
100
AcDbLine
 10
117.6974087632499
 20
367.0091680112071
 30
0.0
 11
124.6974087632499
 21
367.0091680112071
 31
0.0
  0
LINE
  5
121A
330
2
100
AcDbEntity
  8
0
100
AcDbLine
 10
117.6974087632499
 20
367.0091680112071
 30
0.0
 11
116.6974087632499
 21
367.5865150112071
 31
0.0
  0
LINE
  5
121B
330
2
100
AcDbEntity
  8
0
100
AcDbLine
 10
109.1974087632499
 20
379.1793800112071
 30
0.0
 11
115.69740876325
 21
379.0091680112071
 31
0.0
  0
LINE
  5
121C
330
2
100
AcDbEntity
  8
0
100
AcDbLine
 10
110.6973777632499
 20
378.0091830112072
 30
0.0
 11
110.6973777632499
 21
377.0106180112072
 31
0.0
  0
LINE
  5
121D
330
2
100
AcDbEntity
  8
0
100
AcDbLine
 10
114.6973777632499
 20
378.3091560112071
 30
0.0
 11
115.69740876325
 21
378.3091560112071
 31
0.0
  0
LINE
  5
121E
330
2
100
AcDbEntity
  8
0
100
AcDbLine
 10
110.6973777632499
 20
378.0091830112072
 30
0.0
 11
114.6973777632499
 21
378.0091990112071
 31
0.0
  0
LINE
  5
121F
330
2
100
AcDbEntity
  8
0
100
AcDbLine
 10
114.6973777632499
 20
378.3091560112071
 30
0.0
 11
114.6973777632499
 21
377.4789250112072
 31
0.0
  0
LINE
  5
1220
330
2
100
AcDbEntity
  8
0
100
AcDbLine
 10
115.69740876325
 20
379.0091680112071
 30
0.0
 11
115.69740876325
 21
377.7481660112071
 31
0.0
  0
LINE
  5
1221
330
2
100
AcDbEntity
  8
0
100
AcDbLine
 10
117.1974087632499
 20
377.533872011207
 30
0.0
 11
117.1974087632499
 21
377.4114200112072
 31
0.0
  0
LINE
  5
1222
330
2
100
AcDbEntity
  8
0
100
AcDbLine
 10
142.73232076325
 20
366.1420110112071
 30
0.0
 11
126.8195707632501
 21
366.4197670112071
 31
0.0
  0
ARC
  5
1223
330
2
100
AcDbEntity
  8
0
100
AcDbCircle
 10
156.69740876325
 20
363.9241160112072
 30
0.0
 40
2.0
100
AcDbArc
 50
91.00000000000177
 51
180.0
  0
LINE
  5
1224
330
2
100
AcDbEntity
  8
0
100
AcDbLine
 10
181.69740876325
 20
367.0091680112071
 30
0.0
 11
175.6974087632498
 21
361.0091680112071
 31
0.0
  0
LINE
  5
1225
330
2
100
AcDbEntity
  8
0
100
AcDbLine
 10
175.6974087632498
 20
367.0091680112071
 30
0.0
 11
181.69740876325
 21
361.0091680112071
 31
0.0
  0
LINE
  5
1226
330
2
100
AcDbEntity
  8
0
100
AcDbLine
 10
174.6974087632498
 20
361.0091680112071
 30
0.0
 11
174.6974087632498
 21
368.0435000112071
 31
0.0
  0
LINE
  5
1227
330
2
100
AcDbEntity
  8
0
100
AcDbLine
 10
175.6974087632498
 20
367.0091680112071
 30
0.0
 11
175.6974087632498
 21
361.0091680112071
 31
0.0
  0
LINE
  5
1228
330
2
100
AcDbEntity
  8
0
100
AcDbLine
 10
182.69740876325
 20
371.8591740112072
 30
0.0
 11
182.69740876325
 21
361.0091680112071
 31
0.0
  0
LINE
  5
1229
330
2
100
AcDbEntity
  8
0
100
AcDbLine
 10
181.69740876325
 20
367.0091680112071
 30
0.0
 11
181.69740876325
 21
361.0091680112071
 31
0.0
  0
LINE
  5
122A
330
2
100
AcDbEntity
  8
0
100
AcDbLine
 10
176.69731676325
 20
356.6660280112071
 30
0.0
 11
164.69731676325
 21
356.6660280112071
 31
0.0
  0
LINE
  5
122B
330
2
100
AcDbEntity
  8
0
100
AcDbLine
 10
176.69731676325
 20
345.0091680112072
 30
0.0
 11
164.69731676325
 21
345.0091680112072
 31
0.0
  0
LINE
  5
122C
330
2
100
AcDbEntity
  8
0
100
AcDbLine
 10
158.9954127632499
 20
361.9645360112071
 30
0.0
 11
171.26939976325
 21
362.1787850112071
 31
0.0
  0
LINE
  5
122D
330
2
100
AcDbEntity
  8
0
100
AcDbLine
 10
164.69731676325
 20
344.5091680112071
 30
0.0
 11
164.69731676325
 21
357.5091680112072
 31
0.0
  0
ARC
  5
122E
330
2
100
AcDbEntity
  8
0
100
AcDbCircle
 10
159.03032476325
 20
359.9648410112071
 30
0.0
 40
2.0
100
AcDbArc
 50
91.00000000000177
 51
144.4095610000031
  0
LINE
  5
122F
330
2
100
AcDbEntity
  8
0
100
AcDbLine
 10
157.45918876325
 20
361.2023900112071
 30
0.0
 11
155.1262727632499
 21
365.1616640112071
 31
0.0
  0
LINE
  5
1230
330
2
100
AcDbEntity
  8
0
100
AcDbLine
 10
154.6974087632499
 20
363.9241160112072
 30
0.0
 11
154.6974087632499
 21
361.7377750112071
 31
0.0
  0
LINE
  5
1231
330
2
100
AcDbEntity
  8
0
100
AcDbLine
 10
176.69731676325
 20
344.7591680112072
 30
0.0
 11
176.69731676325
 21
357.2591680112072
 31
0.0
  0
LINE
  5
1232
330
2
100
AcDbEntity
  8
0
100
AcDbLine
 10
177.8473107632498
 20
344.7591680112072
 30
0.0
 11
177.8473107632498
 21
357.2591680112072
 31
0.0
  0
LINE
  5
1233
330
2
100
AcDbEntity
  8
0
100
AcDbLine
 10
182.69731676325
 20
345.0091680112072
 30
0.0
 11
182.69731676325
 21
357.0091680112071
 31
0.0
  0
LINE
  5
1234
330
2
100
AcDbEntity
  8
0
100
AcDbLine
 10
182.69731676325
 20
345.0091680112072
 30
0.0
 11
177.8473107632498
 21
345.0091680112072
 31
0.0
  0
LINE
  5
1235
330
2
100
AcDbEntity
  8
0
100
AcDbLine
 10
177.8473107632498
 20
344.7591680112072
 30
0.0
 11
176.69731676325
 21
344.7591680112072
 31
0.0
  0
LINE
  5
1236
330
2
100
AcDbEntity
  8
0
100
AcDbLine
 10
182.69731676325
 20
345.0091680112072
 30
0.0
 11
184.69731676325
 21
343.8544740112071
 31
0.0
  0
LINE
  5
1237
330
2
100
AcDbEntity
  8
0
100
AcDbLine
 10
184.69731676325
 20
361.0091680112071
 30
0.0
 11
174.6974087632498
 21
361.0091680112071
 31
0.0
  0
LINE
  5
1238
330
2
100
AcDbEntity
  8
0
100
AcDbLine
 10
182.69731676325
 20
356.6660280112071
 30
0.0
 11
177.8473107632498
 21
356.6660280112071
 31
0.0
  0
LINE
  5
1239
330
2
100
AcDbEntity
  8
0
100
AcDbLine
 10
174.6974087632498
 20
363.5091680112072
 30
0.0
 11
171.50075376325
 21
363.5091680112072
 31
0.0
  0
LINE
  5
123A
330
2
100
AcDbEntity
  8
0
100
AcDbLine
 10
177.8473107632498
 20
357.2591680112072
 30
0.0
 11
176.69731676325
 21
357.2591680112072
 31
0.0
  0
LINE
  5
123B
330
2
100
AcDbEntity
  8
0
100
AcDbLine
 10
182.69731676325
 20
357.0091680112071
 30
0.0
 11
184.69731676325
 21
358.1638770112071
 31
0.0
  0
LINE
  5
123C
330
2
100
AcDbEntity
  8
0
100
AcDbLine
 10
156.6624967632499
 20
365.9238100112072
 30
0.0
 11
171.96715376325
 21
366.1909610112072
 31
0.0
  0
ARC
  5
123D
330
2
100
AcDbEntity
  8
0
100
AcDbCircle
 10
184.19731676325
 20
377.4114510112072
 30
0.0
 40
2.0
100
AcDbArc
 50
180.0
 51
249.9999999999968
  0
LINE
  5
123E
330
2
100
AcDbEntity
  8
0
100
AcDbLine
 10
181.69740876325
 20
367.0091680112071
 30
0.0
 11
174.6974087632498
 21
367.0091680112071
 31
0.0
  0
LINE
  5
123F
330
2
100
AcDbEntity
  8
0
100
AcDbLine
 10
183.51326576325
 20
375.5320710112071
 30
0.0
 11
186.38146076325
 21
374.4881410112071
 31
0.0
  0
LINE
  5
1240
330
2
100
AcDbEntity
  8
0
100
AcDbLine
 10
181.69740876325
 20
367.0091680112071
 30
0.0
 11
182.69740876325
 21
367.5865150112071
 31
0.0
  0
LINE
  5
1241
330
2
100
AcDbEntity
  8
0
100
AcDbLine
 10
187.69740876325
 20
370.5091680112071
 30
0.0
 11
185.09740276325
 21
370.5091680112071
 31
0.0
  0
LINE
  5
1242
330
2
100
AcDbEntity
  8
0
100
AcDbLine
 10
185.09740276325
 20
371.8591740112072
 30
0.0
 11
182.69740876325
 21
371.8591740112072
 31
0.0
  0
LINE
  5
1243
330
2
100
AcDbEntity
  8
PHAS
100
AcDbLine
 10
183.89739076325
 20
370.5091680112071
 30
0.0
 11
185.09740276325
 21
370.4672670112072
 31
0.0
  0
LINE
  5
1244
330
2
100
AcDbEntity
  8
PHAS
100
AcDbLine
 10
183.89739076325
 20
370.5091680112071
 30
0.0
 11
182.69740876325
 21
370.4672670112072
 31
0.0
  0
ARC
  5
1245
330
2
100
AcDbEntity
  8
PHAS
100
AcDbCircle
 10
183.89739076325
 20
370.2891670112072
 30
0.0
 40
1.219999999999998
100
AcDbArc
 50
8.302276999999667
 51
169.6111449999996
  0
ARC
  5
1246
330
2
100
AcDbEntity
  8
0
100
AcDbCircle
 10
185.6974087632498
 20
372.6087470112072
 30
0.0
 40
2.0
100
AcDbArc
 50
0.0
 51
69.99999999999686
  0
LINE
  5
1247
330
2
100
AcDbEntity
  8
0
100
AcDbLine
 10
182.1973167632498
 20
377.8640720112071
 30
0.0
 11
182.1973167632498
 21
377.4114510112072
 31
0.0
  0
LINE
  5
1248
330
2
100
AcDbEntity
  8
0
100
AcDbLine
 10
149.6974087632499
 20
391.5091680112071
 30
0.0
 11
109.1974087632499
 21
390.8022440112071
 31
0.0
  0
LINE
  5
1249
330
2
100
AcDbEntity
  8
0
100
AcDbLine
 10
190.1974087632498
 20
390.8022440112071
 30
0.0
 11
190.1974087632498
 21
311.2161000112071
 31
0.0
  0
LINE
  5
1259
330
2
100
AcDbEntity
  8
PHAS
  6
SEKKEI_P_S
100
AcDbLine
 10
200.6974087632499
 20
363.9852730112071
 30
0.0
 11
200.6974087632499
 21
338.0961430112071
 31
0.0
  0
ARC
  5
125A
330
2
100
AcDbEntity
  8
PHAS
  6
SEKKEI_P_S
100
AcDbCircle
 10
197.6974087632498
 20
338.0330630112071
 30
0.0
 40
3.0
100
AcDbArc
 50
284.9999999999949
 51
0.0
  0
ARC
  5
125B
330
2
100
AcDbEntity
  8
PHAS
  6
SEKKEI_P_S
100
AcDbCircle
 10
197.6974087632498
 20
363.9852730112071
 30
0.0
 40
3.0
100
AcDbArc
 50
0.0
 51
75.00000000000511
  0
TEXT
  5
17DC
330
2
100
AcDbEntity
  8
TITLE
100
AcDbText
 10
46.92313758759111
 20
39.66581656667676
 30
0.0
 40
8.0
  1
F2SM-12-10～120-S40WT
100
AcDbText
  0
TEXT
  5
17DD
330
2
100
AcDbEntity
  8
TITLE
100
AcDbText
 10
46.92313758759111
 20
78.66581656667676
 30
0.0
 40
8.0
  1
F2SM-12-10～120-T40WT
100
AcDbText
  0
TEXT
  5
17DE
330
2
100
AcDbEntity
  8
TITLE
100
AcDbText
 10
46.92313758759111
 20
65.66581656667676
 30
0.0
 40
8.0
  1
F2SM-12-10～60-T60T
100
AcDbText
  0
TEXT
  5
17DF
330
2
100
AcDbEntity
  8
TITLE
100
AcDbText
 10
46.92313758759111
 20
52.66581656667677
 30
0.0
 40
8.0
  1
F2SM-12-10～120-S40T
100
AcDbText
  0
LINE
  5
17E1
330
2
100
AcDbEntity
  8
CENTER
100
AcDbLine
 10
180.3546247572992
 20
123.4310359652116
 30
0.0
 11
180.3546247572992
 21
134.5757199652117
 31
0.0
  0
LINE
  5
17E2
330
2
100
AcDbEntity
  8
CENTER
100
AcDbLine
 10
182.8546247572992
 20
126.9820159652117
 30
0.0
 11
182.8546247572992
 21
111.0247399652116
 31
0.0
  0
LINE
  5
17E3
330
2
100
AcDbEntity
  8
CENTER
100
AcDbLine
 10
190.8332627572992
 20
119.0033779652116
 30
0.0
 11
174.875986757299
 21
119.0033779652116
 31
0.0
  0
LINE
  5
17E4
330
2
100
AcDbEntity
  8
CENTER
100
AcDbLine
 10
174.7822827572993
 20
129.0033779652116
 30
0.0
 11
185.926966757299
 21
129.0033779652116
 31
0.0
  0
LINE
  5
17E5
330
2
100
AcDbEntity
  8
CENTER
100
AcDbLine
 10
182.8546247572992
 20
193.9820159652115
 30
0.0
 11
182.8546247572992
 21
178.0247399652116
 31
0.0
  0
LINE
  5
17E6
330
2
100
AcDbEntity
  8
CENTER
100
AcDbLine
 10
180.3546247572992
 20
170.4310359652116
 30
0.0
 11
180.3546247572992
 21
181.5757199652116
 31
0.0
  0
LINE
  5
17E7
330
2
100
AcDbEntity
  8
CENTER
100
AcDbLine
 10
190.8332627572992
 20
186.0033779652116
 30
0.0
 11
174.875986757299
 21
186.0033779652116
 31
0.0
  0
LINE
  5
17E8
330
2
100
AcDbEntity
  8
CENTER
100
AcDbLine
 10
174.7822827572993
 20
176.0033779652116
 30
0.0
 11
185.926966757299
 21
176.0033779652116
 31
0.0
  0
LINE
  5
17E9
330
2
100
AcDbEntity
  8
CENTER
100
AcDbLine
 10
236.8546247572992
 20
122.3965049652116
 30
0.0
 11
236.8546247572992
 21
182.6102509652116
 31
0.0
  0
LINE
  5
17EA
330
2
100
AcDbEntity
  8
CENTER
100
AcDbLine
 10
271.3546247572991
 20
123.4310359652116
 30
0.0
 11
271.3546247572991
 21
134.5757199652117
 31
0.0
  0
LINE
  5
17EB
330
2
100
AcDbEntity
  8
CENTER
100
AcDbLine
 10
268.8546247572991
 20
126.9820159652117
 30
0.0
 11
268.8546247572991
 21
111.0247399652116
 31
0.0
  0
LINE
  5
17EC
330
2
100
AcDbEntity
  8
CENTER
100
AcDbLine
 10
276.8332627572991
 20
119.0033779652116
 30
0.0
 11
260.875986757299
 21
119.0033779652116
 31
0.0
  0
LINE
  5
17ED
330
2
100
AcDbEntity
  8
CENTER
100
AcDbLine
 10
265.7822827572993
 20
129.0033779652116
 30
0.0
 11
276.926966757299
 21
129.0033779652116
 31
0.0
  0
LINE
  5
17EE
330
2
100
AcDbEntity
  8
CENTER
100
AcDbLine
 10
268.8546247572991
 20
193.9820159652115
 30
0.0
 11
268.8546247572991
 21
178.0247399652116
 31
0.0
  0
LINE
  5
17EF
330
2
100
AcDbEntity
  8
CENTER
100
AcDbLine
 10
271.3546247572991
 20
170.4310359652116
 30
0.0
 11
271.3546247572991
 21
181.5757199652116
 31
0.0
  0
LINE
  5
17F0
330
2
100
AcDbEntity
  8
CENTER
100
AcDbLine
 10
276.8332627572991
 20
186.0033779652116
 30
0.0
 11
260.875986757299
 21
186.0033779652116
 31
0.0
  0
LINE
  5
17F1
330
2
100
AcDbEntity
  8
CENTER
100
AcDbLine
 10
265.7822827572993
 20
176.0033779652116
 30
0.0
 11
276.926966757299
 21
176.0033779652116
 31
0.0
  0
LINE
  5
17F2
330
2
100
AcDbEntity
  8
CENTER
100
AcDbLine
 10
627.1822167495187
 20
122.3965049652116
 30
0.0
 11
627.1822167495187
 21
182.6102509652116
 31
0.0
  0
LINE
  5
17F3
330
2
100
AcDbEntity
  8
CENTER
100
AcDbLine
 10
595.1822167495187
 20
126.9820159652117
 30
0.0
 11
595.1822167495187
 21
111.0247399652116
 31
0.0
  0
LINE
  5
17F4
330
2
100
AcDbEntity
  8
CENTER
100
AcDbLine
 10
603.1608547495189
 20
119.0033779652116
 30
0.0
 11
587.2035787495187
 21
119.0033779652116
 31
0.0
  0
LINE
  5
17F5
330
2
100
AcDbEntity
  8
CENTER
100
AcDbLine
 10
689.1608547495187
 20
119.0033779652116
 30
0.0
 11
673.2035787495187
 21
119.0033779652116
 31
0.0
  0
LINE
  5
17F6
330
2
100
AcDbEntity
  8
CENTER
100
AcDbLine
 10
681.1822167495186
 20
126.9820159652117
 30
0.0
 11
681.1822167495186
 21
111.0247399652116
 31
0.0
  0
LINE
  5
17F7
330
2
100
AcDbEntity
  8
CENTER
100
AcDbLine
 10
595.1822167495187
 20
193.9820159652115
 30
0.0
 11
595.1822167495187
 21
178.0247399652116
 31
0.0
  0
LINE
  5
17F8
330
2
100
AcDbEntity
  8
CENTER
100
AcDbLine
 10
603.1608547495189
 20
186.0033779652116
 30
0.0
 11
587.2035787495187
 21
186.0033779652116
 31
0.0
  0
LINE
  5
17F9
330
2
100
AcDbEntity
  8
CENTER
100
AcDbLine
 10
681.1822167495186
 20
193.9820159652115
 30
0.0
 11
681.1822167495186
 21
178.0247399652116
 31
0.0
  0
LINE
  5
17FA
330
2
100
AcDbEntity
  8
CENTER
100
AcDbLine
 10
689.1608547495187
 20
186.0033779652116
 30
0.0
 11
673.2035787495187
 21
186.0033779652116
 31
0.0
  0
LINE
  5
17FB
330
2
100
AcDbEntity
  8
CENTER
100
AcDbLine
 10
347.6089223156591
 20
152.5033779652116
 30
0.0
 11
461.086156315659
 21
152.5033779652116
 31
0.0
  0
LINE
  5
17FC
330
2
100
AcDbEntity
  8
CENTER
100
AcDbLine
 10
404.347539315659
 20
228.3908759652116
 30
0.0
 11
404.347539315659
 21
104.9552519652116
 31
0.0
  0
LINE
  5
17FD
330
2
100
AcDbEntity
  8
0
100
AcDbLine
 10
444.8475393156591
 20
192.2964539652116
 30
0.0
 11
444.8475393156591
 21
112.7103099652116
 31
0.0
  0
LINE
  5
17FE
330
2
100
AcDbEntity
  8
0
100
AcDbLine
 10
376.347539315659
 20
112.4921169652116
 30
0.0
 11
376.347539315659
 21
192.5146403849646
 31
0.0
  0
LINE
  5
17FF
330
2
100
AcDbEntity
  8
0
100
AcDbLine
 10
363.847539315659
 20
192.2964539652116
 30
0.0
 11
363.847539315659
 21
112.7103099652116
 31
0.0
  0
LINE
  5
1800
330
2
100
AcDbEntity
  8
PHAS
  6
SEKKEI_P_S
100
AcDbLine
 10
455.3475393156591
 20
165.4794829652117
 30
0.0
 11
455.3475393156591
 21
139.5903529652117
 31
0.0
  0
LINE
  5
1801
330
2
100
AcDbEntity
  8
0
100
AcDbLine
 10
411.6805473156591
 20
161.4589749652116
 30
0.0
 11
411.6805473156591
 21
143.5477809652114
 31
0.0
  0
LINE
  5
1802
330
2
100
AcDbEntity
  8
0
100
AcDbLine
 10
397.014531315659
 20
161.6771759652116
 30
0.0
 11
397.014531315659
 21
143.3295799652116
 31
0.0
  0
LINE
  5
1803
330
2
100
AcDbEntity
  8
0
100
AcDbLine
 10
409.3475393156591
 20
165.4183869652116
 30
0.0
 11
409.3475393156591
 21
139.5883689652116
 31
0.0
  0
LINE
  5
1804
330
2
100
AcDbEntity
  8
0
100
AcDbLine
 10
399.347539315659
 20
139.3701689652116
 30
0.0
 11
399.347539315659
 21
165.6365869652115
 31
0.0
  0
LINE
  5
1807
330
2
100
AcDbEntity
  8
PHAS
  6
SEKKEI_P_S
100
AcDbLine
 10
353.347539315659
 20
165.4794829652117
 30
0.0
 11
353.347539315659
 21
139.5903529652117
 31
0.0
  0
LINE
  5
1808
330
2
100
AcDbEntity
  8
HOJO
100
AcDbLine
 10
376.347539315659
 20
123.0033779652117
 30
0.0
 11
396.3475393156591
 21
123.0033779652117
 31
0.0
  0
LINE
  5
1809
330
2
100
AcDbEntity
  8
HOJO
100
AcDbLine
 10
376.347539315659
 20
115.0033779652116
 30
0.0
 11
396.3475393156591
 21
115.0033779652116
 31
0.0
  0
LINE
  5
180A
330
2
100
AcDbEntity
  8
0
100
AcDbLine
 10
404.347539315659
 20
112.0033779652116
 30
0.0
 11
363.847539315659
 21
112.7103099652116
 31
0.0
  0
LINE
  5
180C
330
2
100
AcDbEntity
  8
0
100
AcDbLine
 10
397.3825433156591
 20
137.3705659652115
 30
0.0
 11
376.347539315659
 21
137.0033779652116
 31
0.0
  0
LINE
  5
180D
330
2
100
AcDbEntity
  8
0
100
AcDbLine
 10
395.0495353156591
 20
141.3297629652116
 30
0.0
 11
376.347539315659
 21
141.0033779652116
 31
0.0
  0
LWPOLYLINE
  5
180E
330
2
100
AcDbEntity
  8
HOJO
100
AcDbPolyline
 90
       21
 70
     0
 43
0.0
 10
363.847539315659
 20
127.1213907672588
 10
367.3787893156591
 20
126.8824377672588
 10
371.0975393156591
 20
127.3511877672587
 10
374.8787893156591
 20
126.9449377672587
 10
378.3787893156591
 20
127.4449377672588
 10
382.4100393156591
 20
126.9136877672587
 10
385.9412893156591
 20
127.4761877672587
 10
390.4725393156591
 20
126.9761877672587
 10
395.1600393156591
 20
127.6011877672587
 10
399.8475393156591
 20
127.0074377672588
 10
403.660039315659
 20
127.6324377672587
 10
408.9725393156591
 20
127.1324377672587
 10
412.8787893156591
 20
127.7886877672588
 10
417.5037893156591
 20
126.9449377672587
 10
421.910039315659
 20
127.7886877672588
 10
425.9725393156591
 20
126.9136877672587
 10
429.347539315659
 20
127.7574377672587
 10
433.628789315659
 20
127.0074377672588
 10
437.253789315659
 20
127.7261877672587
 10
441.1287893156591
 20
127.0074377672588
 10
444.8475393156591
 20
127.5497577672588
  0
LINE
  5
180F
330
2
100
AcDbEntity
  8
CENTER
100
AcDbLine
 10
361.342565315659
 20
119.0033779652116
 30
0.0
 11
448.3913013156591
 21
119.0033779652116
 31
0.0
  0
LINE
  5
1810
330
2
100
AcDbEntity
  8
0
100
AcDbLine
 10
376.347539315659
 20
115.6033759652117
 30
0.0
 11
444.8475393156591
 21
115.6033759652117
 31
0.0
  0
LINE
  5
1811
330
2
100
AcDbEntity
  8
0
100
AcDbLine
 10
376.347539315659
 20
122.4033799652116
 30
0.0
 11
444.8475393156591
 21
122.4033799652116
 31
0.0
  0
LINE
  5
1813
330
2
100
AcDbEntity
  8
0
100
AcDbLine
 10
369.3475393156591
 20
127.1305995319645
 30
0.0
 11
369.3475393156591
 21
132.8033659652116
 31
0.0
  0
LINE
  5
1814
330
2
100
AcDbEntity
  8
0
100
AcDbLine
 10
370.347539315659
 20
127.2566499521327
 30
0.0
 11
370.347539315659
 21
133.5033779652116
 31
0.0
  0
LINE
  5
1815
330
2
100
AcDbEntity
  8
0
100
AcDbLine
 10
365.3475393156591
 20
127.0198886079667
 30
0.0
 11
365.3475393156591
 21
132.5033779652116
 31
0.0
  0
LINE
  5
1817
330
2
100
AcDbEntity
  8
0
100
AcDbLine
 10
363.847539315659
 20
114.7533779652117
 30
0.0
 11
376.347539315659
 21
114.7533779652117
 31
0.0
  0
LINE
  5
1819
330
2
100
AcDbEntity
  8
0
100
AcDbLine
 10
363.847539315659
 20
123.2533779652116
 30
0.0
 11
376.347539315659
 21
123.2533779652116
 31
0.0
  0
LINE
  5
181A
330
2
100
AcDbEntity
  8
CENTER
100
AcDbLine
 10
363.4079333156591
 20
129.0033779652116
 30
0.0
 11
371.392552315659
 21
129.0033779652116
 31
0.0
  0
LINE
  5
181C
330
2
100
AcDbEntity
  8
PHAS
  6
SEKKEI_P_S
100
AcDbLine
 10
355.5710803156591
 20
136.6294919652116
 30
0.0
 11
363.847539315659
 21
134.4118214564661
 31
0.0
  0
ARC
  5
181D
330
2
100
AcDbEntity
  8
PHAS
  6
SEKKEI_P_S
100
AcDbCircle
 10
356.3475393156591
 20
139.5272729652117
 30
0.0
 40
3.0
100
AcDbArc
 50
180.0
 51
255.0000000000051
  0
LINE
  5
181E
330
2
100
AcDbEntity
  8
0
100
AcDbLine
 10
376.347539315659
 20
137.0033779652116
 30
0.0
 11
363.847539315659
 21
137.0033779652116
 31
0.0
  0
LINE
  5
181F
330
2
100
AcDbEntity
  8
0
100
AcDbLine
 10
376.347539315659
 20
141.0033779652116
 30
0.0
 11
363.847539315659
 21
141.0033779652116
 31
0.0
  0
LINE
  5
1820
330
2
100
AcDbEntity
  8
0
100
AcDbLine
 10
365.3475393156591
 20
132.5033779652116
 30
0.0
 11
369.3475393156591
 21
132.5033779652116
 31
0.0
  0
LINE
  5
1821
330
2
100
AcDbEntity
  8
0
100
AcDbLine
 10
363.847539315659
 20
133.6735749652115
 30
0.0
 11
370.347539315659
 21
133.5033779652116
 31
0.0
  0
LINE
  5
1822
330
2
100
AcDbEntity
  8
0
100
AcDbLine
 10
369.3475393156591
 20
132.8033659652116
 30
0.0
 11
370.347539315659
 21
132.8033659652116
 31
0.0
  0
LINE
  5
1824
330
2
100
AcDbEntity
  8
0
100
AcDbLine
 10
404.347539315659
 20
112.0033779652116
 30
0.0
 11
444.8475393156591
 21
112.7103099652116
 31
0.0
  0
LINE
  5
1825
330
2
100
AcDbEntity
  8
HOJO
100
AcDbLine
 10
412.347539315659
 20
123.0033779652117
 30
0.0
 11
444.8475393156591
 21
123.0033779652117
 31
0.0
  0
LINE
  5
1826
330
2
100
AcDbEntity
  8
HOJO
100
AcDbLine
 10
412.347539315659
 20
115.0033779652116
 30
0.0
 11
444.8475393156591
 21
115.0033779652116
 31
0.0
  0
LINE
  5
1827
330
2
100
AcDbEntity
  8
HOJO
100
AcDbLine
 10
412.347539315659
 20
123.0033779652117
 30
0.0
 11
412.347539315659
 21
115.0033779652116
 31
0.0
  0
LINE
  5
1828
330
2
100
AcDbEntity
  8
HOJO
100
AcDbLine
 10
396.3475393156591
 20
123.0033779652117
 30
0.0
 11
396.3475393156591
 21
115.0033779652116
 31
0.0
  0
LINE
  5
182C
330
2
100
AcDbEntity
  8
0
100
AcDbLine
 10
411.312535315659
 20
137.5887659652115
 30
0.0
 11
444.8475393156591
 21
137.0033779652116
 31
0.0
  0
LINE
  5
182D
330
2
100
AcDbEntity
  8
0
100
AcDbLine
 10
413.6455433156591
 20
141.5479639652116
 30
0.0
 11
444.8475393156591
 21
141.0033779652116
 31
0.0
  0
LINE
  5
182E
330
2
100
AcDbEntity
  8
0
100
AcDbLine
 10
398.9187373156592
 20
138.1327729652116
 30
0.0
 11
396.585729315659
 21
142.0919709652116
 31
0.0
  0
ARC
  5
182F
330
2
100
AcDbEntity
  8
0
100
AcDbCircle
 10
397.347539315659
 20
139.3701689652116
 30
0.0
 40
2.0
100
AcDbArc
 50
271.0000000000017
 51
0.0
  0
ARC
  5
1830
330
2
100
AcDbEntity
  8
0
100
AcDbCircle
 10
395.014531315659
 20
143.3295799652116
 30
0.0
 40
2.0
100
AcDbArc
 50
271.0000000000017
 51
0.0
  0
LINE
  5
1831
330
2
100
AcDbEntity
  8
0
100
AcDbLine
 10
412.1093493156591
 20
142.3101709652115
 30
0.0
 11
409.776341315659
 21
138.3509729652116
 31
0.0
  0
ARC
  5
1832
330
2
100
AcDbEntity
  8
0
100
AcDbCircle
 10
411.3475393156591
 20
139.5883689652116
 30
0.0
 40
2.0
100
AcDbArc
 50
180.0
 51
268.9999999999981
  0
ARC
  5
1833
330
2
100
AcDbEntity
  8
0
100
AcDbCircle
 10
413.6805473156591
 20
143.5477809652114
 30
0.0
 40
2.0
100
AcDbArc
 50
180.0
 51
268.9999999999981
  0
LINE
  5
1834
330
2
100
AcDbEntity
  8
PHAS
  6
SEKKEI_P_S
100
AcDbLine
 10
453.123998315659
 20
136.6294919652116
 30
0.0
 11
444.8475393156591
 21
134.4118214564661
 31
0.0
  0
ARC
  5
1835
330
2
100
AcDbEntity
  8
PHAS
  6
SEKKEI_P_S
100
AcDbCircle
 10
452.3475393156591
 20
139.5272729652117
 30
0.0
 40
3.0
100
AcDbArc
 50
284.9999999999949
 51
0.0
  0
LINE
  5
1836
330
2
100
AcDbEntity
  8
HIDS
100
AcDbLine
 10
376.347539315659
 20
190.0033779652116
 30
0.0
 11
396.3475393156591
 21
190.0033779652116
 31
0.0
  0
LINE
  5
1837
330
2
100
AcDbEntity
  8
0
100
AcDbLine
 10
404.347539315659
 20
193.0033779652116
 30
0.0
 11
363.847539315659
 21
192.2964539652116
 31
0.0
  0
LINE
  5
1839
330
2
100
AcDbEntity
  8
HIDS
100
AcDbLine
 10
376.347539315659
 20
189.4033719652116
 30
0.0
 11
444.8475393156591
 21
189.4033719652116
 31
0.0
  0
LINE
  5
183A
330
2
100
AcDbEntity
  8
CENTER
100
AcDbLine
 10
361.342565315659
 20
186.0033779652116
 30
0.0
 11
448.3913013156591
 21
186.0033779652116
 31
0.0
  0
LINE
  5
183B
330
2
100
AcDbEntity
  8
0
100
AcDbLine
 10
395.0495353156591
 20
163.6769929652116
 30
0.0
 11
376.347539315659
 21
164.0033779652116
 31
0.0
  0
LINE
  5
183C
330
2
100
AcDbEntity
  8
HIDS
100
AcDbLine
 10
376.347539315659
 20
182.0033779652116
 30
0.0
 11
396.3475393156591
 21
182.0033779652116
 31
0.0
  0
LINE
  5
183D
330
2
100
AcDbEntity
  8
0
100
AcDbLine
 10
397.3825433156591
 20
167.6361899652116
 30
0.0
 11
376.347539315659
 21
168.0033779652116
 31
0.0
  0
LINE
  5
183E
330
2
100
AcDbEntity
  8
HIDS
100
AcDbLine
 10
376.347539315659
 20
182.6033839652117
 30
0.0
 11
444.8475393156591
 21
182.6033839652117
 31
0.0
  0
LINE
  5
1840
330
2
100
AcDbEntity
  8
PHAS
  6
SEKKEI_P_S
100
AcDbLine
 10
355.5710803156591
 20
168.3772639652115
 30
0.0
 11
363.847539315659
 21
170.5949344739571
 31
0.0
  0
ARC
  5
1841
330
2
100
AcDbEntity
  8
PHAS
  6
SEKKEI_P_S
100
AcDbCircle
 10
356.3475393156591
 20
165.4794829652117
 30
0.0
 40
3.0
100
AcDbArc
 50
104.9999999999948
 51
180.0
  0
LINE
  5
1842
330
2
100
AcDbEntity
  8
0
100
AcDbLine
 10
365.3475393156591
 20
179.5033779652117
 30
0.0
 11
365.3475393156591
 21
172.5033779652116
 31
0.0
  0
LINE
  5
1843
330
2
100
AcDbEntity
  8
0
100
AcDbLine
 10
370.347539315659
 20
180.5033779652116
 30
0.0
 11
370.347539315659
 21
171.5033779652116
 31
0.0
  0
LINE
  5
1844
330
2
100
AcDbEntity
  8
0
100
AcDbLine
 10
369.3475393156591
 20
179.8033659652116
 30
0.0
 11
369.3475393156591
 21
172.2033899652116
 31
0.0
  0
LINE
  5
1845
330
2
100
AcDbEntity
  8
0
100
AcDbLine
 10
376.347539315659
 20
164.0033779652116
 30
0.0
 11
363.847539315659
 21
164.0033779652116
 31
0.0
  0
LINE
  5
1846
330
2
100
AcDbEntity
  8
0
100
AcDbLine
 10
376.347539315659
 20
168.0033779652116
 30
0.0
 11
363.847539315659
 21
168.0033779652116
 31
0.0
  0
LINE
  5
1847
330
2
100
AcDbEntity
  8
0
100
AcDbLine
 10
363.847539315659
 20
171.3331809652115
 30
0.0
 11
370.347539315659
 21
171.5033779652116
 31
0.0
  0
LINE
  5
1848
330
2
100
AcDbEntity
  8
0
100
AcDbLine
 10
365.3475393156591
 20
172.5033779652116
 30
0.0
 11
369.3475393156591
 21
172.5033779652116
 31
0.0
  0
LINE
  5
1849
330
2
100
AcDbEntity
  8
HIDS
  6
SEKKEI_H
100
AcDbLine
 10
363.847539315659
 20
181.7533779652116
 30
0.0
 11
376.347539315659
 21
181.7533779652116
 31
0.0
  0
LINE
  5
184A
330
2
100
AcDbEntity
  8
0
100
AcDbLine
 10
365.3475393156591
 20
179.5033779652117
 30
0.0
 11
369.3475393156591
 21
179.5033779652117
 31
0.0
  0
LINE
  5
184B
330
2
100
AcDbEntity
  8
0
100
AcDbLine
 10
363.847539315659
 20
180.6735749652116
 30
0.0
 11
370.347539315659
 21
180.5033779652116
 31
0.0
  0
LINE
  5
184C
330
2
100
AcDbEntity
  8
CENTER
100
AcDbLine
 10
363.4079333156591
 20
176.0033779652116
 30
0.0
 11
371.392552315659
 21
176.0033779652116
 31
0.0
  0
LINE
  5
184D
330
2
100
AcDbEntity
  8
0
100
AcDbLine
 10
369.3475393156591
 20
179.8033659652116
 30
0.0
 11
370.347539315659
 21
179.8033659652116
 31
0.0
  0
LINE
  5
1850
330
2
100
AcDbEntity
  8
HIDS
  6
SEKKEI_H
100
AcDbLine
 10
363.847539315659
 20
190.2533779652116
 30
0.0
 11
376.347539315659
 21
190.2533779652116
 31
0.0
  0
LINE
  5
1853
330
2
100
AcDbEntity
  8
HIDS
100
AcDbLine
 10
412.347539315659
 20
190.0033779652116
 30
0.0
 11
444.8475393156591
 21
190.0033779652116
 31
0.0
  0
LINE
  5
1854
330
2
100
AcDbEntity
  8
0
100
AcDbLine
 10
413.6455433156591
 20
163.4587919652117
 30
0.0
 11
444.8475393156591
 21
164.0033779652116
 31
0.0
  0
LINE
  5
1855
330
2
100
AcDbEntity
  8
0
100
AcDbLine
 10
411.312535315659
 20
167.4179899652116
 30
0.0
 11
444.8475393156591
 21
168.0033779652116
 31
0.0
  0
LINE
  5
1856
330
2
100
AcDbEntity
  8
HIDS
100
AcDbLine
 10
412.347539315659
 20
182.0033779652116
 30
0.0
 11
444.8475393156591
 21
182.0033779652116
 31
0.0
  0
ARC
  5
1857
330
2
100
AcDbEntity
  8
0
100
AcDbCircle
 10
397.347539315659
 20
165.6365869652115
 30
0.0
 40
2.0
100
AcDbArc
 50
0.0
 51
88.99999999999822
  0
ARC
  5
1858
330
2
100
AcDbEntity
  8
0
100
AcDbCircle
 10
395.014531315659
 20
161.6771759652116
 30
0.0
 40
2.0
100
AcDbArc
 50
0.0
 51
88.99999999999822
  0
LINE
  5
1859
330
2
100
AcDbEntity
  8
0
100
AcDbLine
 10
396.585729315659
 20
162.9147849652115
 30
0.0
 11
398.9187373156592
 21
166.8739829652114
 31
0.0
  0
ARC
  5
185A
330
2
100
AcDbEntity
  8
0
100
AcDbCircle
 10
411.3475393156591
 20
165.4183869652116
 30
0.0
 40
2.0
100
AcDbArc
 50
91.00000000000177
 51
180.0
  0
LINE
  5
185B
330
2
100
AcDbEntity
  8
0
100
AcDbLine
 10
412.1093493156591
 20
162.6965849652115
 30
0.0
 11
409.776341315659
 21
166.6557829652116
 31
0.0
  0
ARC
  5
185C
330
2
100
AcDbEntity
  8
0
100
AcDbCircle
 10
413.6805473156591
 20
161.4589749652116
 30
0.0
 40
2.0
100
AcDbArc
 50
91.00000000000177
 51
180.0
  0
LINE
  5
185D
330
2
100
AcDbEntity
  8
HIDS
100
AcDbLine
 10
396.3475393156591
 20
190.0033779652116
 30
0.0
 11
396.3475393156591
 21
182.0033779652116
 31
0.0
  0
LINE
  5
185E
330
2
100
AcDbEntity
  8
HIDS
100
AcDbLine
 10
412.347539315659
 20
190.0033779652116
 30
0.0
 11
412.347539315659
 21
182.0033779652116
 31
0.0
  0
ARC
  5
185F
330
2
100
AcDbEntity
  8
PHAS
  6
SEKKEI_P_S
100
AcDbCircle
 10
452.3475393156591
 20
165.4794829652117
 30
0.0
 40
3.0
100
AcDbArc
 50
0.0
 51
75.00000000000511
  0
LINE
  5
1860
330
2
100
AcDbEntity
  8
PHAS
  6
SEKKEI_P_S
100
AcDbLine
 10
453.123998315659
 20
168.3772639652115
 30
0.0
 11
444.8475393156591
 21
170.5949344739571
 31
0.0
  0
LINE
  5
1863
330
2
100
AcDbEntity
  8
0
100
AcDbLine
 10
404.347539315659
 20
193.0033779652116
 30
0.0
 11
444.8475393156591
 21
192.2964539652116
 31
0.0
  0
LINE
  5
2197
330
2
100
AcDbEntity
  8
CENTER
100
AcDbLine
 10
374.3039323344506
 20
213.5033759652116
 30
0.0
 11
434.3911462968676
 21
213.5033759652116
 31
0.0
  0
LINE
  5
2199
330
2
100
AcDbEntity
  8
0
100
AcDbLine
 10
379.3475393156591
 20
222.0033759652116
 30
0.0
 11
421.847524315659
 21
222.0033759652116
 31
0.0
  0
LINE
  5
219A
330
2
100
AcDbEntity
  8
0
100
AcDbLine
 10
380.347539315659
 20
223.0033759652116
 30
0.0
 11
424.509630499633
 21
223.0033759652116
 31
0.0
  0
LINE
  5
219B
330
2
100
AcDbEntity
  8
0
100
AcDbLine
 10
379.3475393156591
 20
194.0033779652116
 30
0.0
 11
429.347524315659
 21
194.0033779652116
 31
0.0
  0
LINE
  5
219C
330
2
100
AcDbEntity
  8
0
100
AcDbLine
 10
379.3475393156591
 20
204.0033779652115
 30
0.0
 11
429.347524315659
 21
204.0033779652115
 31
0.0
  0
LINE
  5
21C4
330
2
100
AcDbEntity
  8
CENTER
100
AcDbLine
 10
85.8553717572993
 20
213.5033759652116
 30
0.0
 11
147.7514307210373
 21
213.5033759652116
 31
0.0
  0
LINE
  5
21C5
330
2
100
AcDbEntity
  8
0
100
AcDbLine
 10
101.2991211858702
 20
222.0033759652116
 30
0.0
 11
143.7991347572993
 21
222.0033759652116
 31
0.0
  0
LINE
  5
21C6
330
2
100
AcDbEntity
  8
0
100
AcDbLine
 10
93.79912075729931
 20
194.0033779652116
 30
0.0
 11
143.7991277572993
 21
194.0033779652116
 31
0.0
  0
LINE
  5
21C7
330
2
100
AcDbEntity
  8
0
100
AcDbLine
 10
91.79912075729928
 20
204.0033779652115
 30
0.0
 11
143.7991277572993
 21
204.0033779652115
 31
0.0
  0
LINE
  5
21C8
330
2
100
AcDbEntity
  8
0
100
AcDbLine
 10
95.2991207572993
 20
192.0033779652117
 30
0.0
 11
141.7991277572993
 21
192.0033779652117
 31
0.0
  0
LINE
  5
21C9
330
2
100
AcDbEntity
  8
0
100
AcDbLine
 10
98.63703657332486
 20
223.0033759652116
 30
0.0
 11
142.7991277572993
 21
223.0033759652116
 31
0.0
  0
ARC
  5
21CA
330
2
100
AcDbEntity
  8
0
100
AcDbCircle
 10
92.79913575729931
 20
220.0033759652116
 30
0.0
 40
1.0
100
AcDbArc
 50
90.0
 51
180.0
  0
LINE
  5
21CB
330
2
100
AcDbEntity
  8
0
100
AcDbLine
 10
88.2991357572993
 20
217.5033759652114
 30
0.0
 11
91.79913575729932
 21
219.0033759652115
 31
0.0
  0
LINE
  5
21CC
330
2
100
AcDbEntity
  8
0
100
AcDbLine
 10
91.79913575729932
 20
220.0033759652116
 30
0.0
 11
91.79912075729928
 21
204.0033779652115
 31
0.0
  0
LINE
  5
21CD
330
2
100
AcDbEntity
  8
0
100
AcDbLine
 10
88.29912075729929
 20
209.5033759652116
 30
0.0
 11
91.79912075729928
 21
208.0033759652116
 31
0.0
  0
LINE
  5
21CE
330
2
100
AcDbEntity
  8
0
100
AcDbLine
 10
88.2991357572993
 20
217.5033759652114
 30
0.0
 11
88.2991357572993
 21
209.5033759652116
 31
0.0
  0
LINE
  5
21CF
330
2
100
AcDbEntity
  8
0
100
AcDbLine
 10
93.79912075729931
 20
222.0033759652117
 30
0.0
 11
93.79912075729931
 21
194.0033779652116
 31
0.0
  0
LINE
  5
21D0
330
2
100
AcDbEntity
  8
CENTER
100
AcDbLine
 10
118.7991277572992
 20
187.3096769652115
 30
0.0
 11
118.7991277572992
 21
228.3908759652116
 31
0.0
  0
LINE
  5
21D2
330
2
100
AcDbEntity
  8
0
100
AcDbLine
 10
93.79912075729931
 20
194.0033779652116
 30
0.0
 11
95.79912075729929
 21
192.0033779652117
 31
0.0
  0
LINE
  5
21D3
330
2
100
AcDbEntity
  8
0
100
AcDbLine
 10
95.2991207572993
 20
192.0033779652117
 30
0.0
 11
95.2991207572993
 21
190.5033779652115
 31
0.0
  0
LINE
  5
21D4
330
2
100
AcDbEntity
  8
0
100
AcDbLine
 10
101.2991211858702
 20
220.5033759652116
 30
0.0
 11
93.79912118587029
 21
220.5033759652116
 31
0.0
  0
LINE
  5
21D5
330
2
100
AcDbEntity
  8
0
100
AcDbLine
 10
97.58662775775446
 20
221.5863759652115
 30
0.0
 11
97.01162775684437
 21
221.5863759652115
 31
0.0
  0
ARC
  5
21D6
330
2
100
AcDbEntity
  8
0
100
AcDbCircle
 10
97.29912775729941
 20
214.1033759652116
 30
0.0
 40
9.0
100
AcDbArc
 50
74.11914999171973
 51
105.8808500082802
  0
LINE
  5
21D7
330
2
100
AcDbEntity
  8
0
100
AcDbLine
 10
94.79912075729931
 20
223.0033759652116
 30
0.0
 11
95.96121894127398
 21
223.0033759652116
 31
0.0
  0
LINE
  5
21D8
330
2
100
AcDbEntity
  8
0
100
AcDbLine
 10
92.7991207572993
 20
221.0033759652116
 30
0.0
 11
93.79912075729931
 21
221.0033759652116
 31
0.0
  0
LINE
  5
21D9
330
2
100
AcDbEntity
  8
0
100
AcDbLine
 10
93.79912075729931
 20
222.0033759652117
 30
0.0
 11
94.79912075729931
 21
223.0033759652116
 31
0.0
  0
LINE
  5
21DA
330
2
100
AcDbEntity
  8
0
100
AcDbLine
 10
94.79912118587026
 20
223.0033759652116
 30
0.0
 11
93.79912075729929
 21
222.0033759652116
 31
0.0
  0
ARC
  5
21DB
330
2
100
AcDbEntity
  8
0
100
AcDbCircle
 10
95.19211700370636
 20
221.5094886894579
 30
0.0
 40
1.3
100
AcDbArc
 50
105.8808500082802
 51
175.0
  0
LINE
  5
21DC
330
2
100
AcDbEntity
  8
0
100
AcDbLine
 10
93.79912775729939
 20
220.5033759652116
 30
0.0
 11
93.89706389618721
 21
221.6227911550298
 31
0.0
  0
SPLINE
  5
21DD
330
2
100
AcDbEntity
  8
0
100
AcDbSpline
210
0.0
220
0.0
230
1.0
 70
     8
 71
     3
 72
    11
 73
     7
 74
     0
 42
0.0000000001
 43
0.0000000001
 40
0.0
 40
0.0
 40
0.0
 40
0.0
 40
0.4601364636755307
 40
1.04988694485363
 40
1.713742833862792
 40
2.320347933405154
 40
2.320347933405154
 40
2.320347933405154
 40
2.320347933405178
 10
97.01162775684437
 20
221.5863759652115
 30
0.0
 10
96.98921009973652
 20
221.7413994048913
 30
0.0
 10
96.93806004450323
 20
222.095114222809
 30
0.0
 10
96.50217488296966
 20
222.5198418944106
 30
0.0
 10
95.89712416796221
 20
222.7390290743764
 30
0.0
 10
95.4719395437864
 20
222.6700377747659
 30
0.0
 10
95.26938793413528
 20
222.6558175025892
 30
0.0
  0
LINE
  5
21DE
330
2
100
AcDbEntity
  8
0
100
AcDbLine
 10
95.26938793413528
 20
222.6558175025892
 30
0.0
 11
95.24912775729941
 21
222.8667942480507
 31
0.0
  0
LINE
  5
21DF
330
2
100
AcDbEntity
  8
0
100
AcDbLine
 10
101.2991211858702
 20
222.5033759652116
 30
0.0
 11
100.2441051469195
 21
222.5033759652116
 31
0.0
  0
LINE
  5
21E0
330
2
100
AcDbEntity
  8
0
100
AcDbLine
 10
101.2991211858702
 20
220.5033759652116
 30
0.0
 11
101.2991211858702
 21
222.5033759652116
 31
0.0
  0
LINE
  5
21E1
330
2
100
AcDbEntity
  8
0
100
AcDbLine
 10
101.7991211858702
 20
223.0033759652116
 30
0.0
 11
101.2991211858702
 21
222.5033759652116
 31
0.0
  0
SPLINE
  5
21E2
330
2
100
AcDbEntity
  8
0
100
AcDbSpline
210
0.0
220
0.0
230
1.0
 70
     8
 71
     3
 72
    11
 73
     7
 74
     0
 42
0.0000000001
 43
0.0000000001
 40
0.0
 40
0.0
 40
0.0
 40
0.0
 40
0.4601364636755307
 40
1.04988694485363
 40
1.713742833862792
 40
2.320347933405154
 40
2.320347933405154
 40
2.320347933405154
 40
2.320347933405178
 10
97.58662775775446
 20
221.5863759652115
 30
0.0
 10
97.6090454148623
 20
221.7413994048913
 30
0.0
 10
97.66019547009555
 20
222.095114222809
 30
0.0
 10
98.09608063162917
 20
222.5198418944106
 30
0.0
 10
98.70113134663661
 20
222.7390290743764
 30
0.0
 10
99.12631597081242
 20
222.6700377747659
 30
0.0
 10
99.3288675804635
 20
222.6558175025892
 30
0.0
  0
LINE
  5
21E3
330
2
100
AcDbEntity
  8
0
100
AcDbLine
 10
99.3288675804635
 20
222.6558175025892
 30
0.0
 11
99.34912775729941
 21
222.8667942480507
 31
0.0
  0
ARC
  5
21E4
330
2
100
AcDbEntity
  8
0
100
AcDbCircle
 10
99.40613851089224
 20
221.5094886894579
 30
0.0
 40
1.3
100
AcDbArc
 50
4.999999999999795
 51
74.11914999171973
  0
LINE
  5
21E5
330
2
100
AcDbEntity
  8
0
100
AcDbLine
 10
100.7991277572992
 20
220.5033759652116
 30
0.0
 11
100.7011916184114
 21
221.6227911550298
 31
0.0
  0
LINE
  5
21E6
330
2
100
AcDbEntity
  8
0
100
AcDbLine
 10
143.7991277572993
 20
222.0033759652116
 30
0.0
 11
143.7991277572993
 21
194.0033779652116
 31
0.0
  0
LINE
  5
21E7
330
2
100
AcDbEntity
  8
0
100
AcDbLine
 10
141.7991277572993
 20
192.0033779652117
 30
0.0
 11
143.7991277572993
 21
194.0033779652116
 31
0.0
  0
LINE
  5
21E8
330
2
100
AcDbEntity
  8
0
100
AcDbLine
 10
141.2991277572993
 20
192.0033779652117
 30
0.0
 11
141.2991277572993
 21
190.5033779652115
 31
0.0
  0
LINE
  5
21E9
330
2
100
AcDbEntity
  8
0
100
AcDbLine
 10
142.7991347572993
 20
223.0033759652116
 30
0.0
 11
143.7991347572993
 21
222.0033759652116
 31
0.0
  0
LINE
  5
21EA
330
2
100
AcDbEntity
  8
0
100
AcDbLine
 10
379.3475393156591
 20
222.0033759652116
 30
0.0
 11
379.3475393156591
 21
194.0033779652116
 31
0.0
  0
LINE
  5
21EB
330
2
100
AcDbEntity
  8
0
100
AcDbLine
 10
379.3475393156591
 20
194.0033779652116
 30
0.0
 11
380.7592705091836
 21
192.591646771687
 31
0.0
  0
LINE
  5
21ED
330
2
100
AcDbEntity
  8
0
100
AcDbLine
 10
380.347539315659
 20
223.0033759652116
 30
0.0
 11
379.3475393156591
 21
222.0033759652116
 31
0.0
  0
LINE
  5
21F1
330
2
100
AcDbEntity
  8
0
100
AcDbLine
 10
429.347524315659
 20
222.0033759652116
 30
0.0
 11
429.347524315659
 21
194.0033779652116
 31
0.0
  0
LINE
  5
21F2
330
2
100
AcDbEntity
  8
0
100
AcDbLine
 10
427.9357933794663
 20
192.591647029019
 30
0.0
 11
429.347524315659
 21
194.0033779652116
 31
0.0
  0
LINE
  5
21F4
330
2
100
AcDbEntity
  8
0
100
AcDbLine
 10
421.847524315659
 20
220.5033759652116
 30
0.0
 11
429.347524315659
 21
220.5033759652117
 31
0.0
  0
SPLINE
  5
21F5
330
2
100
AcDbEntity
  8
0
100
AcDbSpline
210
0.0
220
0.0
230
1.0
 70
     8
 71
     3
 72
    11
 73
     7
 74
     0
 42
0.0000000001
 43
0.0000000001
 40
0.0
 40
0.0
 40
0.0
 40
0.0
 40
0.4601364636755307
 40
1.04988694485363
 40
1.713742833862792
 40
2.320347933405154
 40
2.320347933405154
 40
2.320347933405154
 40
2.320347933405178
 10
425.560039315204
 20
221.5863759652116
 30
0.0
 10
425.5376216580961
 20
221.7413994048913
 30
0.0
 10
425.4864716028628
 20
222.095114222809
 30
0.0
 10
425.0505864413293
 20
222.5198418944107
 30
0.0
 10
424.4455357263218
 20
222.7390290743766
 30
0.0
 10
424.0203511021461
 20
222.6700377747659
 30
0.0
 10
423.8177994924949
 20
222.6558175025892
 30
0.0
  0
ARC
  5
21F6
330
2
100
AcDbEntity
  8
0
100
AcDbCircle
 10
425.8475393156591
 20
214.1033759652116
 30
0.0
 40
9.0
100
AcDbArc
 50
74.11914999171973
 51
105.8808500082802
  0
LINE
  5
21F7
330
2
100
AcDbEntity
  8
0
100
AcDbLine
 10
421.847524315659
 20
222.5033759652116
 30
0.0
 11
422.9025619260387
 21
222.5033759652116
 31
0.0
  0
LINE
  5
21F8
330
2
100
AcDbEntity
  8
0
100
AcDbLine
 10
421.847524315659
 20
220.5033759652116
 30
0.0
 11
421.847524315659
 21
222.5033759652117
 31
0.0
  0
LINE
  5
21F9
330
2
100
AcDbEntity
  8
0
100
AcDbLine
 10
421.347524315659
 20
223.0033759652116
 30
0.0
 11
421.847524315659
 21
222.5033759652116
 31
0.0
  0
ARC
  5
21FA
330
2
100
AcDbEntity
  8
0
100
AcDbCircle
 10
423.7405285620661
 20
221.5094886894579
 30
0.0
 40
1.3
100
AcDbArc
 50
105.8808500082802
 51
175.0
  0
LINE
  5
21FB
330
2
100
AcDbEntity
  8
0
100
AcDbLine
 10
422.3475393156591
 20
220.5033759652117
 30
0.0
 11
422.4454754545469
 21
221.6227911550299
 31
0.0
  0
LINE
  5
21FC
330
2
100
AcDbEntity
  8
0
100
AcDbLine
 10
423.8177994924949
 20
222.6558175025892
 30
0.0
 11
423.7975393156591
 21
222.8667942480508
 31
0.0
  0
LINE
  5
21FD
330
2
100
AcDbEntity
  8
0
100
AcDbLine
 10
428.3475243156591
 20
223.0033759652116
 30
0.0
 11
429.347524315659
 21
222.0033759652116
 31
0.0
  0
SPLINE
  5
21FE
330
2
100
AcDbEntity
  8
0
100
AcDbSpline
210
0.0
220
0.0
230
1.0
 70
     8
 71
     3
 72
    11
 73
     7
 74
     0
 42
0.0000000001
 43
0.0000000001
 40
0.0
 40
0.0
 40
0.0
 40
0.0
 40
0.4601364636755307
 40
1.04988694485363
 40
1.713742833862792
 40
2.320347933405154
 40
2.320347933405154
 40
2.320347933405154
 40
2.320347933405178
 10
426.1350393161142
 20
221.5863759652116
 30
0.0
 10
426.157456973222
 20
221.7413994048913
 30
0.0
 10
426.2086070284552
 20
222.095114222809
 30
0.0
 10
426.6444921899887
 20
222.5198418944107
 30
0.0
 10
427.2495429049963
 20
222.7390290743766
 30
0.0
 10
427.6747275291722
 20
222.6700377747659
 30
0.0
 10
427.8772791388233
 20
222.6558175025892
 30
0.0
  0
LINE
  5
21FF
330
2
100
AcDbEntity
  8
0
100
AcDbLine
 10
426.1350393161142
 20
221.5863759652116
 30
0.0
 11
425.560039315204
 21
221.5863759652116
 31
0.0
  0
LINE
  5
2200
330
2
100
AcDbEntity
  8
0
100
AcDbLine
 10
427.8772791388233
 20
222.6558175025892
 30
0.0
 11
427.8975393156591
 21
222.8667942480508
 31
0.0
  0
ARC
  5
2201
330
2
100
AcDbEntity
  8
0
100
AcDbCircle
 10
427.954550069252
 20
221.5094886894579
 30
0.0
 40
1.3
100
AcDbArc
 50
4.999999999999795
 51
74.11914999171973
  0
LINE
  5
2202
330
2
100
AcDbEntity
  8
0
100
AcDbLine
 10
429.347539315659
 20
220.5033759652117
 30
0.0
 11
429.2496031767711
 21
221.6227911550299
 31
0.0
  0
LINE
  5
2203
330
2
100
AcDbEntity
  8
0
100
AcDbLine
 10
427.1854481316853
 20
223.0033759652116
 30
0.0
 11
428.3475243156591
 21
223.0033759652116
 31
0.0
  0
LINE
  5
222C
330
2
100
AcDbEntity
  8
0
100
AcDbLine
 10
767.8376967495187
 20
349.9956899168644
 30
0.0
 11
727.7377977495189
 21
349.9956899168644
 31
0.0
  0
LINE
  5
222D
330
2
100
AcDbEntity
  8
0
100
AcDbLine
 10
768.2376977495187
 20
348.5956809168644
 30
0.0
 11
722.2377977495189
 21
348.5956809168644
 31
0.0
  0
LINE
  5
222E
330
2
100
AcDbEntity
  8
0
100
AcDbLine
 10
768.2376977495187
 20
398.5956809168644
 30
0.0
 11
722.2377977495189
 21
398.5956809168644
 31
0.0
  0
LINE
  5
222F
330
2
100
AcDbEntity
  8
0
100
AcDbLine
 10
722.6375927495187
 20
397.1956869168643
 30
0.0
 11
762.7376977495186
 21
397.1956869168643
 31
0.0
  0
LINE
  5
2230
330
2
100
AcDbEntity
  8
0
100
AcDbLine
 10
721.6375927495187
 20
396.1956869168643
 30
0.0
 11
721.6375927495187
 21
356.0956809168644
 31
0.0
  0
LINE
  5
2231
330
2
100
AcDbEntity
  8
CENTER
100
AcDbLine
 10
745.2376907495187
 20
343.2064549727566
 30
0.0
 11
745.2376907495187
 21
404.3456809168644
 31
0.0
  0
LINE
  5
2232
330
2
100
AcDbEntity
  8
0
100
AcDbLine
 10
720.2377977495189
 20
350.5956809168644
 30
0.0
 11
720.2377977495189
 21
396.5956809168644
 31
0.0
  0
ARC
  5
2233
330
2
100
AcDbEntity
  8
0
100
AcDbCircle
 10
723.7375987495187
 20
352.0956809168644
 30
0.0
 40
4.0
100
AcDbArc
 50
0.0
 51
90.0
  0
LINE
  5
2234
330
2
100
AcDbEntity
  8
0
100
AcDbLine
 10
723.7377977495189
 20
356.0956809168644
 30
0.0
 11
720.2377977495189
 21
356.0956809168644
 31
0.0
  0
ARC
  5
2235
330
2
100
AcDbEntity
  8
0
100
AcDbCircle
 10
721.7078987495185
 20
354.1253809168644
 30
0.0
 40
1.742199999999999
100
AcDbArc
 50
269.9986903345035
 51
0.0013096654997424
  0
ARC
  5
2236
330
2
100
AcDbEntity
  8
0
100
AcDbCircle
 10
721.7078987495185
 20
350.0659809168644
 30
0.0
 40
1.742199999999999
100
AcDbArc
 50
359.9986903345002
 51
90.00130966549649
  0
CIRCLE
  5
2237
330
2
100
AcDbEntity
  8
0
100
AcDbCircle
 10
723.7375987495187
 20
352.0956809168644
 30
0.0
 40
3.500000000000028
  0
LINE
  5
2238
330
2
100
AcDbEntity
  8
0
100
AcDbLine
 10
720.2377977495189
 20
350.5956809168644
 30
0.0
 11
722.2377977495189
 21
348.5956809168644
 31
0.0
  0
LINE
  5
2239
330
2
100
AcDbEntity
  8
0
100
AcDbLine
 10
722.2377977495189
 20
348.5956809168644
 30
0.0
 11
720.2377977495189
 21
350.5956809168644
 31
0.0
  0
ARC
  5
223A
330
2
100
AcDbEntity
  8
0
100
AcDbCircle
 10
723.7375987495187
 20
352.0956809168644
 30
0.0
 40
2.049999999999998
100
AcDbArc
 50
180.0
 51
188.0619600839818
  0
ARC
  5
223B
330
2
100
AcDbEntity
  8
0
100
AcDbCircle
 10
723.7375987495187
 20
352.0956809168644
 30
0.0
 40
2.049999999999998
100
AcDbArc
 50
171.9380399160179
 51
180.0
  0
ARC
  5
223C
330
2
100
AcDbEntity
  8
0
100
AcDbCircle
 10
723.7375987495187
 20
352.0956809168644
 30
0.0
 40
2.049999999999998
100
AcDbArc
 50
81.93803991601837
 51
90.0
  0
ARC
  5
223D
330
2
100
AcDbEntity
  8
0
100
AcDbCircle
 10
723.7375987495187
 20
352.0956809168644
 30
0.0
 40
2.049999999999998
100
AcDbArc
 50
90.0
 51
98.06196008398165
  0
ARC
  5
223E
330
2
100
AcDbEntity
  8
0
100
AcDbCircle
 10
723.7375987495187
 20
352.0956809168644
 30
0.0
 40
2.049999999999998
100
AcDbArc
 50
351.9380399160181
 51
0.0
  0
ARC
  5
223F
330
2
100
AcDbEntity
  8
0
100
AcDbCircle
 10
723.7375987495187
 20
352.0956809168644
 30
0.0
 40
2.049999999999998
100
AcDbArc
 50
270.0
 51
278.0619600839816
  0
ARC
  5
2240
330
2
100
AcDbEntity
  8
0
100
AcDbCircle
 10
723.7375987495187
 20
352.0956809168644
 30
0.0
 40
2.049999999999998
100
AcDbArc
 50
261.9380399160184
 51
270.0
  0
ARC
  5
2241
330
2
100
AcDbEntity
  8
0
100
AcDbCircle
 10
723.7375987495187
 20
352.0956809168644
 30
0.0
 40
2.049999999999998
100
AcDbArc
 50
0.0
 51
8.061960083981905
  0
ARC
  5
2242
330
2
100
AcDbEntity
  8
0
100
AcDbCircle
 10
725.7672987495188
 20
354.1253809168644
 30
0.0
 40
1.742199999999999
100
AcDbArc
 50
179.9986903345001
 51
270.0013096654964
  0
ARC
  5
2243
330
2
100
AcDbEntity
  8
0
100
AcDbCircle
 10
725.7672987495188
 20
350.0659809168644
 30
0.0
 40
1.742199999999999
100
AcDbArc
 50
89.99869033450025
 51
180.0013096654996
  0
LINE
  5
2244
330
2
100
AcDbEntity
  8
0
100
AcDbLine
 10
727.7377977495189
 20
352.0956809168644
 30
0.0
 11
727.7377977495189
 21
348.5956809168644
 31
0.0
  0
LINE
  5
2245
330
2
100
AcDbEntity
  8
0
100
AcDbLine
 10
722.6375927495187
 20
397.1956869168643
 30
0.0
 11
721.6375927495187
 21
396.1956869168643
 31
0.0
  0
LINE
  5
2246
330
2
100
AcDbEntity
  8
0
100
AcDbLine
 10
720.2377977495189
 20
396.5956809168644
 30
0.0
 11
722.2377977495189
 21
398.5956809168644
 31
0.0
  0
LINE
  5
2247
330
2
100
AcDbEntity
  8
0
100
AcDbLine
 10
720.2377977495189
 20
396.5956809168644
 30
0.0
 11
722.2377977495189
 21
398.5956809168644
 31
0.0
  0
LINE
  5
2248
330
2
100
AcDbEntity
  8
0
100
AcDbLine
 10
720.2375987495187
 20
396.5956809168644
 30
0.0
 11
722.2377977495189
 21
398.5956809168644
 31
0.0
  0
LINE
  5
2249
330
2
100
AcDbEntity
  8
0
100
AcDbLine
 10
768.8377037495187
 20
350.9956899168644
 30
0.0
 11
768.8376967495187
 21
391.0956809168644
 31
0.0
  0
LINE
  5
224A
330
2
100
AcDbEntity
  8
0
100
AcDbLine
 10
770.2376977495187
 20
350.5956809168644
 30
0.0
 11
770.2376977495187
 21
396.5956809168644
 31
0.0
  0
LINE
  5
224B
330
2
100
AcDbEntity
  8
0
100
AcDbLine
 10
770.2376977495187
 20
350.5956809168644
 30
0.0
 11
768.2376977495187
 21
348.5956809168644
 31
0.0
  0
LINE
  5
224C
330
2
100
AcDbEntity
  8
0
100
AcDbLine
 10
768.8377037495187
 20
350.9956899168644
 30
0.0
 11
767.8376967495187
 21
349.9956899168644
 31
0.0
  0
LINE
  5
224D
330
2
100
AcDbEntity
  8
0
100
AcDbLine
 10
775.7376977495186
 20
371.5956809168644
 30
0.0
 11
772.2376977495187
 21
368.0956809168644
 31
0.0
  0
LINE
  5
224E
330
2
100
AcDbEntity
  8
0
100
AcDbLine
 10
772.2376977495187
 20
379.0956809168644
 30
0.0
 11
775.7376977495186
 21
375.5956809168644
 31
0.0
  0
LINE
  5
224F
330
2
100
AcDbEntity
  8
0
100
AcDbLine
 10
772.2376977495187
 20
380.0956809168644
 30
0.0
 11
772.2376977495187
 21
367.0956809168643
 31
0.0
  0
LINE
  5
2250
330
2
100
AcDbEntity
  8
0
100
AcDbLine
 10
771.2376977495186
 20
366.0956809168644
 30
0.0
 11
770.2376977495187
 21
366.0956809168644
 31
0.0
  0
ARC
  5
2251
330
2
100
AcDbEntity
  8
0
100
AcDbCircle
 10
771.2376827495187
 20
367.0956809168643
 30
0.0
 40
1.0
100
AcDbArc
 50
270.0
 51
0.0
  0
LINE
  5
2252
330
2
100
AcDbEntity
  8
0
100
AcDbLine
 10
771.2376977495186
 20
381.0956809168644
 30
0.0
 11
770.2376977495187
 21
381.0956809168644
 31
0.0
  0
ARC
  5
2253
330
2
100
AcDbEntity
  8
0
100
AcDbCircle
 10
771.2376977495189
 20
380.0956809168644
 30
0.0
 40
1.0
100
AcDbArc
 50
0.0
 51
90.0
  0
LINE
  5
2254
330
2
100
AcDbEntity
  8
0
100
AcDbLine
 10
775.7376977495186
 20
371.5956809168644
 30
0.0
 11
775.7376977495186
 21
375.5956809168644
 31
0.0
  0
ARC
  5
2255
330
2
100
AcDbEntity
  8
0
100
AcDbCircle
 10
764.7079677495187
 20
397.1253809168644
 30
0.0
 40
1.742199999999999
100
AcDbArc
 50
269.9986903345035
 51
0.0013096654997424
  0
ARC
  5
2256
330
2
100
AcDbEntity
  8
0
100
AcDbCircle
 10
764.7079677495187
 20
393.0659809168644
 30
0.0
 40
1.742199999999999
100
AcDbArc
 50
359.9986903345002
 51
90.00130966549649
  0
ARC
  5
2257
330
2
100
AcDbEntity
  8
0
100
AcDbCircle
 10
766.7376677495187
 20
395.0956809168642
 30
0.0
 40
4.0
100
AcDbArc
 50
180.0
 51
270.0
  0
CIRCLE
  5
2258
330
2
100
AcDbEntity
  8
0
100
AcDbCircle
 10
766.7376677495187
 20
395.0956809168642
 30
0.0
 40
3.500000000000028
  0
LINE
  5
2259
330
2
100
AcDbEntity
  8
0
100
AcDbLine
 10
762.7376977495186
 20
395.0956809168644
 30
0.0
 11
762.7376977495186
 21
398.5954819168643
 31
0.0
  0
ARC
  5
225A
330
2
100
AcDbEntity
  8
0
100
AcDbCircle
 10
766.7376677495187
 20
395.0956809168642
 30
0.0
 40
2.049999999999998
100
AcDbArc
 50
180.0
 51
188.0619600839818
  0
ARC
  5
225B
330
2
100
AcDbEntity
  8
0
100
AcDbCircle
 10
766.7376677495187
 20
395.0956809168642
 30
0.0
 40
2.049999999999998
100
AcDbArc
 50
171.9380399160179
 51
180.0
  0
ARC
  5
225C
330
2
100
AcDbEntity
  8
0
100
AcDbCircle
 10
768.7673677495187
 20
397.1253809168644
 30
0.0
 40
1.742199999999999
100
AcDbArc
 50
179.9986903345001
 51
270.0013096654964
  0
LINE
  5
225D
330
2
100
AcDbEntity
  8
0
100
AcDbLine
 10
766.7376677495187
 20
391.0956809168644
 30
0.0
 11
770.2376677495188
 21
391.0956809168644
 31
0.0
  0
ARC
  5
225E
330
2
100
AcDbEntity
  8
0
100
AcDbCircle
 10
766.7376677495187
 20
395.0956809168642
 30
0.0
 40
2.049999999999998
100
AcDbArc
 50
351.9380399160181
 51
0.0
  0
ARC
  5
225F
330
2
100
AcDbEntity
  8
0
100
AcDbCircle
 10
766.7376677495187
 20
395.0956809168642
 30
0.0
 40
2.049999999999998
100
AcDbArc
 50
270.0
 51
278.0619600839816
  0
ARC
  5
2260
330
2
100
AcDbEntity
  8
0
100
AcDbCircle
 10
766.7376677495187
 20
395.0956809168642
 30
0.0
 40
2.049999999999998
100
AcDbArc
 50
261.9380399160184
 51
270.0
  0
ARC
  5
2261
330
2
100
AcDbEntity
  8
0
100
AcDbCircle
 10
766.7376677495187
 20
395.0956809168642
 30
0.0
 40
2.049999999999998
100
AcDbArc
 50
0.0
 51
8.061960083981905
  0
ARC
  5
2262
330
2
100
AcDbEntity
  8
0
100
AcDbCircle
 10
768.7673677495187
 20
393.0659809168644
 30
0.0
 40
1.742199999999999
100
AcDbArc
 50
89.99869033450025
 51
180.0013096654996
  0
LINE
  5
2263
330
2
100
AcDbEntity
  8
0
100
AcDbLine
 10
770.2376977495187
 20
396.5956809168644
 30
0.0
 11
768.2376977495187
 21
398.5956809168644
 31
0.0
  0
LINE
  5
2264
330
2
100
AcDbEntity
  8
0
100
AcDbLine
 10
770.2376977495187
 20
396.5956809168644
 30
0.0
 11
768.2376977495187
 21
398.5956809168644
 31
0.0
  0
ARC
  5
2265
330
2
100
AcDbEntity
  8
0
100
AcDbCircle
 10
766.7376677495187
 20
395.0956809168642
 30
0.0
 40
2.049999999999998
100
AcDbArc
 50
81.93803991601837
 51
90.0
  0
ARC
  5
2266
330
2
100
AcDbEntity
  8
0
100
AcDbCircle
 10
766.7376677495187
 20
395.0956809168642
 30
0.0
 40
2.049999999999998
100
AcDbArc
 50
90.0
 51
98.06196008398165
  0
LINE
  5
2317
330
2
100
AcDbEntity
  8
CENTER
100
AcDbLine
 10
745.2376907495187
 20
187.3096769652115
 30
0.0
 11
745.2376907495187
 21
228.3908759652116
 31
0.0
  0
LINE
  5
2319
330
2
100
AcDbEntity
  8
0
100
AcDbLine
 10
725.0755995655443
 20
223.0033759652116
 30
0.0
 11
769.2376907495187
 21
223.0033759652116
 31
0.0
  0
LINE
  5
231A
330
2
100
AcDbEntity
  8
0
100
AcDbLine
 10
727.7376911780898
 20
222.0033759652116
 30
0.0
 11
770.2376977495187
 21
222.0033759652116
 31
0.0
  0
LINE
  5
231B
330
2
100
AcDbEntity
  8
0
100
AcDbLine
 10
770.2376977495187
 20
194.0033779652116
 30
0.0
 11
720.2376907495187
 21
194.0033779652116
 31
0.0
  0
LINE
  5
231C
330
2
100
AcDbEntity
  8
0
100
AcDbLine
 10
768.7376977495187
 20
192.0033779652117
 30
0.0
 11
722.2376907495187
 21
192.0033779652117
 31
0.0
  0
LINE
  5
231D
330
2
100
AcDbEntity
  8
CENTER
100
AcDbLine
 10
778.1814467495187
 20
213.5033759652116
 30
0.0
 11
716.2853877857807
 21
213.5033759652116
 31
0.0
  0
LINE
  5
231E
330
2
100
AcDbEntity
  8
0
100
AcDbLine
 10
772.2376977495187
 20
204.0033779652115
 30
0.0
 11
720.2376907495187
 21
204.0033779652115
 31
0.0
  0
LINE
  5
231F
330
2
100
AcDbEntity
  8
0
100
AcDbLine
 10
728.2376911780898
 20
223.0033759652116
 30
0.0
 11
727.7376911780898
 21
222.5033759652116
 31
0.0
  0
ARC
  5
2320
330
2
100
AcDbEntity
  8
0
100
AcDbCircle
 10
725.8447015031115
 20
221.5094886894579
 30
0.0
 40
1.3
100
AcDbArc
 50
4.999999999999795
 51
74.11914999171973
  0
LINE
  5
2321
330
2
100
AcDbEntity
  8
0
100
AcDbLine
 10
725.767430572683
 20
222.6558175025892
 30
0.0
 11
725.7876907495187
 21
222.8667942480507
 31
0.0
  0
LINE
  5
2322
330
2
100
AcDbEntity
  8
0
100
AcDbLine
 10
721.7079509263546
 20
222.6558175025892
 30
0.0
 11
721.6876907495189
 21
222.8667942480507
 31
0.0
  0
ARC
  5
2323
330
2
100
AcDbEntity
  8
0
100
AcDbCircle
 10
721.6306799959258
 20
221.5094886894579
 30
0.0
 40
1.3
100
AcDbArc
 50
105.8808500082802
 51
175.0
  0
LINE
  5
2324
330
2
100
AcDbEntity
  8
0
100
AcDbLine
 10
720.2376907495187
 20
222.0033759652116
 30
0.0
 11
721.2376907495187
 21
223.0033759652116
 31
0.0
  0
ARC
  5
2325
330
2
100
AcDbEntity
  8
0
100
AcDbCircle
 10
723.7376907495187
 20
214.1033759652114
 30
0.0
 40
9.0
100
AcDbArc
 50
74.11914999171973
 51
105.8808500082802
  0
LINE
  5
2326
330
2
100
AcDbEntity
  8
0
100
AcDbLine
 10
720.2376907495187
 20
222.0033759652116
 30
0.0
 11
720.2376907495187
 21
194.0033779652116
 31
0.0
  0
LINE
  5
2327
330
2
100
AcDbEntity
  8
0
100
AcDbLine
 10
722.2376907495187
 20
192.0033779652117
 30
0.0
 11
720.2376907495187
 21
194.0033779652116
 31
0.0
  0
LINE
  5
2328
330
2
100
AcDbEntity
  8
0
100
AcDbLine
 10
722.7376907495187
 20
192.0033779652117
 30
0.0
 11
722.7376907495187
 21
190.5033779652115
 31
0.0
  0
SPLINE
  5
2329
330
2
100
AcDbEntity
  8
0
100
AcDbSpline
210
0.0
220
0.0
230
1.0
 70
     8
 71
     3
 72
    11
 73
     7
 74
     0
 42
0.0000000001
 43
0.0000000001
 40
0.0
 40
0.0
 40
0.0
 40
0.0
 40
0.4601364636755307
 40
1.04988694485363
 40
1.713742833862792
 40
2.320347933405154
 40
2.320347933405154
 40
2.320347933405154
 40
2.320347933405178
 10
723.4501907490637
 20
221.5863759652115
 30
0.0
 10
723.4277730919558
 20
221.7413994048913
 30
0.0
 10
723.3766230367225
 20
222.095114222809
 30
0.0
 10
722.940737875189
 20
222.5198418944106
 30
0.0
 10
722.3356871601814
 20
222.7390290743764
 30
0.0
 10
721.9105025360057
 20
222.6700377747656
 30
0.0
 10
721.7079509263546
 20
222.6558175025892
 30
0.0
  0
LINE
  5
232A
330
2
100
AcDbEntity
  8
0
100
AcDbLine
 10
727.7376911780898
 20
220.5033759652116
 30
0.0
 11
720.2376911780898
 21
220.5033759652116
 31
0.0
  0
LINE
  5
232B
330
2
100
AcDbEntity
  8
0
100
AcDbLine
 10
720.2376907495187
 20
220.5033759652116
 30
0.0
 11
720.3356268884066
 21
221.6227911550298
 31
0.0
  0
LINE
  5
232C
330
2
100
AcDbEntity
  8
0
100
AcDbLine
 10
727.7376911780898
 20
220.5033759652116
 30
0.0
 11
727.7376911780898
 21
222.5033759652116
 31
0.0
  0
LINE
  5
232D
330
2
100
AcDbEntity
  8
0
100
AcDbLine
 10
727.2376907495186
 20
220.5033759652116
 30
0.0
 11
727.1397546106308
 21
221.6227911550298
 31
0.0
  0
LINE
  5
232E
330
2
100
AcDbEntity
  8
0
100
AcDbLine
 10
724.025190749974
 20
221.5863759652115
 30
0.0
 11
723.4501907490637
 21
221.5863759652115
 31
0.0
  0
SPLINE
  5
232F
330
2
100
AcDbEntity
  8
0
100
AcDbSpline
210
0.0
220
0.0
230
1.0
 70
     8
 71
     3
 72
    11
 73
     7
 74
     0
 42
0.0000000001
 43
0.0000000001
 40
0.0
 40
0.0
 40
0.0
 40
0.0
 40
0.4601364636755307
 40
1.04988694485363
 40
1.713742833862792
 40
2.320347933405154
 40
2.320347933405154
 40
2.320347933405154
 40
2.320347933405178
 10
724.025190749974
 20
221.5863759652115
 30
0.0
 10
724.0476084070817
 20
221.7413994048913
 30
0.0
 10
724.0987584623151
 20
222.095114222809
 30
0.0
 10
724.5346436238484
 20
222.5198418944106
 30
0.0
 10
725.139694338856
 20
222.7390290743764
 30
0.0
 10
725.5648789630318
 20
222.6700377747656
 30
0.0
 10
725.767430572683
 20
222.6558175025892
 30
0.0
  0
LINE
  5
2330
330
2
100
AcDbEntity
  8
0
100
AcDbLine
 10
727.7376911780898
 20
222.5033759652116
 30
0.0
 11
726.6826681391389
 21
222.5033759652116
 31
0.0
  0
LINE
  5
2331
330
2
100
AcDbEntity
  8
0
100
AcDbLine
 10
721.2376907495187
 20
223.0033759652116
 30
0.0
 11
722.3997819334932
 21
223.0033759652116
 31
0.0
  0
LINE
  5
2332
330
2
100
AcDbEntity
  8
0
100
AcDbLine
 10
769.2376977495187
 20
223.0033759652116
 30
0.0
 11
770.2376977495187
 21
222.0033759652116
 31
0.0
  0
ARC
  5
2333
330
2
100
AcDbEntity
  8
0
100
AcDbCircle
 10
771.2376827495187
 20
220.0033759652116
 30
0.0
 40
1.0
100
AcDbArc
 50
0.0
 51
90.0
  0
LINE
  5
2334
330
2
100
AcDbEntity
  8
0
100
AcDbLine
 10
770.2376977495187
 20
222.0033759652116
 30
0.0
 11
770.2376977495187
 21
194.0033779652116
 31
0.0
  0
LINE
  5
2335
330
2
100
AcDbEntity
  8
0
100
AcDbLine
 10
768.7376977495187
 20
192.0033779652117
 30
0.0
 11
768.7376977495187
 21
190.5033779652115
 31
0.0
  0
LINE
  5
2336
330
2
100
AcDbEntity
  8
0
100
AcDbLine
 10
770.2376977495187
 20
194.0033779652116
 30
0.0
 11
768.2376977495187
 21
192.0033779652117
 31
0.0
  0
LINE
  5
2337
330
2
100
AcDbEntity
  8
0
100
AcDbLine
 10
771.2376977495186
 20
221.0033759652116
 30
0.0
 11
770.2376977495187
 21
221.0033759652116
 31
0.0
  0
LINE
  5
2338
330
2
100
AcDbEntity
  8
0
100
AcDbLine
 10
772.2376827495187
 20
220.0033759652116
 30
0.0
 11
772.2376977495187
 21
204.0033779652115
 31
0.0
  0
LINE
  5
2339
330
2
100
AcDbEntity
  8
0
100
AcDbLine
 10
775.7376827495187
 20
217.5033759652114
 30
0.0
 11
775.7376827495187
 21
209.5033759652116
 31
0.0
  0
LINE
  5
233A
330
2
100
AcDbEntity
  8
0
100
AcDbLine
 10
775.7376977495186
 20
209.5033759652116
 30
0.0
 11
772.2376977495187
 21
208.0033759652116
 31
0.0
  0
LINE
  5
233B
330
2
100
AcDbEntity
  8
0
100
AcDbLine
 10
775.7376827495187
 20
217.5033759652114
 30
0.0
 11
772.2376827495187
 21
219.0033759652115
 31
0.0
  0
LINE
  5
2387
330
2
100
AcDbEntity
  8
0
100
AcDbLine
 10
720.2377977495189
 20
350.5956809168644
 30
0.0
 11
685.1791037495187
 21
350.5956809168644
 31
0.0
  0
LINE
  5
2388
330
2
100
AcDbEntity
  8
0
100
AcDbLine
 10
720.2377977495189
 20
396.5956809168644
 30
0.0
 11
685.1791037495187
 21
396.5956809168644
 31
0.0
  0
LINE
  5
2389
330
2
100
AcDbEntity
  8
0
100
AcDbLine
 10
770.7376977495187
 20
366.0956809168644
 30
0.0
 11
770.7376977495187
 21
333.5956809168645
 31
0.0
  0
ENDSEC
  0
SECTION
  2
OBJECTS
  0
DICTIONARY
  5
7
330
0
100
AcDbDictionary
  3
ACAD_GROUP
350
75
  3
ACAD_LAYOUT
350
61
  3
ACAD_MLINESTYLE
350
76
  3
ACAD_PLOTSETTINGS
350
77
  3
ACAD_PLOTSTYLENAME
350
6
  3
ACADDIM
350
480
  3
ACDBHEADERROUNDTRIPXREC
350
242B
  3
ACDBVARIABLEDICTIONARY
350
102
  3
DWGPROPS
350
3D2
  0
DICTIONARY
  5
241B
330
2
100
AcDbDictionary
280
     1
  3
ACAD_LAYOUTSELFREF
360
244C
  0
DICTIONARY
  5
244D
330
2425
100
AcDbDictionary
280
     1
  3
ACAD_LAYOUTSELFREF
360
244E
  0
DICTIONARY
  5
75
102
{ACAD_REACTORS
330
7
102
}
330
7
100
AcDbDictionary
  0
DICTIONARY
  5
61
102
{ACAD_REACTORS
330
7
102
}
330
7
100
AcDbDictionary
  0
DICTIONARY
  5
76
102
{ACAD_REACTORS
330
7
102
}
330
7
100
AcDbDictionary
  3
STANDARD
350
78
  0
DICTIONARY
  5
77
102
{ACAD_REACTORS
330
7
102
}
330
7
100
AcDbDictionary
  0
ACDBDICTIONARYWDFLT
  5
6
102
{ACAD_REACTORS
330
7
102
}
330
7
100
AcDbDictionary
281
     1
  3
Normal
350
5
100
AcDbDictionaryWithDefault
340
5
  0
XRECORD
  5
480
102
{ACAD_REACTORS
330
7
102
}
330
7
100
AcDbXrecord
 90
   990106
  3

 60
     0
 61
     0
 62
     1
 63
     3
 64
     1
 65
     0
 66
     0
 67
     3
 68
     1
 69
     0
 70
     0
 71
     0
 72
     0
 40
0.0
170
     2
340
0
  0
DICTIONARY
  5
242B
102
{ACAD_REACTORS
330
7
102
}
330
7
100
AcDbDictionary
  3
CEPSNTYPE
350
2435
  3
DIMSTYLEDATA
350
2439
  3
FINGERPRINTGUID
350
2436
  3
HYPERLINKBASE
350
242E
  3
INSUNITS
350
2434
  3
LAYOUTDICT
350
2430
  3
LWETCUNION
350
2433
  3
PLOTSETDICT
350
2431
  3
PLOTSTYLNAMDICT
350
2432
  3
PSVPSCALE
350
2438
  3
PUCSBASE
350
243C
  3
PUCSORGBACK
350
2442
  3
PUCSORGBOTTOM
350
243E
  3
PUCSORGFRONT
350
2441
  3
PUCSORGLEFT
350
243F
  3
PUCSORGRIGHT
350
2440
  3
PUCSORGTOP
350
243D
  3
PUCSORTHOREF
350
243A
  3
PUCSORTHOVIEW
350
243B
  3
STYLESHEET
350
242F
  3
TSTACKALIGN
350
242C
  3
TSTACKSIZE
350
242D
  3
UCSBASE
350
2445
  3
UCSORGBACK
350
244B
  3
UCSORGBOTTOM
350
2447
  3
UCSORGFRONT
350
244A
  3
UCSORGLEFT
350
2448
  3
UCSORGRIGHT
350
2449
  3
UCSORGTOP
350
2446
  3
UCSORTHOREF
350
2443
  3
UCSORTHOVIEW
350
2444
  3
VERSIONGUID
350
2437
  0
DICTIONARY
  5
102
102
{ACAD_REACTORS
330
7
102
}
330
7
100
AcDbDictionary
  3
DIMASSOC
350
103
  0
XRECORD
  5
3D2
102
{ACAD_REACTORS
330
7
102
}
330
7
100
AcDbXrecord
  1
DWGPROPS COOKIE
  2

  3

  4

  6

  7

  8

  9

300
=
301
=
302
=
303
=
304
=
305
=
306
=
307
=
308
=
309
=
 40
0.5353330671296296
 41
2452052.431989363
 42
2453406.550756376
  1

 90
        0
  0
XRECORD
  5
244C
102
{ACAD_REACTORS
330
241B
102
}
330
241B
100
AcDbXrecord
340
2
  0
XRECORD
  5
244E
102
{ACAD_REACTORS
330
244D
102
}
330
244D
100
AcDbXrecord
340
2425
  0
MLINESTYLE
  5
78
102
{ACAD_REACTORS
330
76
102
}
330
76
100
AcDbMlineStyle
  2
STANDARD
 70
     0
  3

 62
     0
 51
90.0
 52
90.0
 71
     2
 49
0.5
 62
   256
  6
BYLAYER
 49
-0.5
 62
   256
  6
BYLAYER
  0
ACDBPLACEHOLDER
  5
5
102
{ACAD_REACTORS
330
6
102
}
330
6
100
AcDbPlaceHolder
280
     0
  0
XRECORD
  5
2435
102
{ACAD_REACTORS
330
242B
102
}
330
242B
100
AcDbXrecord
 90
        0
  0
XRECORD
  5
2439
102
{ACAD_REACTORS
330
242B
102
}
330
242B
100
AcDbXrecord
1000
DSTYLE
1002
{
1070
   179
 70
     2
1002
}
  0
XRECORD
  5
2436
102
{ACAD_REACTORS
330
242B
102
}
330
242B
100
AcDbXrecord
  1
{6385560B-F4B1-4644-A7C2-A3E32AC3D232}
  0
XRECORD
  5
242E
102
{ACAD_REACTORS
330
242B
102
}
330
242B
100
AcDbXrecord
  1

  0
XRECORD
  5
2434
102
{ACAD_REACTORS
330
242B
102
}
330
242B
100
AcDbXrecord
 90
        0
  0
XRECORD
  5
2430
102
{ACAD_REACTORS
330
242B
102
}
330
242B
100
AcDbXrecord
340
61
  0
XRECORD
  5
2433
102
{ACAD_REACTORS
330
242B
102
}
330
242B
100
AcDbXrecord
 90
    10781
  0
XRECORD
  5
2431
102
{ACAD_REACTORS
330
242B
102
}
330
242B
100
AcDbXrecord
340
77
  0
XRECORD
  5
2432
102
{ACAD_REACTORS
330
242B
102
}
330
242B
100
AcDbXrecord
340
6
  0
XRECORD
  5
2438
102
{ACAD_REACTORS
330
242B
102
}
330
242B
100
AcDbXrecord
 40
0.0
  0
XRECORD
  5
243C
102
{ACAD_REACTORS
330
242B
102
}
330
242B
100
AcDbXrecord
340
0
  0
XRECORD
  5
2442
102
{ACAD_REACTORS
330
242B
102
}
330
242B
100
AcDbXrecord
 10
0.0
 20
0.0
 30
0.0
  0
XRECORD
  5
243E
102
{ACAD_REACTORS
330
242B
102
}
330
242B
100
AcDbXrecord
 10
0.0
 20
0.0
 30
0.0
  0
XRECORD
  5
2441
102
{ACAD_REACTORS
330
242B
102
}
330
242B
100
AcDbXrecord
 10
0.0
 20
0.0
 30
0.0
  0
XRECORD
  5
243F
102
{ACAD_REACTORS
330
242B
102
}
330
242B
100
AcDbXrecord
 10
0.0
 20
0.0
 30
0.0
  0
XRECORD
  5
2440
102
{ACAD_REACTORS
330
242B
102
}
330
242B
100
AcDbXrecord
 10
0.0
 20
0.0
 30
0.0
  0
XRECORD
  5
243D
102
{ACAD_REACTORS
330
242B
102
}
330
242B
100
AcDbXrecord
 10
0.0
 20
0.0
 30
0.0
  0
XRECORD
  5
243A
102
{ACAD_REACTORS
330
242B
102
}
330
242B
100
AcDbXrecord
340
0
  0
XRECORD
  5
243B
102
{ACAD_REACTORS
330
242B
102
}
330
242B
100
AcDbXrecord
 70
     0
  0
XRECORD
  5
242F
102
{ACAD_REACTORS
330
242B
102
}
330
242B
100
AcDbXrecord
  1
Sekkei.ctb
  0
XRECORD
  5
242C
102
{ACAD_REACTORS
330
242B
102
}
330
242B
100
AcDbXrecord
 90
        1
  0
XRECORD
  5
242D
102
{ACAD_REACTORS
330
242B
102
}
330
242B
100
AcDbXrecord
 90
       70
  0
XRECORD
  5
2445
102
{ACAD_REACTORS
330
242B
102
}
330
242B
100
AcDbXrecord
340
0
  0
XRECORD
  5
244B
102
{ACAD_REACTORS
330
242B
102
}
330
242B
100
AcDbXrecord
 10
0.0
 20
0.0
 30
0.0
  0
XRECORD
  5
2447
102
{ACAD_REACTORS
330
242B
102
}
330
242B
100
AcDbXrecord
 10
0.0
 20
0.0
 30
0.0
  0
XRECORD
  5
244A
102
{ACAD_REACTORS
330
242B
102
}
330
242B
100
AcDbXrecord
 10
0.0
 20
0.0
 30
0.0
  0
XRECORD
  5
2448
102
{ACAD_REACTORS
330
242B
102
}
330
242B
100
AcDbXrecord
 10
0.0
 20
0.0
 30
0.0
  0
XRECORD
  5
2449
102
{ACAD_REACTORS
330
242B
102
}
330
242B
100
AcDbXrecord
 10
0.0
 20
0.0
 30
0.0
  0
XRECORD
  5
2446
102
{ACAD_REACTORS
330
242B
102
}
330
242B
100
AcDbXrecord
 10
0.0
 20
0.0
 30
0.0
  0
XRECORD
  5
2443
102
{ACAD_REACTORS
330
242B
102
}
330
242B
100
AcDbXrecord
340
0
  0
XRECORD
  5
2444
102
{ACAD_REACTORS
330
242B
102
}
330
242B
100
AcDbXrecord
 70
     0
  0
XRECORD
  5
2437
102
{ACAD_REACTORS
330
242B
102
}
330
242B
100
AcDbXrecord
  1
{58AC7B85-EF7F-4E64-A667-B08EB8A8066A}
  0
DICTIONARYVAR
  5
103
102
{ACAD_REACTORS
330
102
102
}
330
102
100
DictionaryVariables
280
     0
  1
1
  0
ENDSEC
  0
EOF
