  0
SECTION
  2
HEADER
  9
$ACADVER
  1
AC1015
  9
$ACADMAINTVER
 70
    20
  9
$DWGCODEPAGE
  3
ANSI_932
  9
$INSBASE
 10
0.0
 20
0.0
 30
0.0
  9
$EXTMIN
 10
35.7786027891
 20
32.5740248749
 30
0.0
  9
$EXTMAX
 10
846.0655519758
 20
443.2141713724
 30
0.0
  9
$LIMMIN
 10
0.0
 20
0.0
  9
$LIMMAX
 10
297.0
 20
210.0
  9
$ORTHOMODE
 70
     0
  9
$REGENMODE
 70
     1
  9
$FILLMODE
 70
     1
  9
$QTEXTMODE
 70
     0
  9
$MIRRTEXT
 70
     0
  9
$LTSCALE
 40
3.0
  9
$ATTMODE
 70
     1
  9
$TEXTSIZE
 40
2.0
  9
$TRACEWID
 40
1.0
  9
$TEXTSTYLE
  7
STANDARD
  9
$CLAYER
  8
0
  9
$CELTYPE
  6
BYLAYER
  9
$CECOLOR
 62
   256
  9
$CELTSCALE
 40
1.0
  9
$DISPSILH
 70
     0
  9
$DIMSCALE
 40
3.0
  9
$DIMASZ
 40
1.8
  9
$DIMEXO
 40
0.625
  9
$DIMDLI
 40
3.75
  9
$DIMRND
 40
0.0
  9
$DIMDLE
 40
0.0
  9
$DIMEXE
 40
0.8
  9
$DIMTP
 40
0.0
  9
$DIMTM
 40
0.0
  9
$DIMTXT
 40
1.8
  9
$DIMCEN
 40
2.5
  9
$DIMTSZ
 40
0.0
  9
$DIMTOL
 70
     0
  9
$DIMLIM
 70
     0
  9
$DIMTIH
 70
     0
  9
$DIMTOH
 70
     0
  9
$DIMSE1
 70
     0
  9
$DIMSE2
 70
     0
  9
$DIMTAD
 70
     1
  9
$DIMZIN
 70
     8
  9
$DIMBLK
  1

  9
$DIMASO
 70
     1
  9
$DIMSHO
 70
     1
  9
$DIMPOST
  1

  9
$DIMAPOST
  1

  9
$DIMALT
 70
     0
  9
$DIMALTD
 70
     4
  9
$DIMALTF
 40
0.0394
  9
$DIMLFAC
 40
1.0
  9
$DIMTOFL
 70
     1
  9
$DIMTVP
 40
0.0
  9
$DIMTIX
 70
     0
  9
$DIMSOXD
 70
     0
  9
$DIMSAH
 70
     0
  9
$DIMBLK1
  1

  9
$DIMBLK2
  1

  9
$DIMSTYLE
  2
STANDARD
  9
$DIMCLRD
 70
     0
  9
$DIMCLRE
 70
     0
  9
$DIMCLRT
 70
     0
  9
$DIMTFAC
 40
1.0
  9
$DIMGAP
 40
0.75
  9
$DIMJUST
 70
     0
  9
$DIMSD1
 70
     0
  9
$DIMSD2
 70
     0
  9
$DIMTOLJ
 70
     1
  9
$DIMTZIN
 70
     0
  9
$DIMALTZ
 70
     0
  9
$DIMALTTZ
 70
     0
  9
$DIMUPT
 70
     0
  9
$DIMDEC
 70
     2
  9
$DIMTDEC
 70
     2
  9
$DIMALTU
 70
     8
  9
$DIMALTTD
 70
     4
  9
$DIMTXSTY
  7
STANDARD
  9
$DIMAUNIT
 70
     0
  9
$DIMADEC
 70
     2
  9
$DIMALTRND
 40
0.0
  9
$DIMAZIN
 70
     0
  9
$DIMDSEP
 70
    46
  9
$DIMATFIT
 70
     3
  9
$DIMFRAC
 70
     0
  9
$DIMLDRBLK
  1

  9
$DIMLUNIT
 70
     6
  9
$DIMLWD
 70
    -2
  9
$DIMLWE
 70
    -2
  9
$DIMTMOVE
 70
     0
  9
$LUNITS
 70
     2
  9
$LUPREC
 70
     3
  9
$SKETCHINC
 40
1.0
  9
$FILLETRAD
 40
10.0
  9
$AUNITS
 70
     0
  9
$AUPREC
 70
     2
  9
$MENU
  1
.
  9
$ELEVATION
 40
0.0
  9
$PELEVATION
 40
0.0
  9
$THICKNESS
 40
0.0
  9
$LIMCHECK
 70
     0
  9
$CHAMFERA
 40
0.0
  9
$CHAMFERB
 40
0.0
  9
$CHAMFERC
 40
20.0
  9
$CHAMFERD
 40
0.0
  9
$SKPOLY
 70
     0
  9
$TDCREATE
 40
2453557.745358796
  9
$TDUCREATE
 40
2453557.370358970
  9
$TDUPDATE
 40
2460515.516284722
  9
$TDUUPDATE
 40
2460515.141284723
  9
$TDINDWG
 40
0.2501539236
  9
$TDUSRTIMER
 40
0.2501535648
  9
$USRTIMER
 70
     1
  9
$ANGBASE
 50
0.0
  9
$ANGDIR
 70
     0
  9
$PDMODE
 70
     0
  9
$PDSIZE
 40
-10.0
  9
$PLINEWID
 40
0.0
  9
$SPLFRAME
 70
     0
  9
$SPLINETYPE
 70
     6
  9
$SPLINESEGS
 70
     8
  9
$HANDSEED
  5
2962
  9
$SURFTAB1
 70
     6
  9
$SURFTAB2
 70
     6
  9
$SURFTYPE
 70
     6
  9
$SURFU
 70
     6
  9
$SURFV
 70
     6
  9
$UCSBASE
  2

  9
$UCSNAME
  2

  9
$UCSORG
 10
0.0
 20
0.0
 30
0.0
  9
$UCSXDIR
 10
1.0
 20
0.0
 30
0.0
  9
$UCSYDIR
 10
0.0
 20
1.0
 30
0.0
  9
$UCSORTHOREF
  2

  9
$UCSORTHOVIEW
 70
     0
  9
$UCSORGTOP
 10
0.0
 20
0.0
 30
0.0
  9
$UCSORGBOTTOM
 10
0.0
 20
0.0
 30
0.0
  9
$UCSORGLEFT
 10
0.0
 20
0.0
 30
0.0
  9
$UCSORGRIGHT
 10
0.0
 20
0.0
 30
0.0
  9
$UCSORGFRONT
 10
0.0
 20
0.0
 30
0.0
  9
$UCSORGBACK
 10
0.0
 20
0.0
 30
0.0
  9
$PUCSBASE
  2

  9
$PUCSNAME
  2

  9
$PUCSORG
 10
0.0
 20
0.0
 30
0.0
  9
$PUCSXDIR
 10
1.0
 20
0.0
 30
0.0
  9
$PUCSYDIR
 10
0.0
 20
1.0
 30
0.0
  9
$PUCSORTHOREF
  2

  9
$PUCSORTHOVIEW
 70
     0
  9
$PUCSORGTOP
 10
0.0
 20
0.0
 30
0.0
  9
$PUCSORGBOTTOM
 10
0.0
 20
0.0
 30
0.0
  9
$PUCSORGLEFT
 10
0.0
 20
0.0
 30
0.0
  9
$PUCSORGRIGHT
 10
0.0
 20
0.0
 30
0.0
  9
$PUCSORGFRONT
 10
0.0
 20
0.0
 30
0.0
  9
$PUCSORGBACK
 10
0.0
 20
0.0
 30
0.0
  9
$USERI1
 70
     0
  9
$USERI2
 70
     0
  9
$USERI3
 70
     0
  9
$USERI4
 70
     0
  9
$USERI5
 70
     0
  9
$USERR1
 40
0.0
  9
$USERR2
 40
0.0
  9
$USERR3
 40
0.0
  9
$USERR4
 40
0.0
  9
$USERR5
 40
0.0
  9
$WORLDVIEW
 70
     1
  9
$SHADEDGE
 70
     3
  9
$SHADEDIF
 70
    70
  9
$TILEMODE
 70
     1
  9
$MAXACTVP
 70
    48
  9
$PINSBASE
 10
0.0
 20
0.0
 30
0.0
  9
$PLIMCHECK
 70
     0
  9
$PEXTMIN
 10
0.0
 20
0.0
 30
0.0
  9
$PEXTMAX
 10
0.0
 20
0.0
 30
0.0
  9
$PLIMMIN
 10
0.0
 20
0.0
  9
$PLIMMAX
 10
12.0
 20
9.0
  9
$UNITMODE
 70
     0
  9
$VISRETAIN
 70
     1
  9
$PLINEGEN
 70
     0
  9
$PSLTSCALE
 70
     1
  9
$TREEDEPTH
 70
  3020
  9
$CMLSTYLE
  2
STANDARD
  9
$CMLJUST
 70
     0
  9
$CMLSCALE
 40
1.0
  9
$PROXYGRAPHICS
 70
     1
  9
$MEASUREMENT
 70
     0
  9
$CELWEIGHT
370
    -1
  9
$ENDCAPS
280
     0
  9
$JOINSTYLE
280
     0
  9
$LWDISPLAY
290
     0
  9
$INSUNITS
 70
     0
  9
$HYPERLINKBASE
  1

  9
$STYLESHEET
  1
SEKKEI.CTB
  9
$XEDIT
290
     1
  9
$CEPSNTYPE
380
     0
  9
$PSTYLEMODE
290
     1
  9
$FINGERPRINTGUID
  2
{6385560B-F4B1-4644-A7C2-A3E32AC3D232}
  9
$VERSIONGUID
  2
{73BC76A2-F547-3E4C-BA8C-75EFF27D6C05}
  9
$EXTNAMES
290
     1
  9
$PSVPSCALE
 40
0.0
  9
$OLESTARTUP
290
     0
  0
ENDSEC
  0
SECTION
  2
CLASSES
  0
CLASS
  1
DICTIONARYVAR
  2
AcDbDictionaryVar
  3
ObjectDBX Classes
 90
        0
280
     0
281
     0
  0
CLASS
  1
ACDBDICTIONARYWDFLT
  2
AcDbDictionaryWithDefault
  3
ObjectDBX Classes
 90
        0
280
     0
281
     0
  0
CLASS
  1
MATERIAL
  2
AcDbMaterial
  3
ObjectDBX Classes
 90
     1153
280
     0
281
     0
  0
CLASS
  1
VISUALSTYLE
  2
AcDbVisualStyle
  3
ObjectDBX Classes
 90
     4095
280
     0
281
     0
  0
CLASS
  1
TABLESTYLE
  2
AcDbTableStyle
  3
ObjectDBX Classes
 90
     4095
280
     0
281
     0
  0
CLASS
  1
SCALE
  2
AcDbScale
  3
ObjectDBX Classes
 90
     1153
280
     0
281
     0
  0
CLASS
  1
MLEADERSTYLE
  2
AcDbMLeaderStyle
  3
ACDB_MLEADERSTYLE_CLASS
 90
     4095
280
     0
281
     0
  0
CLASS
  1
CELLSTYLEMAP
  2
AcDbCellStyleMap
  3
ObjectDBX Classes
 90
     1152
280
     0
281
     0
  0
CLASS
  1
ACDBSECTIONVIEWSTYLE
  2
AcDbSectionViewStyle
  3
ObjectDBX Classes
 90
     1025
280
     0
281
     0
  0
CLASS
  1
ACDBDETAILVIEWSTYLE
  2
AcDbDetailViewStyle
  3
ObjectDBX Classes
 90
     1025
280
     0
281
     0
  0
CLASS
  1
ACDBPLACEHOLDER
  2
AcDbPlaceHolder
  3
ObjectDBX Classes
 90
        0
280
     0
281
     0
  0
CLASS
  1
LAYOUT
  2
AcDbLayout
  3
ObjectDBX Classes
 90
        0
280
     0
281
     0
  0
CLASS
  1
SORTENTSTABLE
  2
AcDbSortentsTable
  3
ObjectDBX Classes
 90
    32768
280
     0
281
     0
  0
ENDSEC
  0
SECTION
  2
TABLES
  0
TABLE
  2
VPORT
  5
6E
102
{ACAD_XDICTIONARY
360
2127
102
}
330
0
100
AcDbSymbolTable
 70
     1
  0
VPORT
  5
20AB
330
6E
100
AcDbSymbolTableRecord
100
AcDbViewportTableRecord
  2
*Active
 70
     0
 10
0.0
 20
0.0
 11
1.0
 21
1.0
 12
457.7905348237
 22
237.8924274084
 13
0.0
 23
0.0
 14
10.0
 24
10.0
 15
10.0
 25
10.0
 16
0.0
 26
0.0
 36
1.0
 17
0.0
 27
0.0
 37
0.0
 40
413.8510739213
 41
2.38
 42
50.0
 43
0.0
 44
0.0
 50
0.0
 51
0.0
 71
     0
 72
   100
 73
     1
 74
     3
 75
     0
 76
     0
 77
     0
 78
     0
281
     0
 65
     1
110
0.0
120
0.0
130
0.0
111
1.0
121
0.0
131
0.0
112
0.0
122
1.0
132
0.0
 79
     0
146
0.0
1001
ACAD_NAV_VCDISPLAY
1070
     3
  0
ENDTAB
  0
TABLE
  2
LTYPE
  5
69
330
0
100
AcDbSymbolTable
 70
     7
  0
LTYPE
  5
6A
330
69
100
AcDbSymbolTableRecord
100
AcDbLinetypeTableRecord
  2
BYBLOCK
 70
     0
  3

 72
    65
 73
     0
 40
0.0
  0
LTYPE
  5
6B
330
69
100
AcDbSymbolTableRecord
100
AcDbLinetypeTableRecord
  2
BYLAYER
 70
     0
  3

 72
    65
 73
     0
 40
0.0
  0
LTYPE
  5
8
330
69
100
AcDbSymbolTableRecord
100
AcDbLinetypeTableRecord
  2
CONTINUOUS
 70
     0
  3
Solid line
 72
    65
 73
     0
 40
0.0
  0
LTYPE
  5
27C
330
69
100
AcDbSymbolTableRecord
100
AcDbLinetypeTableRecord
  2
sekkei(A2)
 70
     0
  3
center(A2)  ____ _ ____ _ ____ _ ____ _ ____ _ 
 72
    65
 73
     4
 40
14.2875
 49
9.525
 74
     0
 49
-1.5875
 74
     0
 49
1.5875
 74
     0
 49
-1.5875
 74
     0
  0
LTYPE
  5
2B4
330
69
100
AcDbSymbolTableRecord
100
AcDbLinetypeTableRecord
  2
HIDDEN2
 70
     0
  3
Hidden (.5x) _ _ _ _ _ _ _ _ _ _ _ _ _ _ _ _ _
 72
    65
 73
     2
 40
4.7625
 49
3.175
 74
     0
 49
-1.5875
 74
     0
  0
LTYPE
  5
477
330
69
100
AcDbSymbolTableRecord
100
AcDbLinetypeTableRecord
  2
sekkei-P(A4)
 70
     0
  3
Phantom(A4)  ____ _ _ ____ _ _ ____ _ _ _____
 72
    65
 73
     6
 40
15.0
 49
7.5
 74
     0
 49
-1.5
 74
     0
 49
1.5
 74
     0
 49
-1.5
 74
     0
 49
1.5
 74
     0
 49
-1.5
 74
     0
  0
LTYPE
  5
48F
330
69
100
AcDbSymbolTableRecord
100
AcDbLinetypeTableRecord
  2
sekkei_H
 70
     0
  3
Hidden-S _ _ _ _ _ _ _ _ _ _ _ _ _ _ _ _ _
 72
    65
 73
     2
 40
2.38125
 49
1.5875
 74
     0
 49
-0.79375
 74
     0
  0
LTYPE
  5
494
330
69
100
AcDbSymbolTableRecord
100
AcDbLinetypeTableRecord
  2
sekkei_P_S
 70
     0
  3
Phantom_S   __ _ _ __ _ _ __ _ _ ___
 72
    65
 73
     6
 40
7.5
 49
3.75
 74
     0
 49
-0.75
 74
     0
 49
0.75
 74
     0
 49
-0.75
 74
     0
 49
0.75
 74
     0
 49
-0.75
 74
     0
  0
LTYPE
  5
2683
330
69
100
AcDbSymbolTableRecord
100
AcDbLinetypeTableRecord
  2
CENS
 70
     0
  3
(一点鎖線１)---- - ---- - ---- - ---- - ---- - 
 72
    65
 73
     4
 40
13.0
 49
10.0
 74
     0
 49
-1.0
 74
     0
 49
1.0
 74
     0
 49
-1.0
 74
     0
  0
ENDTAB
  0
TABLE
  2
LAYER
  5
66
102
{ACAD_XDICTIONARY
360
21A0
102
}
330
0
100
AcDbSymbolTable
 70
    10
  0
LAYER
  5
5E
102
{ACAD_XDICTIONARY
360
210A
102
}
330
66
100
AcDbSymbolTableRecord
100
AcDbLayerTableRecord
  2
0
 70
     0
 62
     7
  6
CONTINUOUS
370
    -3
390
5
  0
LAYER
  5
3E
102
{ACAD_XDICTIONARY
360
210C
102
}
330
66
100
AcDbSymbolTableRecord
100
AcDbLayerTableRecord
  2
CENTER
 70
     0
 62
     3
  6
sekkei(A2)
370
    -3
390
5
  0
LAYER
  5
135
330
66
100
AcDbSymbolTableRecord
100
AcDbLayerTableRecord
  2
DEFPOINTS
 70
     0
 62
     7
  6
CONTINUOUS
290
     0
370
    -3
390
5
  0
LAYER
  5
2B5
102
{ACAD_XDICTIONARY
360
2112
102
}
330
66
100
AcDbSymbolTableRecord
100
AcDbLayerTableRecord
  2
HIDS
 70
     0
 62
     1
  6
HIDDEN2
370
    -3
390
5
  0
LAYER
  5
2BA
102
{ACAD_XDICTIONARY
360
2114
102
}
330
66
100
AcDbSymbolTableRecord
100
AcDbLayerTableRecord
  2
HOJO
 70
     0
 62
     4
  6
CONTINUOUS
370
    -3
390
5
  0
LAYER
  5
3FA
102
{ACAD_XDICTIONARY
360
2118
102
}
330
66
100
AcDbSymbolTableRecord
100
AcDbLayerTableRecord
  2
TITLE
 70
     0
 62
     4
  6
CONTINUOUS
290
     0
370
    -3
390
5
  0
LAYER
  5
478
102
{ACAD_XDICTIONARY
360
211A
102
}
330
66
100
AcDbSymbolTableRecord
100
AcDbLayerTableRecord
  2
PHAS
 70
     0
 62
     2
  6
sekkei-P(A4)
370
    -3
390
5
  0
ENDTAB
  0
TABLE
  2
STYLE
  5
67
330
0
100
AcDbSymbolTable
 70
     1
  0
STYLE
  5
16
330
67
100
AcDbSymbolTableRecord
100
AcDbTextStyleTableRecord
  2
STANDARD
 70
     0
 40
0.0
 41
1.0
 50
0.0
 71
     0
 42
2.0
  3
simplex.shx
  4
extfont.shx
  0
ENDTAB
  0
TABLE
  2
VIEW
  5
6C
330
0
100
AcDbSymbolTable
 70
     0
  0
ENDTAB
  0
TABLE
  2
UCS
  5
6D
330
0
100
AcDbSymbolTable
 70
     0
  0
ENDTAB
  0
TABLE
  2
APPID
  5
70
330
0
100
AcDbSymbolTable
 70
     4
  0
APPID
  5
71
330
70
100
AcDbSymbolTableRecord
100
AcDbRegAppTableRecord
  2
ACAD
 70
     0
  0
APPID
  5
20FE
330
70
100
AcDbSymbolTableRecord
100
AcDbRegAppTableRecord
  2
ACAD_MLEADERVER
 70
     0
  0
APPID
  5
2238
330
70
100
AcDbSymbolTableRecord
100
AcDbRegAppTableRecord
  2
ACAD_NAV_VCDISPLAY
 70
     0
  0
APPID
  5
2866
330
70
100
AcDbSymbolTableRecord
100
AcDbRegAppTableRecord
  2
ACAD_EXEMPT_FROM_CAD_STANDARDS
 70
     0
  0
ENDTAB
  0
TABLE
  2
DIMSTYLE
  5
72
330
0
100
AcDbSymbolTable
 70
     1
100
AcDbDimStyleTable
 71
     1
340
73
  0
DIMSTYLE
105
73
102
{ACAD_REACTORS
330
1041
330
1054
330
10BC
330
112B
330
1286
330
132A
102
}
330
72
100
AcDbSymbolTableRecord
100
AcDbDimStyleTableRecord
  2
STANDARD
 70
     0
 40
3.0
 41
1.8
 42
0.625
 43
3.75
 44
0.8
 73
     0
 74
     0
 77
     1
 78
     8
140
1.8
141
2.5
143
0.0394
147
0.75
171
     4
172
     1
179
     2
271
     2
272
     2
273
     8
274
     4
277
     6
340
16
  0
ENDTAB
  0
TABLE
  2
BLOCK_RECORD
  5
1
330
0
100
AcDbSymbolTable
 70
    61
  0
BLOCK_RECORD
  5
2
330
1
100
AcDbSymbolTableRecord
100
AcDbBlockTableRecord
  2
*MODEL_SPACE
340
60
  0
BLOCK_RECORD
  5
2901
330
1
100
AcDbSymbolTableRecord
100
AcDbBlockTableRecord
  2
*Paper_Space
340
2902
  0
BLOCK_RECORD
  5
4AC
330
1
100
AcDbSymbolTableRecord
100
AcDbBlockTableRecord
  2
黒丸矢印1
340
0
  0
BLOCK_RECORD
  5
1388
330
1
100
AcDbSymbolTableRecord
100
AcDbBlockTableRecord
  2
*D2
340
0
  0
BLOCK_RECORD
  5
1394
330
1
100
AcDbSymbolTableRecord
100
AcDbBlockTableRecord
  2
*D3
340
0
  0
BLOCK_RECORD
  5
13A0
330
1
100
AcDbSymbolTableRecord
100
AcDbBlockTableRecord
  2
*D4
340
0
  0
BLOCK_RECORD
  5
13AC
330
1
100
AcDbSymbolTableRecord
100
AcDbBlockTableRecord
  2
*D5
340
0
  0
BLOCK_RECORD
  5
13B8
330
1
100
AcDbSymbolTableRecord
100
AcDbBlockTableRecord
  2
*D6
340
0
  0
BLOCK_RECORD
  5
13C4
330
1
100
AcDbSymbolTableRecord
100
AcDbBlockTableRecord
  2
*D7
340
0
  0
BLOCK_RECORD
  5
13D2
330
1
100
AcDbSymbolTableRecord
100
AcDbBlockTableRecord
  2
*D8
340
0
  0
BLOCK_RECORD
  5
13DE
330
1
100
AcDbSymbolTableRecord
100
AcDbBlockTableRecord
  2
*D9
340
0
  0
BLOCK_RECORD
  5
13EA
330
1
100
AcDbSymbolTableRecord
100
AcDbBlockTableRecord
  2
*D10
340
0
  0
BLOCK_RECORD
  5
13F6
330
1
100
AcDbSymbolTableRecord
100
AcDbBlockTableRecord
  2
*D11
340
0
  0
BLOCK_RECORD
  5
1402
330
1
100
AcDbSymbolTableRecord
100
AcDbBlockTableRecord
  2
*D12
340
0
  0
BLOCK_RECORD
  5
140E
330
1
100
AcDbSymbolTableRecord
100
AcDbBlockTableRecord
  2
*D13
340
0
  0
BLOCK_RECORD
  5
141A
330
1
100
AcDbSymbolTableRecord
100
AcDbBlockTableRecord
  2
*D14
340
0
  0
BLOCK_RECORD
  5
1426
330
1
100
AcDbSymbolTableRecord
100
AcDbBlockTableRecord
  2
*D15
340
0
  0
BLOCK_RECORD
  5
1432
330
1
100
AcDbSymbolTableRecord
100
AcDbBlockTableRecord
  2
*D16
340
0
  0
BLOCK_RECORD
  5
143E
330
1
100
AcDbSymbolTableRecord
100
AcDbBlockTableRecord
  2
*D17
340
0
  0
BLOCK_RECORD
  5
144A
330
1
100
AcDbSymbolTableRecord
100
AcDbBlockTableRecord
  2
*D18
340
0
  0
BLOCK_RECORD
  5
1456
330
1
100
AcDbSymbolTableRecord
100
AcDbBlockTableRecord
  2
*D19
340
0
  0
BLOCK_RECORD
  5
1462
330
1
100
AcDbSymbolTableRecord
100
AcDbBlockTableRecord
  2
*D20
340
0
  0
BLOCK_RECORD
  5
147B
330
1
100
AcDbSymbolTableRecord
100
AcDbBlockTableRecord
  2
*D21
340
0
  0
BLOCK_RECORD
  5
1487
330
1
100
AcDbSymbolTableRecord
100
AcDbBlockTableRecord
  2
*D22
340
0
  0
BLOCK_RECORD
  5
1493
330
1
100
AcDbSymbolTableRecord
100
AcDbBlockTableRecord
  2
*D23
340
0
  0
BLOCK_RECORD
  5
149F
330
1
100
AcDbSymbolTableRecord
100
AcDbBlockTableRecord
  2
*D24
340
0
  0
BLOCK_RECORD
  5
14AB
330
1
100
AcDbSymbolTableRecord
100
AcDbBlockTableRecord
  2
*D25
340
0
  0
BLOCK_RECORD
  5
14C3
330
1
100
AcDbSymbolTableRecord
100
AcDbBlockTableRecord
  2
*D26
340
0
  0
BLOCK_RECORD
  5
14CF
330
1
100
AcDbSymbolTableRecord
100
AcDbBlockTableRecord
  2
*D27
340
0
  0
BLOCK_RECORD
  5
14DC
330
1
100
AcDbSymbolTableRecord
100
AcDbBlockTableRecord
  2
*D28
340
0
  0
BLOCK_RECORD
  5
14E8
330
1
100
AcDbSymbolTableRecord
100
AcDbBlockTableRecord
  2
*D29
340
0
  0
BLOCK_RECORD
  5
1500
330
1
100
AcDbSymbolTableRecord
100
AcDbBlockTableRecord
  2
*D30
340
0
  0
BLOCK_RECORD
  5
150C
330
1
100
AcDbSymbolTableRecord
100
AcDbBlockTableRecord
  2
*D31
340
0
  0
BLOCK_RECORD
  5
1518
330
1
100
AcDbSymbolTableRecord
100
AcDbBlockTableRecord
  2
*D32
340
0
  0
BLOCK_RECORD
  5
1524
330
1
100
AcDbSymbolTableRecord
100
AcDbBlockTableRecord
  2
*D33
340
0
  0
BLOCK_RECORD
  5
1530
330
1
100
AcDbSymbolTableRecord
100
AcDbBlockTableRecord
  2
*D34
340
0
  0
BLOCK_RECORD
  5
1EF0
330
1
100
AcDbSymbolTableRecord
100
AcDbBlockTableRecord
  2
*D35
340
0
  0
BLOCK_RECORD
  5
1EFE
330
1
100
AcDbSymbolTableRecord
100
AcDbBlockTableRecord
  2
*D36
340
0
  0
BLOCK_RECORD
  5
2608
330
1
100
AcDbSymbolTableRecord
100
AcDbBlockTableRecord
  2
*D48
340
0
  0
BLOCK_RECORD
  5
2712
330
1
100
AcDbSymbolTableRecord
100
AcDbBlockTableRecord
  2
A$C43346cd4
340
0
102
{BLKREFS
331
2726
102
}
  0
BLOCK_RECORD
  5
27E7
330
1
100
AcDbSymbolTableRecord
100
AcDbBlockTableRecord
  2
A$C064f6f27
340
0
102
{BLKREFS
331
27F8
102
}
  0
BLOCK_RECORD
  5
27F5
330
1
100
AcDbSymbolTableRecord
100
AcDbBlockTableRecord
  2
A$C5abbbf07
340
0
102
{BLKREFS
331
2801
102
}
  0
ENDTAB
  0
ENDSEC
  0
SECTION
  2
BLOCKS
  0
BLOCK
  5
5D
330
2
100
AcDbEntity
  8
0
100
AcDbBlockBegin
  2
*MODEL_SPACE
 70
     0
 10
0.0
 20
0.0
 30
0.0
  3
*MODEL_SPACE
  1

  0
ENDBLK
  5
5F
330
2
100
AcDbEntity
  8
0
100
AcDbBlockEnd
  0
BLOCK
  5
2903
330
2901
100
AcDbEntity
 67
     1
  8
0
100
AcDbBlockBegin
  2
*Paper_Space
 70
     0
 10
0.0
 20
0.0
 30
0.0
  3
*Paper_Space
  1

  0
ENDBLK
  5
2904
330
2901
100
AcDbEntity
 67
     1
  8
0
100
AcDbBlockEnd
  0
BLOCK
  5
4B0
330
4AC
100
AcDbEntity
  8
0
100
AcDbBlockBegin
  2
黒丸矢印1
 70
     0
 10
0.0
 20
0.0
 30
0.0
  3
黒丸矢印1
  1

  0
HATCH
  5
4AD
330
4AC
100
AcDbEntity
  8
0
100
AcDbHatch
 10
0.0
 20
0.0
 30
0.0
210
0.0
220
0.0
230
1.0
  2
SOLID
 70
     1
 71
     1
 91
        1
 92
        7
 72
     1
 73
     1
 93
        2
 10
-0.25
 20
0.0
 42
1.0
 10
0.25
 20
0.0
 42
1.0
 97
        1
330
4AE
 75
     0
 76
     1
 47
0.0031599728
 98
        1
 10
-0.0919668375711354
 20
0.0618998464179867
  0
CIRCLE
  5
4AE
102
{ACAD_REACTORS
330
4AD
102
}
330
4AC
100
AcDbEntity
  8
0
100
AcDbCircle
 10
0.0
 20
0.0
 30
0.0
 40
0.25
  0
LINE
  5
4AF
330
4AC
100
AcDbEntity
  8
0
100
AcDbLine
 10
0.0
 20
0.0
 30
0.0
 11
-1.0
 21
0.0
 31
0.0
  0
ENDBLK
  5
4B1
330
4AC
100
AcDbEntity
  8
0
100
AcDbBlockEnd
  0
BLOCK
  5
1392
330
1388
100
AcDbEntity
  8
0
100
AcDbBlockBegin
  2
*D2
 70
     1
 10
0.0
 20
0.0
 30
0.0
  3
*D2
  1

  0
POINT
  5
1E5C
330
1388
100
AcDbEntity
  8
DEFPOINTS
 62
     0
100
AcDbPoint
 10
627.1822167495
 20
182.6102509652
 30
0.0
  0
POINT
  5
1E5D
330
1388
100
AcDbEntity
  8
DEFPOINTS
 62
     0
100
AcDbPoint
 10
681.1822167495
 20
193.9820159652
 30
0.0
  0
POINT
  5
1E5E
330
1388
100
AcDbEntity
  8
DEFPOINTS
 62
     0
100
AcDbPoint
 10
681.1822167495
 20
229.0554783618
 30
0.0
  0
ENDBLK
  5
1393
330
1388
100
AcDbEntity
  8
0
100
AcDbBlockEnd
  0
BLOCK
  5
139E
330
1394
100
AcDbEntity
  8
0
100
AcDbBlockBegin
  2
*D3
 70
     1
 10
0.0
 20
0.0
 30
0.0
  3
*D3
  1

  0
POINT
  5
1E6E
330
1394
100
AcDbEntity
  8
DEFPOINTS
 62
     0
100
AcDbPoint
 10
627.1822167495
 20
182.6102509652
 30
0.0
  0
POINT
  5
1E6F
330
1394
100
AcDbEntity
  8
DEFPOINTS
 62
     0
100
AcDbPoint
 10
595.1822167495
 20
193.9820159652
 30
0.0
  0
POINT
  5
1E70
330
1394
100
AcDbEntity
  8
DEFPOINTS
 62
     0
100
AcDbPoint
 10
595.1822167495
 20
229.0554783618
 30
0.0
  0
ENDBLK
  5
139F
330
1394
100
AcDbEntity
  8
0
100
AcDbBlockEnd
  0
BLOCK
  5
13AA
330
13A0
100
AcDbEntity
  8
0
100
AcDbBlockBegin
  2
*D4
 70
     1
 10
0.0
 20
0.0
 30
0.0
  3
*D4
  1

  0
POINT
  5
1E65
330
13A0
100
AcDbEntity
  8
DEFPOINTS
 62
     0
100
AcDbPoint
 10
627.1822167495
 20
182.6102509652
 30
0.0
  0
POINT
  5
1E66
330
13A0
100
AcDbEntity
  8
DEFPOINTS
 62
     0
100
AcDbPoint
 10
588.1822167495
 20
186.0033779652
 30
0.0
  0
POINT
  5
1E67
330
13A0
100
AcDbEntity
  8
DEFPOINTS
 62
     0
100
AcDbPoint
 10
588.1822167495
 20
246.9774160308
 30
0.0
  0
ENDBLK
  5
13AB
330
13A0
100
AcDbEntity
  8
0
100
AcDbBlockEnd
  0
BLOCK
  5
13B6
330
13AC
100
AcDbEntity
  8
0
100
AcDbBlockBegin
  2
*D5
 70
     1
 10
0.0
 20
0.0
 30
0.0
  3
*D5
  1

  0
POINT
  5
1E53
330
13AC
100
AcDbEntity
  8
DEFPOINTS
 62
     0
100
AcDbPoint
 10
627.1822167495
 20
182.6102509652
 30
0.0
  0
POINT
  5
1E54
330
13AC
100
AcDbEntity
  8
DEFPOINTS
 62
     0
100
AcDbPoint
 10
688.1822167495
 20
186.0033779652
 30
0.0
  0
POINT
  5
1E55
330
13AC
100
AcDbEntity
  8
DEFPOINTS
 62
     0
100
AcDbPoint
 10
688.1822167495
 20
246.9774160308
 30
0.0
  0
ENDBLK
  5
13B7
330
13AC
100
AcDbEntity
  8
0
100
AcDbBlockEnd
  0
BLOCK
  5
13C2
330
13B8
100
AcDbEntity
  8
0
100
AcDbBlockBegin
  2
*D6
 70
     1
 10
0.0
 20
0.0
 30
0.0
  3
*D6
  1

  0
POINT
  5
1EBA
330
13B8
100
AcDbEntity
  8
DEFPOINTS
 62
     0
100
AcDbPoint
 10
814.7376977495
 20
192.5033779652
 30
0.0
  0
POINT
  5
1EBB
330
13B8
100
AcDbEntity
  8
DEFPOINTS
 62
     0
100
AcDbPoint
 10
814.7376977495
 20
112.5033779652
 30
0.0
  0
POINT
  5
1EBC
330
13B8
100
AcDbEntity
  8
DEFPOINTS
 62
     0
100
AcDbPoint
 10
843.6655519758
 20
112.5033779652
 30
0.0
  0
ENDBLK
  5
13C3
330
13B8
100
AcDbEntity
  8
0
100
AcDbBlockEnd
  0
BLOCK
  5
13D0
330
13C4
100
AcDbEntity
  8
0
100
AcDbBlockBegin
  2
*D7
 70
     1
 10
0.0
 20
0.0
 30
0.0
  3
*D7
  1

  0
POINT
  5
1EB1
330
13C4
100
AcDbEntity
  8
DEFPOINTS
 62
     0
100
AcDbPoint
 10
625.1822167495
 20
160.3033809652
 30
0.0
  0
POINT
  5
1EB2
330
13C4
100
AcDbEntity
  8
DEFPOINTS
 62
     0
100
AcDbPoint
 10
629.1822167495
 20
160.3033809652
 30
0.0
  0
POINT
  5
1EB3
330
13C4
100
AcDbEntity
  8
DEFPOINTS
 62
     0
100
AcDbPoint
 10
629.1822167495
 20
210.8518275591
 30
0.0
  0
ENDBLK
  5
13D1
330
13C4
100
AcDbEntity
  8
0
100
AcDbBlockEnd
  0
BLOCK
  5
13DC
330
13D2
100
AcDbEntity
  8
0
100
AcDbBlockBegin
  2
*D8
 70
     1
 10
0.0
 20
0.0
 30
0.0
  3
*D8
  1

  0
POINT
  5
1E92
330
13D2
100
AcDbEntity
  8
DEFPOINTS
 62
     0
100
AcDbPoint
 10
580.6414457495
 20
152.5033779652
 30
0.0
  0
POINT
  5
1E93
330
13D2
100
AcDbEntity
  8
DEFPOINTS
 62
     0
100
AcDbPoint
 10
587.2035787495
 20
186.0033779652
 30
0.0
  0
POINT
  5
1E94
330
13D2
100
AcDbEntity
  8
DEFPOINTS
 62
     0
100
AcDbPoint
 10
552.3000515631
 20
186.0033779652
 30
0.0
  0
ENDBLK
  5
13DD
330
13D2
100
AcDbEntity
  8
0
100
AcDbBlockEnd
  0
BLOCK
  5
13E8
330
13DE
100
AcDbEntity
  8
0
100
AcDbBlockBegin
  2
*D9
 70
     1
 10
0.0
 20
0.0
 30
0.0
  3
*D9
  1

  0
POINT
  5
1E89
330
13DE
100
AcDbEntity
  8
DEFPOINTS
 62
     0
100
AcDbPoint
 10
580.6414457495
 20
152.5033779652
 30
0.0
  0
POINT
  5
1E8A
330
13DE
100
AcDbEntity
  8
DEFPOINTS
 62
     0
100
AcDbPoint
 10
595.1822167495
 20
193.0033779652
 30
0.0
  0
POINT
  5
1E8B
330
13DE
100
AcDbEntity
  8
DEFPOINTS
 62
     0
100
AcDbPoint
 10
534.6410926954
 20
193.0033779652
 30
0.0
  0
ENDBLK
  5
13E9
330
13DE
100
AcDbEntity
  8
0
100
AcDbBlockEnd
  0
BLOCK
  5
13F4
330
13EA
100
AcDbEntity
  8
0
100
AcDbBlockBegin
  2
*D10
 70
     1
 10
0.0
 20
0.0
 30
0.0
  3
*D10
  1

  0
POINT
  5
1E4A
330
13EA
100
AcDbEntity
  8
DEFPOINTS
 62
     0
100
AcDbPoint
 10
588.1822167495
 20
186.0033779652
 30
0.0
  0
POINT
  5
1E4B
330
13EA
100
AcDbEntity
  8
DEFPOINTS
 62
     0
100
AcDbPoint
 10
819.7376977495
 20
187.5033779652
 30
0.0
  0
POINT
  5
1E4C
330
13EA
100
AcDbEntity
  8
DEFPOINTS
 62
     0
100
AcDbPoint
 10
819.7376977495
 20
283.3160320379
 30
0.0
  0
ENDBLK
  5
13F5
330
13EA
100
AcDbEntity
  8
0
100
AcDbBlockEnd
  0
BLOCK
  5
1400
330
13F6
100
AcDbEntity
  8
0
100
AcDbBlockBegin
  2
*D11
 70
     1
 10
0.0
 20
0.0
 30
0.0
  3
*D11
  1

  0
POINT
  5
1EA6
330
13F6
100
AcDbEntity
  8
DEFPOINTS
 62
     0
100
AcDbPoint
 10
627.1822167495
 20
146.5033779652
 30
0.0
  0
POINT
  5
1EA7
330
13F6
100
AcDbEntity
  8
DEFPOINTS
 62
     0
100
AcDbPoint
 10
625.1822167495
 20
160.3033809652
 30
0.0
  0
POINT
  5
1EA8
330
13F6
100
AcDbEntity
  8
DEFPOINTS
 62
     0
100
AcDbPoint
 10
570.5896836372
 20
160.3033809652
 30
0.0
  0
ENDBLK
  5
1401
330
13F6
100
AcDbEntity
  8
0
100
AcDbBlockEnd
  0
BLOCK
  5
140C
330
1402
100
AcDbEntity
  8
0
100
AcDbBlockBegin
  2
*D12
 70
     1
 10
0.0
 20
0.0
 30
0.0
  3
*D12
  1

  0
POINT
  5
1E77
330
1402
100
AcDbEntity
  8
DEFPOINTS
 62
     0
100
AcDbPoint
 10
580.6414457495
 20
152.5033779652
 30
0.0
  0
POINT
  5
1E78
330
1402
100
AcDbEntity
  8
DEFPOINTS
 62
     0
100
AcDbPoint
 10
587.2035787495
 20
119.0033779652
 30
0.0
  0
POINT
  5
1E79
330
1402
100
AcDbEntity
  8
DEFPOINTS
 62
     0
100
AcDbPoint
 10
552.3000515631
 20
119.0033779652
 30
0.0
  0
ENDBLK
  5
140D
330
1402
100
AcDbEntity
  8
0
100
AcDbBlockEnd
  0
BLOCK
  5
1418
330
140E
100
AcDbEntity
  8
0
100
AcDbBlockBegin
  2
*D13
 70
     1
 10
0.0
 20
0.0
 30
0.0
  3
*D13
  1

  0
POINT
  5
1E80
330
140E
100
AcDbEntity
  8
DEFPOINTS
 62
     0
100
AcDbPoint
 10
580.6414457495
 20
152.5033779652
 30
0.0
  0
POINT
  5
1E81
330
140E
100
AcDbEntity
  8
DEFPOINTS
 62
     0
100
AcDbPoint
 10
595.1822167495
 20
112.0033779652
 30
0.0
  0
POINT
  5
1E82
330
140E
100
AcDbEntity
  8
DEFPOINTS
 62
     0
100
AcDbPoint
 10
534.6410926954
 20
112.0033779652
 30
0.0
  0
ENDBLK
  5
1419
330
140E
100
AcDbEntity
  8
0
100
AcDbBlockEnd
  0
BLOCK
  5
1424
330
141A
100
AcDbEntity
  8
0
100
AcDbBlockBegin
  2
*D14
 70
     1
 10
0.0
 20
0.0
 30
0.0
  3
*D14
  1

  0
POINT
  5
1E41
330
141A
100
AcDbEntity
  8
DEFPOINTS
 62
     0
100
AcDbPoint
 10
688.1822167495
 20
186.0033779652
 30
0.0
  0
POINT
  5
1E42
330
141A
100
AcDbEntity
  8
DEFPOINTS
 62
     0
100
AcDbPoint
 10
588.1822167495
 20
186.0033779652
 30
0.0
  0
POINT
  5
1E43
330
141A
100
AcDbEntity
  8
DEFPOINTS
 62
     0
100
AcDbPoint
 10
588.1822167495
 20
264.9710755228
 30
0.0
  0
ENDBLK
  5
1425
330
141A
100
AcDbEntity
  8
0
100
AcDbBlockEnd
  0
BLOCK
  5
1430
330
1426
100
AcDbEntity
  8
0
100
AcDbBlockBegin
  2
*D15
 70
     1
 10
0.0
 20
0.0
 30
0.0
  3
*D15
  1

  0
POINT
  5
1E9B
330
1426
100
AcDbEntity
  8
DEFPOINTS
 62
     0
100
AcDbPoint
 10
595.1822167495
 20
112.0033779652
 30
0.0
  0
POINT
  5
1E9C
330
1426
100
AcDbEntity
  8
DEFPOINTS
 62
     0
100
AcDbPoint
 10
595.1822167495
 20
193.0033779652
 30
0.0
  0
POINT
  5
1E9D
330
1426
100
AcDbEntity
  8
DEFPOINTS
 62
     0
100
AcDbPoint
 10
516.5616850234
 20
193.0033779652
 30
0.0
  0
ENDBLK
  5
1431
330
1426
100
AcDbEntity
  8
0
100
AcDbBlockEnd
  0
BLOCK
  5
143C
330
1432
100
AcDbEntity
  8
0
100
AcDbBlockBegin
  2
*D16
 70
     1
 10
0.0
 20
0.0
 30
0.0
  3
*D16
  1

  0
POINT
  5
1DE1
330
1432
100
AcDbEntity
  8
DEFPOINTS
 62
     0
100
AcDbPoint
 10
404.3475393157
 20
200.0515039652
 30
0.0
  0
POINT
  5
1DE2
330
1432
100
AcDbEntity
  8
DEFPOINTS
 62
     0
100
AcDbPoint
 10
455.3475393157
 20
165.4794829652
 30
0.0
  0
POINT
  5
1DE3
330
1432
100
AcDbEntity
  8
DEFPOINTS
 62
     0
100
AcDbPoint
 10
455.3475393157
 20
264.9710755228
 30
0.0
  0
ENDBLK
  5
143D
330
1432
100
AcDbEntity
  8
0
100
AcDbBlockEnd
  0
BLOCK
  5
1448
330
143E
100
AcDbEntity
  8
0
100
AcDbBlockBegin
  2
*D17
 70
     1
 10
0.0
 20
0.0
 30
0.0
  3
*D17
  1

  0
POINT
  5
1DFC
330
143E
100
AcDbEntity
  8
DEFPOINTS
 62
     0
100
AcDbPoint
 10
404.3475393157
 20
200.0515039652
 30
0.0
  0
POINT
  5
1DFD
330
143E
100
AcDbEntity
  8
DEFPOINTS
 62
     0
100
AcDbPoint
 10
353.3475393157
 20
165.4794829652
 30
0.0
  0
POINT
  5
1DFE
330
143E
100
AcDbEntity
  8
DEFPOINTS
 62
     0
100
AcDbPoint
 10
353.3475393157
 20
264.9710755228
 30
0.0
  0
ENDBLK
  5
1449
330
143E
100
AcDbEntity
  8
0
100
AcDbBlockEnd
  0
BLOCK
  5
1454
330
144A
100
AcDbEntity
  8
0
100
AcDbBlockBegin
  2
*D18
 70
     1
 10
0.0
 20
0.0
 30
0.0
  3
*D18
  1

  0
POINT
  5
1E24
330
144A
100
AcDbEntity
  8
DEFPOINTS
 62
     0
100
AcDbPoint
 10
363.8475393157
 20
123.2533779652
 30
0.0
  0
POINT
  5
1E25
330
144A
100
AcDbEntity
  8
DEFPOINTS
 62
     0
100
AcDbPoint
 10
363.8475393157
 20
114.7533779652
 30
0.0
  0
POINT
  5
1E26
330
144A
100
AcDbEntity
  8
DEFPOINTS
 62
     0
100
AcDbPoint
 10
344.1991902541
 20
114.7533779652
 30
0.0
  0
ENDBLK
  5
1455
330
144A
100
AcDbEntity
  8
0
100
AcDbBlockEnd
  0
BLOCK
  5
1460
330
1456
100
AcDbEntity
  8
0
100
AcDbBlockBegin
  2
*D19
 70
     1
 10
0.0
 20
0.0
 30
0.0
  3
*D19
  1

  0
POINT
  5
1E19
330
1456
100
AcDbEntity
  8
DEFPOINTS
 62
     0
100
AcDbPoint
 10
376.3475393157
 20
112.4921169652
 30
0.0
  0
POINT
  5
1E1A
330
1456
100
AcDbEntity
  8
DEFPOINTS
 62
     0
100
AcDbPoint
 10
363.8475393157
 20
112.7103099652
 30
0.0
  0
POINT
  5
1E1B
330
1456
100
AcDbEntity
  8
DEFPOINTS
 62
     0
100
AcDbPoint
 10
363.8475393157
 20
88.8261906245
 30
0.0
  0
ENDBLK
  5
1461
330
1456
100
AcDbEntity
  8
0
100
AcDbBlockEnd
  0
BLOCK
  5
146C
330
1462
100
AcDbEntity
  8
0
100
AcDbBlockBegin
  2
*D20
 70
     1
 10
0.0
 20
0.0
 30
0.0
  3
*D20
  1

  0
POINT
  5
1E38
330
1462
100
AcDbEntity
  8
DEFPOINTS
 62
     0
100
AcDbPoint
 10
376.3475393157
 20
112.4921210763
 30
0.0
  0
POINT
  5
1E39
330
1462
100
AcDbEntity
  8
DEFPOINTS
 62
     0
100
AcDbPoint
 10
396.3475393157
 20
115.0033779652
 30
0.0
  0
POINT
  5
1E3A
330
1462
100
AcDbEntity
  8
DEFPOINTS
 62
     0
100
AcDbPoint
 10
396.3475393157
 20
88.8261906245
 30
0.0
  0
ENDBLK
  5
146D
330
1462
100
AcDbEntity
  8
0
100
AcDbBlockEnd
  0
BLOCK
  5
1485
330
147B
100
AcDbEntity
  8
0
100
AcDbBlockBegin
  2
*D21
 70
     1
 10
0.0
 20
0.0
 30
0.0
  3
*D21
  1

  0
POINT
  5
1DF3
330
147B
100
AcDbEntity
  8
DEFPOINTS
 62
     0
100
AcDbPoint
 10
412.3475393157
 20
115.0033779652
 30
0.0
  0
POINT
  5
1DF4
330
147B
100
AcDbEntity
  8
DEFPOINTS
 62
     0
100
AcDbPoint
 10
444.8475393157
 20
112.7103099652
 30
0.0
  0
POINT
  5
1DF5
330
147B
100
AcDbEntity
  8
DEFPOINTS
 62
     0
100
AcDbPoint
 10
444.8475393157
 20
70.8961615965
 30
0.0
  0
ENDBLK
  5
1486
330
147B
100
AcDbEntity
  8
0
100
AcDbBlockEnd
  0
BLOCK
  5
1491
330
1487
100
AcDbEntity
  8
0
100
AcDbBlockBegin
  2
*D22
 70
     1
 10
0.0
 20
0.0
 30
0.0
  3
*D22
  1

  0
POINT
  5
1E05
330
1487
100
AcDbEntity
  8
DEFPOINTS
 62
     0
100
AcDbPoint
 10
396.3475393157
 20
115.0033779652
 30
0.0
  0
POINT
  5
1E06
330
1487
100
AcDbEntity
  8
DEFPOINTS
 62
     0
100
AcDbPoint
 10
363.8475393157
 20
112.7103099652
 30
0.0
  0
POINT
  5
1E07
330
1487
100
AcDbEntity
  8
DEFPOINTS
 62
     0
100
AcDbPoint
 10
363.8475393157
 20
70.8961615965
 30
0.0
  0
ENDBLK
  5
1492
330
1487
100
AcDbEntity
  8
0
100
AcDbBlockEnd
  0
BLOCK
  5
149D
330
1493
100
AcDbEntity
  8
0
100
AcDbBlockBegin
  2
*D23
 70
     1
 10
0.0
 20
0.0
 30
0.0
  3
*D23
  1

  0
POINT
  5
1DD8
330
1493
100
AcDbEntity
  8
DEFPOINTS
 62
     0
100
AcDbPoint
 10
363.8475393157
 20
112.7103099652
 30
0.0
  0
POINT
  5
1DD9
330
1493
100
AcDbEntity
  8
DEFPOINTS
 62
     0
100
AcDbPoint
 10
444.8475393157
 20
112.7103099652
 30
0.0
  0
POINT
  5
1DDA
330
1493
100
AcDbEntity
  8
DEFPOINTS
 62
     0
100
AcDbPoint
 10
444.8475393157
 20
34.9740248749
 30
0.0
  0
ENDBLK
  5
149E
330
1493
100
AcDbEntity
  8
0
100
AcDbBlockEnd
  0
BLOCK
  5
14A9
330
149F
100
AcDbEntity
  8
0
100
AcDbBlockBegin
  2
*D24
 70
     1
 10
0.0
 20
0.0
 30
0.0
  3
*D24
  1

  0
POINT
  5
1DEA
330
149F
100
AcDbEntity
  8
DEFPOINTS
 62
     0
100
AcDbPoint
 10
404.3475393157
 20
104.9552519652
 30
0.0
  0
POINT
  5
1DEB
330
149F
100
AcDbEntity
  8
DEFPOINTS
 62
     0
100
AcDbPoint
 10
444.8475393157
 20
112.7103099652
 30
0.0
  0
POINT
  5
1DEC
330
149F
100
AcDbEntity
  8
DEFPOINTS
 62
     0
100
AcDbPoint
 10
444.8475393157
 20
52.9193203634
 30
0.0
  0
ENDBLK
  5
14AA
330
149F
100
AcDbEntity
  8
0
100
AcDbBlockEnd
  0
BLOCK
  5
14B5
330
14AB
100
AcDbEntity
  8
0
100
AcDbBlockBegin
  2
*D25
 70
     1
 10
0.0
 20
0.0
 30
0.0
  3
*D25
  1

  0
POINT
  5
1E0E
330
14AB
100
AcDbEntity
  8
DEFPOINTS
 62
     0
100
AcDbPoint
 10
404.3475393157
 20
104.9552519652
 30
0.0
  0
POINT
  5
1E0F
330
14AB
100
AcDbEntity
  8
DEFPOINTS
 62
     0
100
AcDbPoint
 10
363.8475393157
 20
112.7103099652
 30
0.0
  0
POINT
  5
1E10
330
14AB
100
AcDbEntity
  8
DEFPOINTS
 62
     0
100
AcDbPoint
 10
363.8475393157
 20
52.9193203634
 30
0.0
  0
ENDBLK
  5
14B6
330
14AB
100
AcDbEntity
  8
0
100
AcDbBlockEnd
  0
BLOCK
  5
14CD
330
14C3
100
AcDbEntity
  8
0
100
AcDbBlockBegin
  2
*D26
 70
     1
 10
0.0
 20
0.0
 30
0.0
  3
*D26
  1

  0
POINT
  5
1CE7
330
14C3
100
AcDbEntity
  8
DEFPOINTS
 62
     0
100
AcDbPoint
 10
184.6973167633
 20
332.3512096297
 30
0.0
  0
POINT
  5
1CE8
330
14C3
100
AcDbEntity
  8
DEFPOINTS
 62
     0
100
AcDbPoint
 10
190.1974087633
 20
362.1442856297
 30
0.0
  0
POINT
  5
1CE9
330
14C3
100
AcDbEntity
  8
DEFPOINTS
 62
     0
100
AcDbPoint
 10
190.1974087633
 20
435.5641713724
 30
0.0
  0
ENDBLK
  5
14CE
330
14C3
100
AcDbEntity
  8
0
100
AcDbBlockEnd
  0
BLOCK
  5
14DA
330
14CF
100
AcDbEntity
  8
0
100
AcDbBlockBegin
  2
*D27
 70
     1
 10
0.0
 20
0.0
 30
0.0
  3
*D27
  1

  0
POINT
  5
1D2C
330
14CF
100
AcDbEntity
  8
DEFPOINTS
 62
     0
100
AcDbPoint
 10
182.6973167633
 20
316.3512096297
 30
0.0
  0
POINT
  5
1D2D
330
14CF
100
AcDbEntity
  8
DEFPOINTS
 62
     0
100
AcDbPoint
 10
182.6973167633
 20
328.3512096297
 30
0.0
  0
POINT
  5
1D2E
330
14CF
100
AcDbEntity
  8
DEFPOINTS
 62
     0
100
AcDbPoint
 10
223.9446094561
 20
328.3512096297
 30
0.0
  0
ENDBLK
  5
14DB
330
14CF
100
AcDbEntity
  8
0
100
AcDbBlockEnd
  0
BLOCK
  5
14E6
330
14DC
100
AcDbEntity
  8
0
100
AcDbBlockBegin
  2
*D28
 70
     1
 10
0.0
 20
0.0
 30
0.0
  3
*D28
  1

  0
POINT
  5
1D49
330
14DC
100
AcDbEntity
  8
DEFPOINTS
 62
     0
100
AcDbPoint
 10
184.6973167633
 20
312.3512096297
 30
0.0
  0
POINT
  5
1D4A
330
14DC
100
AcDbEntity
  8
DEFPOINTS
 62
     0
100
AcDbPoint
 10
184.6973167633
 20
332.3512096297
 30
0.0
  0
POINT
  5
1D4B
330
14DC
100
AcDbEntity
  8
DEFPOINTS
 62
     0
100
AcDbPoint
 10
241.847449924
 20
332.3512096297
 30
0.0
  0
ENDBLK
  5
14E7
330
14DC
100
AcDbEntity
  8
0
100
AcDbBlockEnd
  0
BLOCK
  5
14F2
330
14E8
100
AcDbEntity
  8
0
100
AcDbBlockBegin
  2
*D29
 70
     1
 10
0.0
 20
0.0
 30
0.0
  3
*D29
  1

  0
POINT
  5
2107
330
14E8
100
AcDbEntity
  8
DEFPOINTS
 62
     0
100
AcDbPoint
 10
187.6974087633
 20
302.8512096297
 30
0.0
  0
POINT
  5
2108
330
14E8
100
AcDbEntity
  8
DEFPOINTS
 62
     0
100
AcDbPoint
 10
187.6974087633
 20
341.8512096297
 30
0.0
  0
POINT
  5
2109
330
14E8
100
AcDbEntity
  8
DEFPOINTS
 62
     0
100
AcDbPoint
 10
260.0097511464
 20
341.8512096297
 30
0.0
  0
ENDBLK
  5
14F3
330
14E8
100
AcDbEntity
  8
0
100
AcDbBlockEnd
  0
BLOCK
  5
150A
330
1500
100
AcDbEntity
  8
0
100
AcDbBlockBegin
  2
*D30
 70
     1
 10
0.0
 20
0.0
 30
0.0
  3
*D30
  1

  0
POINT
  5
1D16
330
1500
100
AcDbEntity
  8
DEFPOINTS
 62
     0
100
AcDbPoint
 10
134.6975007633
 20
328.8512096297
 30
0.0
  0
POINT
  5
1D17
330
1500
100
AcDbEntity
  8
DEFPOINTS
 62
     0
100
AcDbPoint
 10
164.6973167633
 20
328.8512096297
 30
0.0
  0
POINT
  5
1D18
330
1500
100
AcDbEntity
  8
DEFPOINTS
 62
     0
100
AcDbPoint
 10
164.6973167633
 20
417.7922348755
 30
0.0
  0
ENDBLK
  5
150B
330
1500
100
AcDbEntity
  8
0
100
AcDbBlockEnd
  0
BLOCK
  5
1516
330
150C
100
AcDbEntity
  8
0
100
AcDbBlockBegin
  2
*D31
 70
     1
 10
0.0
 20
0.0
 30
0.0
  3
*D31
  1

  0
POINT
  5
1D0D
330
150C
100
AcDbEntity
  8
DEFPOINTS
 62
     0
100
AcDbPoint
 10
164.6973167633
 20
328.8512096297
 30
0.0
  0
POINT
  5
1D0E
330
150C
100
AcDbEntity
  8
DEFPOINTS
 62
     0
100
AcDbPoint
 10
184.6973167633
 20
332.3512096297
 30
0.0
  0
POINT
  5
1D0F
330
150C
100
AcDbEntity
  8
DEFPOINTS
 62
     0
100
AcDbPoint
 10
184.6973167633
 20
417.7922348755
 30
0.0
  0
ENDBLK
  5
1517
330
150C
100
AcDbEntity
  8
0
100
AcDbBlockEnd
  0
BLOCK
  5
1522
330
1518
100
AcDbEntity
  8
0
100
AcDbBlockBegin
  2
*D32
 70
     1
 10
0.0
 20
0.0
 30
0.0
  3
*D32
  1

  0
POINT
  5
1D04
330
1518
100
AcDbEntity
  8
DEFPOINTS
 62
     0
100
AcDbPoint
 10
134.6975007633
 20
328.8512096297
 30
0.0
  0
POINT
  5
1D05
330
1518
100
AcDbEntity
  8
DEFPOINTS
 62
     0
100
AcDbPoint
 10
114.6975007633
 20
332.3512096297
 30
0.0
  0
POINT
  5
1D06
330
1518
100
AcDbEntity
  8
DEFPOINTS
 62
     0
100
AcDbPoint
 10
114.6975007633
 20
417.7922348755
 30
0.0
  0
ENDBLK
  5
1523
330
1518
100
AcDbEntity
  8
0
100
AcDbBlockEnd
  0
BLOCK
  5
152E
330
1524
100
AcDbEntity
  8
0
100
AcDbBlockBegin
  2
*D33
 70
     1
 10
0.0
 20
0.0
 30
0.0
  3
*D33
  1

  0
POINT
  5
1CFB
330
1524
100
AcDbEntity
  8
DEFPOINTS
 62
     0
100
AcDbPoint
 10
184.6973167633
 20
332.3512096297
 30
0.0
  0
POINT
  5
1CFC
330
1524
100
AcDbEntity
  8
DEFPOINTS
 62
     0
100
AcDbPoint
 10
114.6975007633
 20
332.3512096297
 30
0.0
  0
POINT
  5
1CFD
330
1524
100
AcDbEntity
  8
DEFPOINTS
 62
     0
100
AcDbPoint
 10
114.6975007633
 20
435.5641713724
 30
0.0
  0
ENDBLK
  5
152F
330
1524
100
AcDbEntity
  8
0
100
AcDbBlockEnd
  0
BLOCK
  5
153A
330
1530
100
AcDbEntity
  8
0
100
AcDbBlockBegin
  2
*D34
 70
     1
 10
0.0
 20
0.0
 30
0.0
  3
*D34
  1

  0
POINT
  5
1CF2
330
1530
100
AcDbEntity
  8
DEFPOINTS
 62
     0
100
AcDbPoint
 10
114.6975007633
 20
332.3512096297
 30
0.0
  0
POINT
  5
1CF3
330
1530
100
AcDbEntity
  8
DEFPOINTS
 62
     0
100
AcDbPoint
 10
109.1974087633
 20
362.1442856297
 30
0.0
  0
POINT
  5
1CF4
330
1530
100
AcDbEntity
  8
DEFPOINTS
 62
     0
100
AcDbPoint
 10
109.1974087633
 20
435.5641713724
 30
0.0
  0
ENDBLK
  5
153B
330
1530
100
AcDbEntity
  8
0
100
AcDbBlockEnd
  0
BLOCK
  5
1EFC
330
1EF0
100
AcDbEntity
  8
0
100
AcDbBlockBegin
  2
*D35
 70
     1
 10
0.0
 20
0.0
 30
0.0
  3
*D35
  1

  0
POINT
  5
1F35
330
1EF0
100
AcDbEntity
  8
DEFPOINTS
 62
     0
100
AcDbPoint
 10
176.6973167633
 20
328.6012096297
 30
0.0
  0
POINT
  5
1F36
330
1EF0
100
AcDbEntity
  8
DEFPOINTS
 62
     0
100
AcDbPoint
 10
184.6973167633
 20
332.3512096297
 30
0.0
  0
POINT
  5
1F37
330
1EF0
100
AcDbEntity
  8
DEFPOINTS
 62
     0
100
AcDbPoint
 10
184.6973167633
 20
399.5585474576
 30
0.0
  0
ENDBLK
  5
1EFD
330
1EF0
100
AcDbEntity
  8
0
100
AcDbBlockEnd
  0
BLOCK
  5
1F0A
330
1EFE
100
AcDbEntity
  8
0
100
AcDbBlockBegin
  2
*D36
 70
     1
 10
0.0
 20
0.0
 30
0.0
  3
*D36
  1

  0
POINT
  5
1F2A
330
1EFE
100
AcDbEntity
  8
DEFPOINTS
 62
     0
100
AcDbPoint
 10
122.6975007633
 20
328.6012096297
 30
0.0
  0
POINT
  5
1F2B
330
1EFE
100
AcDbEntity
  8
DEFPOINTS
 62
     0
100
AcDbPoint
 10
114.6975007633
 20
332.3512096297
 30
0.0
  0
POINT
  5
1F2C
330
1EFE
100
AcDbEntity
  8
DEFPOINTS
 62
     0
100
AcDbPoint
 10
114.6975007633
 20
399.5585474576
 30
0.0
  0
ENDBLK
  5
1F0B
330
1EFE
100
AcDbEntity
  8
0
100
AcDbBlockEnd
  0
BLOCK
  5
2609
330
2608
100
AcDbEntity
  8
0
100
AcDbBlockBegin
  2
*D48
 70
     1
 10
0.0
 20
0.0
 30
0.0
  3
*D48
  1

  0
POINT
  5
261E
330
2608
100
AcDbEntity
  8
DEFPOINTS
 62
     0
100
AcDbPoint
 10
404.5104701526
 20
122.2033779652
 30
0.0
  0
POINT
  5
261F
330
2608
100
AcDbEntity
  8
DEFPOINTS
 62
     0
100
AcDbPoint
 10
405.0194727038
 20
115.8033779652
 30
0.0
  0
POINT
  5
2620
330
2608
100
AcDbEntity
  8
DEFPOINTS
 62
     0
100
AcDbPoint
 10
405.6996523316
 20
115.8033779652
 30
0.0
  0
ENDBLK
  5
260A
330
2608
100
AcDbEntity
  8
0
100
AcDbBlockEnd
  0
BLOCK
  5
2713
330
2712
100
AcDbEntity
  8
0
100
AcDbBlockBegin
  2
A$C43346cd4
 70
     0
 10
0.0
 20
0.0
 30
0.0
  3
A$C43346cd4
  1

  0
LINE
  5
2714
330
2712
100
AcDbEntity
  8
0
100
AcDbLine
 10
-3.8
 20
0.0
 30
0.0
 11
3.8
 21
0.0
 31
0.0
  0
LINE
  5
2715
330
2712
100
AcDbEntity
  8
0
  6
CENS
 62
     3
100
AcDbLine
 10
0.0
 20
4.4057969553
 30
0.0
 11
0.0
 21
-6.316029279
 31
0.0
  0
ARC
  5
2716
330
2712
100
AcDbEntity
  8
0
100
AcDbCircle
 10
0.0
 20
-5.4
 30
0.0
 40
9.000000000010642
100
AcDbArc
 50
77.3231615211
 51
102.6768384789
  0
ARC
  5
2717
330
2712
100
AcDbEntity
  8
0
100
AcDbCircle
 10
-1.6239435541
 20
1.8196126858
 30
0.0
 40
1.59999999999961
100
AcDbArc
 50
102.6768384789
 51
165.0
  0
LINE
  5
2718
330
2712
100
AcDbEntity
  8
0
100
AcDbLine
 10
-3.5
 20
1.0
 30
0.0
 11
-3.1694248761
 21
2.233723158
 31
0.0
  0
ARC
  5
2719
330
2712
100
AcDbEntity
  8
0
100
AcDbCircle
 10
1.6239435541
 20
1.8196126858
 30
0.0
 40
1.59999999999961
100
AcDbArc
 50
15.0
 51
77.3231615211
  0
LINE
  5
271A
330
2712
100
AcDbEntity
  8
0
100
AcDbLine
 10
3.1694248761
 20
2.233723158
 30
0.0
 11
3.5
 21
1.0
 31
0.0
  0
LINE
  5
271B
330
2712
100
AcDbEntity
  8
0
100
AcDbLine
 10
-3.8
 20
1.0
 30
0.0
 11
3.8
 21
1.0
 31
0.0
  0
LINE
  5
271C
330
2712
100
AcDbEntity
  8
0
100
AcDbLine
 10
-3.8
 20
1.0
 30
0.0
 11
-3.8
 21
0.0
 31
0.0
  0
LINE
  5
271D
330
2712
100
AcDbEntity
  8
0
100
AcDbLine
 10
3.8
 20
1.0
 30
0.0
 11
3.8
 21
0.0
 31
0.0
  0
ENDBLK
  5
271E
330
2712
100
AcDbEntity
  8
0
100
AcDbBlockEnd
  0
BLOCK
  5
27E8
330
27E7
100
AcDbEntity
  8
0
100
AcDbBlockBegin
  2
A$C064f6f27
 70
     0
 10
0.0
 20
0.0
 30
0.0
  3
A$C064f6f27
  1

  0
LINE
  5
27E9
330
27E7
100
AcDbEntity
  8
0
  6
CENS
 62
     3
100
AcDbLine
 10
-16.0
 20
4.4057969553
 30
0.0
 11
-16.0
 21
-6.316029279
 31
0.0
  0
ARC
  5
27EA
330
27E7
100
AcDbEntity
  8
0
100
AcDbCircle
 10
-16.0
 20
-5.4
 30
0.0
 40
9.000000000010642
100
AcDbArc
 50
77.3231615211
 51
102.6768384789
  0
ARC
  5
27EB
330
27E7
100
AcDbEntity
  8
0
100
AcDbCircle
 10
-17.6239435541
 20
1.8196126858
 30
0.0
 40
1.59999999999961
100
AcDbArc
 50
102.6768384789
 51
165.0
  0
LINE
  5
27EC
330
27E7
100
AcDbEntity
  8
0
100
AcDbLine
 10
-19.5
 20
1.0
 30
0.0
 11
-19.1694248761
 21
2.233723158
 31
0.0
  0
ARC
  5
27ED
330
27E7
100
AcDbEntity
  8
0
100
AcDbCircle
 10
-14.3760564459
 20
1.8196126858
 30
0.0
 40
1.59999999999961
100
AcDbArc
 50
15.0
 51
77.3231615211
  0
LINE
  5
27EE
330
27E7
100
AcDbEntity
  8
0
100
AcDbLine
 10
-12.8305751239
 20
2.233723158
 30
0.0
 11
-12.5
 21
1.0
 31
0.0
  0
LINE
  5
27EF
330
27E7
100
AcDbEntity
  8
0
100
AcDbLine
 10
-19.8
 20
1.0
 30
0.0
 11
-12.2
 21
1.0
 31
0.0
  0
LINE
  5
27F0
330
27E7
100
AcDbEntity
  8
0
100
AcDbLine
 10
-19.8
 20
1.0
 30
0.0
 11
-19.8
 21
0.0
 31
0.0
  0
LINE
  5
27F1
330
27E7
100
AcDbEntity
  8
0
100
AcDbLine
 10
-16.0730806399
 20
0.0
 30
0.0
 11
-16.3410298323
 21
1.0
 31
0.0
  0
LINE
  5
27F2
330
27E7
100
AcDbEntity
  8
0
100
AcDbLine
 10
-15.6589701677
 20
0.0
 30
0.0
 11
-15.9269193601
 21
1.0
 31
0.0
  0
LINE
  5
27F3
330
27E7
100
AcDbEntity
  8
0
100
AcDbLine
 10
-12.2
 20
1.0
 30
0.0
 11
-12.2
 21
0.0
 31
0.0
  0
ENDBLK
  5
27F4
330
27E7
100
AcDbEntity
  8
0
100
AcDbBlockEnd
  0
BLOCK
  5
27F6
330
27F5
100
AcDbEntity
  8
0
100
AcDbBlockBegin
  2
A$C5abbbf07
 70
     0
 10
0.0
 20
0.0
 30
0.0
  3
A$C5abbbf07
  1

  0
LINE
  5
27F7
330
27F5
100
AcDbEntity
  8
0
100
AcDbLine
 10
-12.2
 20
0.0
 30
0.0
 11
-19.8
 21
0.0
 31
0.0
  0
INSERT
  5
27F8
330
27F5
100
AcDbEntity
  8
0
100
AcDbBlockReference
  2
A$C064f6f27
 10
0.0
 20
0.0
 30
0.0
  0
ENDBLK
  5
27F9
330
27F5
100
AcDbEntity
  8
0
100
AcDbBlockEnd
  0
ENDSEC
  0
SECTION
  2
ENTITIES
  0
LINE
  5
7FC
330
2
100
AcDbEntity
  8
HIDS
100
AcDbLine
 10
381.3475393157
 20
112.5033779652
 30
0.0
 11
425.9160813157
 21
112.5033779652
 31
0.0
  0
LINE
  5
7FD
330
2
100
AcDbEntity
  8
HIDS
100
AcDbLine
 10
427.3475393157
 20
192.5033779652
 30
0.0
 11
382.7789973157
 21
192.5033779652
 31
0.0
  0
LINE
  5
80B
330
2
100
AcDbEntity
  8
HIDS
100
AcDbLine
 10
383.3126273157
 20
114.8705429652
 30
0.0
 11
404.3475393157
 21
114.5033779652
 31
0.0
  0
LINE
  5
80C
330
2
100
AcDbEntity
  8
HIDS
100
AcDbLine
 10
383.3126273157
 20
190.1362059652
 30
0.0
 11
404.3475393157
 21
190.5033779652
 31
0.0
  0
CIRCLE
  5
810
330
2
100
AcDbEntity
  8
HOJO
100
AcDbCircle
 10
268.8546247573
 20
186.0033779652
 30
0.0
 40
4.0
  0
CIRCLE
  5
811
330
2
100
AcDbEntity
  8
0
100
AcDbCircle
 10
268.8546247573
 20
186.0033779652
 30
0.0
 40
4.25
  0
CIRCLE
  5
812
330
2
100
AcDbEntity
  8
HOJO
100
AcDbCircle
 10
182.8546247573
 20
186.0033779652
 30
0.0
 40
4.0
  0
CIRCLE
  5
813
330
2
100
AcDbEntity
  8
0
100
AcDbCircle
 10
182.8546247573
 20
186.0033779652
 30
0.0
 40
4.25
  0
LINE
  5
814
330
2
100
AcDbEntity
  8
HIDS
100
AcDbLine
 10
379.2434743157
 20
191.0389159652
 30
0.0
 11
365.8120173157
 21
177.6074579652
 31
0.0
  0
ARC
  5
815
330
2
100
AcDbEntity
  8
0
100
AcDbCircle
 10
177.8546247573
 20
182.5033779652
 30
0.0
 40
2.0
100
AcDbArc
 50
180.0
 51
270.0
  0
ARC
  5
816
330
2
100
AcDbEntity
  8
0
100
AcDbCircle
 10
273.8546247573
 20
182.5033779652
 30
0.0
 40
2.0
100
AcDbArc
 50
270.0
 51
0.0
  0
LINE
  5
817
330
2
100
AcDbEntity
  8
0
100
AcDbLine
 10
44.2991327573
 20
187.5033779652
 30
0.0
 11
44.2991327573
 21
117.5033779652
 31
0.0
  0
LINE
  5
818
330
2
100
AcDbEntity
  8
0
100
AcDbLine
 10
93.2991207573
 20
112.5033779652
 30
0.0
 11
93.2991207573
 21
192.5033779652
 31
0.0
  0
ARC
  5
819
330
2
100
AcDbEntity
  8
0
100
AcDbCircle
 10
197.8546247573
 20
183.5033779652
 30
0.0
 40
2.0
100
AcDbArc
 50
319.398705
 51
0.0
  0
LINE
  5
81A
330
2
100
AcDbEntity
  8
0
100
AcDbLine
 10
189.4532727573
 20
173.7017879652
 30
0.0
 11
197.3731337573
 21
182.9416409652
 31
0.0
  0
ARC
  5
81B
330
2
100
AcDbEntity
  8
0
100
AcDbCircle
 10
253.8546247573
 20
183.5033779652
 30
0.0
 40
2.0
100
AcDbArc
 50
180.0
 51
220.601288
  0
LINE
  5
81C
330
2
100
AcDbEntity
  8
0
100
AcDbLine
 10
262.2559917573
 20
173.7017879652
 30
0.0
 11
254.3361007573
 21
182.9416409652
 31
0.0
  0
LINE
  5
81E
330
2
100
AcDbEntity
  8
0
100
AcDbLine
 10
275.8546247573
 20
119.0033779652
 30
0.0
 11
275.8546247573
 21
186.0033779652
 31
0.0
  0
LINE
  5
820
330
2
100
AcDbEntity
  8
0
100
AcDbLine
 10
175.8546247573
 20
186.0033779652
 30
0.0
 11
175.8546247573
 21
168.8318079652
 31
0.0
  0
LINE
  5
821
330
2
100
AcDbEntity
  8
0
100
AcDbLine
 10
102.7991207573
 20
190.5033779652
 30
0.0
 11
102.7991207573
 21
114.5033779652
 31
0.0
  0
ARC
  5
825
330
2
100
AcDbEntity
  8
HIDS
100
AcDbCircle
 10
378.3475393157
 20
184.2051139652
 30
0.0
 40
3.0
100
AcDbArc
 50
309.356701
 51
0.0
  0
LINE
  5
827
330
2
100
AcDbEntity
  8
0
100
AcDbLine
 10
102.7991207573
 20
122.2544159652
 30
0.0
 11
175.8546247573
 21
122.2544159652
 31
0.0
  0
LINE
  5
828
330
2
100
AcDbEntity
  8
0
100
AcDbLine
 10
102.7991207573
 20
114.5033779652
 30
0.0
 11
174.4958757573
 21
114.5033779652
 31
0.0
  0
LINE
  5
829
330
2
100
AcDbEntity
  8
CENTER
100
AcDbLine
 10
283.3953957573
 20
152.5033779652
 30
0.0
 11
35.7786027891
 21
152.5033779652
 31
0.0
  0
LINE
  5
82B
330
2
100
AcDbEntity
  8
0
100
AcDbLine
 10
49.2991327573
 20
112.5033779652
 30
0.0
 11
93.2991207573
 21
112.5033779652
 31
0.0
  0
ARC
  5
82C
330
2
100
AcDbEntity
  8
0
100
AcDbCircle
 10
49.2991397573
 20
117.5033779652
 30
0.0
 40
5.0
100
AcDbArc
 50
180.0
 51
270.0
  0
LINE
  5
82D
330
2
100
AcDbEntity
  8
0
100
AcDbLine
 10
93.2991207573
 20
122.2543769652
 30
0.0
 11
102.7991207573
 21
122.2543769652
 31
0.0
  0
LINE
  5
82E
330
2
100
AcDbEntity
  8
0
100
AcDbLine
 10
93.2991207573
 20
114.5033779652
 30
0.0
 11
102.7991207573
 21
114.5033779652
 31
0.0
  0
LINE
  5
82F
330
2
100
AcDbEntity
  8
0
100
AcDbLine
 10
47.0491327573
 20
176.5033779652
 30
0.0
 11
93.2991207573
 21
176.5033779652
 31
0.0
  0
LINE
  5
830
330
2
100
AcDbEntity
  8
0
100
AcDbLine
 10
47.0491327573
 20
126.5033779652
 30
0.0
 11
93.2991207573
 21
126.5033779652
 31
0.0
  0
CIRCLE
  5
831
330
2
100
AcDbEntity
  8
HOJO
100
AcDbCircle
 10
268.8546247573
 20
119.0033779652
 30
0.0
 40
4.0
  0
CIRCLE
  5
832
330
2
100
AcDbEntity
  8
0
100
AcDbCircle
 10
268.8546247573
 20
119.0033779652
 30
0.0
 40
4.25
  0
CIRCLE
  5
833
330
2
100
AcDbEntity
  8
0
100
AcDbCircle
 10
268.8546247573
 20
119.0033779652
 30
0.0
 40
3.2
  0
LINE
  5
835
330
2
100
AcDbEntity
  8
0
100
AcDbLine
 10
273.8546247573
 20
171.5033779652
 30
0.0
 11
271.3546247573
 21
171.5033779652
 31
0.0
  0
LINE
  5
836
330
2
100
AcDbEntity
  8
0
100
AcDbLine
 10
273.8546247573
 20
180.5033779652
 30
0.0
 11
271.3546247573
 21
180.5033779652
 31
0.0
  0
LINE
  5
837
330
2
100
AcDbEntity
  8
0
100
AcDbLine
 10
271.3546247573
 20
174.2033599652
 30
0.0
 11
272.8546247573
 21
175.0693879652
 31
0.0
  0
LINE
  5
838
330
2
100
AcDbEntity
  8
0
100
AcDbLine
 10
271.3546247573
 20
177.8033659652
 30
0.0
 11
272.8546247573
 21
176.9373379652
 31
0.0
  0
CIRCLE
  5
839
330
2
100
AcDbEntity
  8
0
100
AcDbCircle
 10
271.3546247573
 20
176.0033779652
 30
0.0
 40
3.5
  0
CIRCLE
  5
83A
330
2
100
AcDbEntity
  8
0
100
AcDbCircle
 10
271.3546247573
 20
176.0033779652
 30
0.0
 40
3.799999999999998
  0
LINE
  5
83B
330
2
100
AcDbEntity
  8
0
100
AcDbLine
 10
273.8546247573
 20
133.5033779652
 30
0.0
 11
271.3546247573
 21
133.5033779652
 31
0.0
  0
LINE
  5
83C
330
2
100
AcDbEntity
  8
0
100
AcDbLine
 10
273.8546247573
 20
124.5033779652
 30
0.0
 11
271.3546247573
 21
124.5033779652
 31
0.0
  0
LINE
  5
83E
330
2
100
AcDbEntity
  8
0
100
AcDbLine
 10
271.3546247573
 20
130.8033959652
 30
0.0
 11
272.8546247573
 21
129.9373679652
 31
0.0
  0
LINE
  5
83F
330
2
100
AcDbEntity
  8
0
100
AcDbLine
 10
271.3546247573
 20
127.2033899652
 30
0.0
 11
272.8546247573
 21
128.0694179652
 31
0.0
  0
CIRCLE
  5
840
330
2
100
AcDbEntity
  8
0
100
AcDbCircle
 10
271.3546247573
 20
129.0033779652
 30
0.0
 40
3.5
  0
CIRCLE
  5
841
330
2
100
AcDbEntity
  8
0
100
AcDbCircle
 10
271.3546247573
 20
129.0033779652
 30
0.0
 40
3.799999999999998
  0
ARC
  5
842
330
2
100
AcDbEntity
  8
0
100
AcDbCircle
 10
268.8546247573
 20
119.0033779652
 30
0.0
 40
7.0
100
AcDbArc
 50
227.364075
 51
0.0
  0
CIRCLE
  5
845
330
2
100
AcDbEntity
  8
0
100
AcDbCircle
 10
180.3546247573
 20
129.0033779652
 30
0.0
 40
3.5
  0
CIRCLE
  5
846
330
2
100
AcDbEntity
  8
0
100
AcDbCircle
 10
180.3546247573
 20
129.0033779652
 30
0.0
 40
3.799999999999998
  0
ARC
  5
847
330
2
100
AcDbEntity
  8
0
100
AcDbCircle
 10
180.3546247573
 20
129.0033779652
 30
0.0
 40
4.5
100
AcDbArc
 50
270.0
 51
90.0
  0
ARC
  5
848
330
2
100
AcDbEntity
  8
0
100
AcDbCircle
 10
271.3546247573
 20
129.0033779652
 30
0.0
 40
4.5
100
AcDbArc
 50
90.0
 51
270.0
  0
LINE
  5
84A
330
2
100
AcDbEntity
  8
0
100
AcDbLine
 10
190.3731337573
 20
133.3049679652
 30
0.0
 11
199.3731337573
 21
122.8049599652
 31
0.0
  0
LINE
  5
84B
330
2
100
AcDbEntity
  8
0
100
AcDbLine
 10
189.4532727573
 20
131.3049679652
 30
0.0
 11
197.3731337573
 21
122.0651149652
 31
0.0
  0
LINE
  5
84C
330
2
100
AcDbEntity
  8
0
100
AcDbLine
 10
261.3361007573
 20
133.3049679652
 30
0.0
 11
252.3361157573
 21
122.8049599652
 31
0.0
  0
LINE
  5
84D
330
2
100
AcDbEntity
  8
0
100
AcDbLine
 10
262.2559917573
 20
131.3049679652
 30
0.0
 11
254.3361007573
 21
122.0651149652
 31
0.0
  0
LINE
  5
84E
330
2
100
AcDbEntity
  8
0
100
AcDbLine
 10
175.8546247573
 20
136.1749479652
 30
0.0
 11
175.8546247573
 21
119.0033779652
 31
0.0
  0
LINE
  5
84F
330
2
100
AcDbEntity
  8
0
100
AcDbLine
 10
244.8546247573
 20
117.0033779652
 30
0.0
 11
206.8546247573
 21
117.0033779652
 31
0.0
  0
LINE
  5
850
330
2
100
AcDbEntity
  8
0
100
AcDbLine
 10
182.8546247573
 20
112.0033779652
 30
0.0
 11
268.8546247573
 21
112.0033779652
 31
0.0
  0
ARC
  5
851
330
2
100
AcDbEntity
  8
0
100
AcDbCircle
 10
177.8546247573
 20
122.5033779652
 30
0.0
 40
2.0
100
AcDbArc
 50
90.0
 51
180.0
  0
LINE
  5
852
330
2
100
AcDbEntity
  8
0
100
AcDbLine
 10
175.1910047573
 20
114.3786829652
 30
0.0
 11
180.4216417573
 21
112.4397949652
 31
0.0
  0
ARC
  5
853
330
2
100
AcDbEntity
  8
0
100
AcDbCircle
 10
182.8546247573
 20
119.0033779652
 30
0.0
 40
7.0
100
AcDbArc
 50
180.0
 51
312.635925
  0
ARC
  5
855
330
2
100
AcDbEntity
  8
0
100
AcDbCircle
 10
174.4958757573
 20
112.5033779652
 30
0.0
 40
2.0
100
AcDbArc
 50
69.66127
 51
90.0
  0
ARC
  5
856
330
2
100
AcDbEntity
  8
0
100
AcDbCircle
 10
202.2552897573
 20
122.0033779652
 30
0.0
 40
10.0
100
AcDbArc
 50
247.668358
 51
270.0
  0
ARC
  5
858
330
2
100
AcDbEntity
  8
0
100
AcDbCircle
 10
191.6600137573
 20
109.4396339652
 30
0.0
 40
6.0
100
AcDbArc
 50
59.641697
 51
132.635925
  0
CIRCLE
  5
859
330
2
100
AcDbEntity
  8
HOJO
100
AcDbCircle
 10
182.8546247573
 20
119.0033779652
 30
0.0
 40
4.0
  0
CIRCLE
  5
85A
330
2
100
AcDbEntity
  8
0
100
AcDbCircle
 10
182.8546247573
 20
119.0033779652
 30
0.0
 40
4.25
  0
CIRCLE
  5
85B
330
2
100
AcDbEntity
  8
0
100
AcDbCircle
 10
182.8546247573
 20
119.0033779652
 30
0.0
 40
3.2
  0
LINE
  5
85C
330
2
100
AcDbEntity
  8
0
100
AcDbLine
 10
177.8546247573
 20
124.5033779652
 30
0.0
 11
180.3546247573
 21
124.5033779652
 31
0.0
  0
ARC
  5
85D
330
2
100
AcDbEntity
  8
0
100
AcDbCircle
 10
199.8546247573
 20
120.2683849652
 30
0.0
 40
2.0
100
AcDbArc
 50
180.0
 51
249.51268
  0
ARC
  5
85E
330
2
100
AcDbEntity
  8
0
100
AcDbCircle
 10
201.8546247573
 20
119.6384639652
 30
0.0
 40
2.0
100
AcDbArc
 50
180.0
 51
255.522491
  0
ARC
  5
85F
330
2
100
AcDbEntity
  8
0
100
AcDbCircle
 10
206.8546247573
 20
139.0033779652
 30
0.0
 40
22.0
100
AcDbArc
 50
249.512688
 51
270.0
  0
ARC
  5
860
330
2
100
AcDbEntity
  8
0
100
AcDbCircle
 10
209.8546247573
 20
140.5033779652
 30
0.0
 40
30.0
100
AcDbArc
 50
239.641701
 51
247.668358
  0
LINE
  5
861
330
2
100
AcDbEntity
  8
0
100
AcDbLine
 10
199.7303877573
 20
122.1972709652
 30
0.0
 11
197.7303877573
 21
121.4574189652
 31
0.0
  0
ARC
  5
862
330
2
100
AcDbEntity
  8
0
100
AcDbCircle
 10
195.8546247573
 20
120.7635329652
 30
0.0
 40
2.0
100
AcDbArc
 50
0.0
 51
40.601295
  0
ARC
  5
863
330
2
100
AcDbEntity
  8
0
100
AcDbCircle
 10
197.8546247573
 20
121.5033779652
 30
0.0
 40
2.0
100
AcDbArc
 50
0.0
 51
40.601295
  0
LINE
  5
864
330
2
100
AcDbEntity
  8
0
100
AcDbLine
 10
199.8546247573
 20
121.5033779652
 30
0.0
 11
199.8546247573
 21
119.6384639652
 31
0.0
  0
LINE
  5
865
330
2
100
AcDbEntity
  8
0
100
AcDbLine
 10
197.8546247573
 20
120.7635329652
 30
0.0
 11
197.8546247573
 21
120.2683849652
 31
0.0
  0
ARC
  5
866
330
2
100
AcDbEntity
  8
0
100
AcDbCircle
 10
249.4539597573
 20
122.0033779652
 30
0.0
 40
10.0
100
AcDbArc
 50
270.0
 51
292.331642
  0
ARC
  5
868
330
2
100
AcDbEntity
  8
0
100
AcDbCircle
 10
241.8546247573
 20
140.5033779652
 30
0.0
 40
30.0
100
AcDbArc
 50
292.331642
 51
300.358303
  0
ARC
  5
869
330
2
100
AcDbEntity
  8
0
100
AcDbCircle
 10
251.8546247573
 20
120.2683849652
 30
0.0
 40
2.0
100
AcDbArc
 50
290.487312
 51
0.0
  0
ARC
  5
86A
330
2
100
AcDbEntity
  8
0
100
AcDbCircle
 10
249.8546247573
 20
119.6384639652
 30
0.0
 40
2.0
100
AcDbArc
 50
284.477509
 51
0.0
  0
ARC
  5
86B
330
2
100
AcDbEntity
  8
0
100
AcDbCircle
 10
244.8546247573
 20
139.0033779652
 30
0.0
 40
22.0
100
AcDbArc
 50
270.0
 51
290.487305
  0
LINE
  5
86C
330
2
100
AcDbEntity
  8
0
100
AcDbLine
 10
251.9788617573
 20
122.1972709652
 30
0.0
 11
253.9788617573
 21
121.4574189652
 31
0.0
  0
ARC
  5
86D
330
2
100
AcDbEntity
  8
0
100
AcDbCircle
 10
255.8546247573
 20
120.7635329652
 30
0.0
 40
2.0
100
AcDbArc
 50
139.398712
 51
180.0
  0
ARC
  5
86E
330
2
100
AcDbEntity
  8
0
100
AcDbCircle
 10
253.8546247573
 20
121.5033779652
 30
0.0
 40
2.0
100
AcDbArc
 50
139.398712
 51
180.0
  0
LINE
  5
86F
330
2
100
AcDbEntity
  8
0
100
AcDbLine
 10
251.8546247573
 20
121.5033779652
 30
0.0
 11
251.8546247573
 21
119.6384639652
 31
0.0
  0
LINE
  5
870
330
2
100
AcDbEntity
  8
0
100
AcDbLine
 10
253.8546247573
 20
120.7635329652
 30
0.0
 11
253.8546247573
 21
120.2683849652
 31
0.0
  0
ARC
  5
871
330
2
100
AcDbEntity
  8
0
100
AcDbCircle
 10
260.0492357573
 20
109.4396339652
 30
0.0
 40
6.0
100
AcDbArc
 50
47.364067
 51
120.358299
  0
LINE
  5
872
330
2
100
AcDbEntity
  8
0
100
AcDbLine
 10
184.8546247573
 20
166.0033779652
 30
0.0
 11
184.8546247573
 21
139.0033779652
 31
0.0
  0
LINE
  5
873
330
2
100
AcDbEntity
  8
0
100
AcDbLine
 10
179.8546247573
 20
141.8318079652
 30
0.0
 11
179.8546247573
 21
163.1749479652
 31
0.0
  0
LINE
  5
874
330
2
100
AcDbEntity
  8
0
100
AcDbLine
 10
175.3546247573
 20
178.1938379652
 30
0.0
 11
175.3546247573
 21
126.8129099652
 31
0.0
  0
ARC
  5
875
330
2
100
AcDbEntity
  8
0
100
AcDbCircle
 10
177.8546247573
 20
135.5033779652
 30
0.0
 40
2.0
100
AcDbArc
 50
180.0
 51
270.0
  0
LINE
  5
877
330
2
100
AcDbEntity
  8
0
100
AcDbLine
 10
179.2688397573
 20
140.4175929652
 30
0.0
 11
176.4404097573
 21
137.5891629652
 31
0.0
  0
LINE
  5
878
330
2
100
AcDbEntity
  8
0
100
AcDbLine
 10
175.3546247573
 20
126.8129099652
 30
0.0
 11
175.8546247573
 21
126.8129099652
 31
0.0
  0
ARC
  5
879
330
2
100
AcDbEntity
  8
0
100
AcDbCircle
 10
177.8546247573
 20
136.1749479652
 30
0.0
 40
2.0
100
AcDbArc
 50
135.0
 51
180.0
  0
ARC
  5
87A
330
2
100
AcDbEntity
  8
0
100
AcDbCircle
 10
187.4897107573
 20
134.0033779652
 30
0.0
 40
2.0
100
AcDbArc
 50
194.477509
 51
270.0
  0
LINE
  5
87B
330
2
100
AcDbEntity
  8
0
100
AcDbLine
 10
189.6903337573
 20
133.8204099652
 30
0.0
 11
188.7704727573
 21
131.8204099652
 31
0.0
  0
LINE
  5
87C
330
2
100
AcDbEntity
  8
0
100
AcDbLine
 10
180.3546247573
 20
127.2033899652
 30
0.0
 11
181.8546247573
 21
128.0694179652
 31
0.0
  0
LINE
  5
87D
330
2
100
AcDbEntity
  8
0
100
AcDbLine
 10
181.8546247573
 20
129.9373679652
 30
0.0
 11
181.8546247573
 21
128.0694179652
 31
0.0
  0
LINE
  5
87E
330
2
100
AcDbEntity
  8
0
100
AcDbLine
 10
180.3546247573
 20
130.8033959652
 30
0.0
 11
181.8546247573
 21
129.9373679652
 31
0.0
  0
LINE
  5
87F
330
2
100
AcDbEntity
  8
0
100
AcDbLine
 10
180.3546247573
 20
130.8033959652
 30
0.0
 11
178.8546247573
 21
129.9373679652
 31
0.0
  0
LINE
  5
880
330
2
100
AcDbEntity
  8
0
100
AcDbLine
 10
178.8546247573
 20
129.9373679652
 30
0.0
 11
178.8546247573
 21
128.0694179652
 31
0.0
  0
LINE
  5
881
330
2
100
AcDbEntity
  8
0
100
AcDbLine
 10
180.3546247573
 20
127.2033899652
 30
0.0
 11
178.8546247573
 21
128.0694179652
 31
0.0
  0
LINE
  5
882
330
2
100
AcDbEntity
  8
0
100
AcDbLine
 10
187.9347487573
 20
132.0033779652
 30
0.0
 11
187.4897107573
 21
132.0033779652
 31
0.0
  0
ARC
  5
883
330
2
100
AcDbEntity
  8
0
100
AcDbCircle
 10
187.9347487573
 20
130.0033779652
 30
0.0
 40
2.0
100
AcDbArc
 50
40.601295
 51
90.0
  0
ARC
  5
884
330
2
100
AcDbEntity
  8
0
100
AcDbCircle
 10
187.0808977573
 20
136.0033779652
 30
0.0
 40
2.0
100
AcDbArc
 50
188.626923
 51
270.0
  0
LINE
  5
885
330
2
100
AcDbEntity
  8
0
100
AcDbLine
 10
177.8546247573
 20
133.5033779652
 30
0.0
 11
180.3546247573
 21
133.5033779652
 31
0.0
  0
ARC
  5
886
330
2
100
AcDbEntity
  8
0
100
AcDbCircle
 10
206.8546247573
 20
139.0033779652
 30
0.0
 40
22.0
100
AcDbArc
 50
180.0
 51
194.477509
  0
LINE
  5
887
330
2
100
AcDbEntity
  8
0
100
AcDbLine
 10
188.8546247573
 20
134.0033779652
 30
0.0
 11
187.0808977573
 21
134.0033779652
 31
0.0
  0
ARC
  5
888
330
2
100
AcDbEntity
  8
0
100
AcDbCircle
 10
188.8546247573
 20
132.0033779652
 30
0.0
 40
2.0
100
AcDbArc
 50
40.601295
 51
90.0
  0
ARC
  5
889
330
2
100
AcDbEntity
  8
0
100
AcDbCircle
 10
177.8546247573
 20
141.8318079652
 30
0.0
 40
2.0
100
AcDbArc
 50
315.0
 51
0.0
  0
ARC
  5
88B
330
2
100
AcDbEntity
  8
0
100
AcDbCircle
 10
177.8546247573
 20
169.5033779652
 30
0.0
 40
2.0
100
AcDbArc
 50
90.0
 51
180.0
  0
CIRCLE
  5
88C
330
2
100
AcDbEntity
  8
0
100
AcDbCircle
 10
180.3546247573
 20
176.0033779652
 30
0.0
 40
3.5
  0
CIRCLE
  5
88D
330
2
100
AcDbEntity
  8
0
100
AcDbCircle
 10
180.3546247573
 20
176.0033779652
 30
0.0
 40
3.799999999999998
  0
LINE
  5
88E
330
2
100
AcDbEntity
  8
0
100
AcDbLine
 10
179.2688397573
 20
164.5891629652
 30
0.0
 11
176.4404097573
 21
167.4175929652
 31
0.0
  0
ARC
  5
88F
330
2
100
AcDbEntity
  8
0
100
AcDbCircle
 10
177.8546247573
 20
168.8318079652
 30
0.0
 40
2.0
100
AcDbArc
 50
180.0
 51
225.0
  0
LINE
  5
890
330
2
100
AcDbEntity
  8
0
100
AcDbLine
 10
175.3546247573
 20
178.1938379652
 30
0.0
 11
175.8546247573
 21
178.1938379652
 31
0.0
  0
ARC
  5
891
330
2
100
AcDbEntity
  8
0
100
AcDbCircle
 10
206.8546247573
 20
166.0033779652
 30
0.0
 40
22.0
100
AcDbArc
 50
165.522491
 51
180.0
  0
ARC
  5
892
330
2
100
AcDbEntity
  8
0
100
AcDbCircle
 10
177.8546247573
 20
163.1749479652
 30
0.0
 40
2.0
100
AcDbArc
 50
0.0
 51
45.0
  0
LINE
  5
893
330
2
100
AcDbEntity
  8
0
100
AcDbLine
 10
190.3731337573
 20
171.7017879652
 30
0.0
 11
199.3731337573
 21
182.2017879652
 31
0.0
  0
ARC
  5
895
330
2
100
AcDbEntity
  8
0
100
AcDbCircle
 10
180.3546247573
 20
176.0033779652
 30
0.0
 40
4.5
100
AcDbArc
 50
270.0
 51
90.0
  0
LINE
  5
896
330
2
100
AcDbEntity
  8
0
100
AcDbLine
 10
178.8546247573
 20
175.0693879652
 30
0.0
 11
178.8546247573
 21
176.9373379652
 31
0.0
  0
LINE
  5
897
330
2
100
AcDbEntity
  8
0
100
AcDbLine
 10
181.8546247573
 20
175.0693879652
 30
0.0
 11
181.8546247573
 21
176.9373379652
 31
0.0
  0
ARC
  5
898
330
2
100
AcDbEntity
  8
0
100
AcDbCircle
 10
187.4897107573
 20
171.0033779652
 30
0.0
 40
2.0
100
AcDbArc
 50
90.0
 51
165.522491
  0
ARC
  5
899
330
2
100
AcDbEntity
  8
0
100
AcDbCircle
 10
187.0808977573
 20
169.0033779652
 30
0.0
 40
2.0
100
AcDbArc
 50
90.0
 51
171.373077
  0
LINE
  5
89A
330
2
100
AcDbEntity
  8
0
100
AcDbLine
 10
177.8546247573
 20
171.5033779652
 30
0.0
 11
180.3546247573
 21
171.5033779652
 31
0.0
  0
LINE
  5
89B
330
2
100
AcDbEntity
  8
0
100
AcDbLine
 10
180.3546247573
 20
174.2033599652
 30
0.0
 11
181.8546247573
 21
175.0693879652
 31
0.0
  0
LINE
  5
89C
330
2
100
AcDbEntity
  8
0
100
AcDbLine
 10
180.3546247573
 20
174.2033599652
 30
0.0
 11
178.8546247573
 21
175.0693879652
 31
0.0
  0
LINE
  5
89D
330
2
100
AcDbEntity
  8
0
100
AcDbLine
 10
187.9347487573
 20
173.0033779652
 30
0.0
 11
187.4897107573
 21
173.0033779652
 31
0.0
  0
LINE
  5
89E
330
2
100
AcDbEntity
  8
0
100
AcDbLine
 10
188.8546247573
 20
171.0033779652
 30
0.0
 11
187.0808977573
 21
171.0033779652
 31
0.0
  0
LINE
  5
89F
330
2
100
AcDbEntity
  8
0
100
AcDbLine
 10
189.6903337573
 20
171.1863459652
 30
0.0
 11
188.7704727573
 21
173.1863459652
 31
0.0
  0
ARC
  5
8A0
330
2
100
AcDbEntity
  8
0
100
AcDbCircle
 10
188.8546247573
 20
173.0033779652
 30
0.0
 40
2.0
100
AcDbArc
 50
270.0
 51
319.398705
  0
ARC
  5
8A1
330
2
100
AcDbEntity
  8
0
100
AcDbCircle
 10
187.9347487573
 20
175.0033779652
 30
0.0
 40
2.0
100
AcDbArc
 50
270.0
 51
319.398705
  0
LINE
  5
8A2
330
2
100
AcDbEntity
  8
0
100
AcDbLine
 10
177.8546247573
 20
180.5033779652
 30
0.0
 11
180.3546247573
 21
180.5033779652
 31
0.0
  0
LINE
  5
8A3
330
2
100
AcDbEntity
  8
0
100
AcDbLine
 10
180.3546247573
 20
177.8033659652
 30
0.0
 11
178.8546247573
 21
176.9373379652
 31
0.0
  0
LINE
  5
8A4
330
2
100
AcDbEntity
  8
0
100
AcDbLine
 10
180.3546247573
 20
177.8033659652
 30
0.0
 11
181.8546247573
 21
176.9373379652
 31
0.0
  0
ARC
  5
8A5
330
2
100
AcDbEntity
  8
0
100
AcDbCircle
 10
236.8546247573
 20
152.5033779652
 30
0.0
 40
6.0
100
AcDbArc
 50
109.471222
 51
70.528778
  0
CIRCLE
  5
8A6
330
2
100
AcDbEntity
  8
0
100
AcDbCircle
 10
236.8546247573
 20
152.5033779652
 30
0.0
 40
10.0
  0
CIRCLE
  5
8A7
330
2
100
AcDbEntity
  8
0
100
AcDbCircle
 10
236.8546247573
 20
152.5033779652
 30
0.0
 40
25.002001
  0
CIRCLE
  5
8A8
330
2
100
AcDbEntity
  8
0
100
AcDbCircle
 10
236.8546247573
 20
152.5033779652
 30
0.0
 40
23.0
  0
CIRCLE
  5
8A9
330
2
100
AcDbEntity
  8
0
100
AcDbCircle
 10
236.8546247573
 20
152.5033779652
 30
0.0
 40
16.0
  0
CIRCLE
  5
8AA
330
2
100
AcDbEntity
  8
0
100
AcDbCircle
 10
236.8546247573
 20
152.5033779652
 30
0.0
 40
19.5
  0
LINE
  5
8AB
330
2
100
AcDbEntity
  8
0
100
AcDbLine
 10
266.8546247573
 20
166.0033779652
 30
0.0
 11
266.8546247573
 21
139.0033779652
 31
0.0
  0
ARC
  5
8AC
330
2
100
AcDbEntity
  8
0
100
AcDbCircle
 10
264.2195537573
 20
134.0033779652
 30
0.0
 40
2.0
100
AcDbArc
 50
270.0
 51
345.522491
  0
LINE
  5
8AD
330
2
100
AcDbEntity
  8
0
100
AcDbLine
 10
262.0189007573
 20
133.8204099652
 30
0.0
 11
262.9387917573
 21
131.8204099652
 31
0.0
  0
ARC
  5
8AE
330
2
100
AcDbEntity
  8
0
100
AcDbCircle
 10
263.7744857573
 20
130.0033779652
 30
0.0
 40
2.0
100
AcDbArc
 50
90.0
 51
139.398712
  0
LINE
  5
8AF
330
2
100
AcDbEntity
  8
0
100
AcDbLine
 10
271.3546247573
 20
130.8033959652
 30
0.0
 11
269.8546247573
 21
129.9373679652
 31
0.0
  0
LINE
  5
8B0
330
2
100
AcDbEntity
  8
0
100
AcDbLine
 10
271.3546247573
 20
127.2033899652
 30
0.0
 11
269.8546247573
 21
128.0694179652
 31
0.0
  0
LINE
  5
8B1
330
2
100
AcDbEntity
  8
0
100
AcDbLine
 10
269.8546247573
 20
129.9373679652
 30
0.0
 11
269.8546247573
 21
128.0694179652
 31
0.0
  0
LINE
  5
8B2
330
2
100
AcDbEntity
  8
0
100
AcDbLine
 10
263.7744857573
 20
132.0033779652
 30
0.0
 11
264.2195537573
 21
132.0033779652
 31
0.0
  0
LINE
  5
8B3
330
2
100
AcDbEntity
  8
0
100
AcDbLine
 10
262.8546247573
 20
134.0033779652
 30
0.0
 11
264.6283367573
 21
134.0033779652
 31
0.0
  0
ARC
  5
8B4
330
2
100
AcDbEntity
  8
0
100
AcDbCircle
 10
262.8546247573
 20
132.0033779652
 30
0.0
 40
2.0
100
AcDbArc
 50
90.0
 51
139.398712
  0
ARC
  5
8B5
330
2
100
AcDbEntity
  8
0
100
AcDbCircle
 10
244.8546247573
 20
139.0033779652
 30
0.0
 40
22.0
100
AcDbArc
 50
345.522488
 51
0.0
  0
ARC
  5
8B6
330
2
100
AcDbEntity
  8
0
100
AcDbCircle
 10
264.6283367573
 20
136.0033779652
 30
0.0
 40
2.0
100
AcDbArc
 50
270.0
 51
351.373077
  0
LINE
  5
8B7
330
2
100
AcDbEntity
  8
0
100
AcDbLine
 10
238.8546247573
 20
160.3033809652
 30
0.0
 11
238.8546247573
 21
158.1602379652
 31
0.0
  0
LINE
  5
8B8
330
2
100
AcDbEntity
  8
0
100
AcDbLine
 10
234.8546247573
 20
160.3033809652
 30
0.0
 11
234.8546247573
 21
158.1602379652
 31
0.0
  0
LINE
  5
8B9
330
2
100
AcDbEntity
  8
0
100
AcDbLine
 10
234.8546247573
 20
160.3033809652
 30
0.0
 11
238.8546247573
 21
160.3033809652
 31
0.0
  0
ARC
  5
8BA
330
2
100
AcDbEntity
  8
0
100
AcDbCircle
 10
244.8546247573
 20
166.0033779652
 30
0.0
 40
22.0
100
AcDbArc
 50
0.0
 51
14.477512
  0
LINE
  5
8BB
330
2
100
AcDbEntity
  8
0
100
AcDbLine
 10
261.3361007573
 20
171.7017879652
 30
0.0
 11
252.3361157573
 21
182.2017879652
 31
0.0
  0
ARC
  5
8BC
330
2
100
AcDbEntity
  8
0
100
AcDbCircle
 10
271.3546247573
 20
176.0033779652
 30
0.0
 40
4.5
100
AcDbArc
 50
90.0
 51
270.0
  0
LINE
  5
8BE
330
2
100
AcDbEntity
  8
0
100
AcDbLine
 10
269.8546247573
 20
175.0693879652
 30
0.0
 11
269.8546247573
 21
176.9373379652
 31
0.0
  0
LINE
  5
8BF
330
2
100
AcDbEntity
  8
0
100
AcDbLine
 10
262.8546247573
 20
171.0033779652
 30
0.0
 11
264.6283367573
 21
171.0033779652
 31
0.0
  0
ARC
  5
8C0
330
2
100
AcDbEntity
  8
0
100
AcDbCircle
 10
263.7744857573
 20
175.0033779652
 30
0.0
 40
2.0
100
AcDbArc
 50
220.601288
 51
270.0
  0
LINE
  5
8C1
330
2
100
AcDbEntity
  8
0
100
AcDbLine
 10
262.0189007573
 20
171.1863459652
 30
0.0
 11
262.9387917573
 21
173.1863459652
 31
0.0
  0
ARC
  5
8C2
330
2
100
AcDbEntity
  8
0
100
AcDbCircle
 10
262.8546247573
 20
173.0033779652
 30
0.0
 40
2.0
100
AcDbArc
 50
220.601288
 51
270.0
  0
LINE
  5
8C3
330
2
100
AcDbEntity
  8
0
100
AcDbLine
 10
271.3546247573
 20
174.2033599652
 30
0.0
 11
269.8546247573
 21
175.0693879652
 31
0.0
  0
ARC
  5
8C4
330
2
100
AcDbEntity
  8
0
100
AcDbCircle
 10
264.2195537573
 20
171.0033779652
 30
0.0
 40
2.0
100
AcDbArc
 50
14.477512
 51
90.0
  0
ARC
  5
8C5
330
2
100
AcDbEntity
  8
0
100
AcDbCircle
 10
264.6283367573
 20
169.0033779652
 30
0.0
 40
2.0
100
AcDbArc
 50
8.626927
 51
90.0
  0
LINE
  5
8C6
330
2
100
AcDbEntity
  8
0
100
AcDbLine
 10
263.7744857573
 20
173.0033779652
 30
0.0
 11
264.2195537573
 21
173.0033779652
 31
0.0
  0
LINE
  5
8C7
330
2
100
AcDbEntity
  8
0
100
AcDbLine
 10
271.3546247573
 20
177.8033659652
 30
0.0
 11
269.8546247573
 21
176.9373379652
 31
0.0
  0
LINE
  5
8C8
330
2
100
AcDbEntity
  8
HIDS
100
AcDbLine
 10
370.9505663157
 20
126.5033779652
 30
0.0
 11
378.3475393157
 21
119.1064049652
 31
0.0
  0
ARC
  5
8C9
330
2
100
AcDbEntity
  8
HIDS
100
AcDbCircle
 10
367.3475393157
 20
129.5033779652
 30
0.0
 40
3.0
100
AcDbArc
 50
180.0
 51
270.0
  0
ARC
  5
8CF
330
2
100
AcDbEntity
  8
HIDS
100
AcDbCircle
 10
404.3475393157
 20
152.5033779652
 30
0.0
 40
38.0
100
AcDbArc
 50
129.356705
 51
230.643295
  0
ARC
  5
8D0
330
2
100
AcDbEntity
  8
0
100
AcDbCircle
 10
273.8546247573
 20
122.5033779652
 30
0.0
 40
2.0
100
AcDbArc
 50
0.0
 51
90.0
  0
ARC
  5
8DC
330
2
100
AcDbEntity
  8
HIDS
100
AcDbCircle
 10
381.3475393157
 20
115.5033779652
 30
0.0
 40
3.0
100
AcDbArc
 50
180.0
 51
270.0
  0
LINE
  5
8E0
330
2
100
AcDbEntity
  8
HIDS
100
AcDbLine
 10
381.3475393157
 20
116.8702369652
 30
0.0
 11
381.3475393157
 21
120.8016419652
 31
0.0
  0
LINE
  5
8E1
330
2
100
AcDbEntity
  8
HIDS
100
AcDbLine
 10
378.3475393157
 20
115.5033779652
 30
0.0
 11
378.3475393157
 21
119.1064049652
 31
0.0
  0
ARC
  5
8E2
330
2
100
AcDbEntity
  8
HIDS
100
AcDbCircle
 10
383.3475393157
 20
116.8702369652
 30
0.0
 40
2.0
100
AcDbArc
 50
180.0
 51
269.0
  0
ARC
  5
8E4
330
2
100
AcDbEntity
  8
HIDS
100
AcDbCircle
 10
378.3475393157
 20
120.8016419652
 30
0.0
 40
3.0
100
AcDbArc
 50
0.0
 51
50.643299
  0
LINE
  5
8EB
330
2
100
AcDbEntity
  8
0
100
AcDbLine
 10
271.8546247573
 20
141.8318079652
 30
0.0
 11
271.8546247573
 21
163.1749479652
 31
0.0
  0
LINE
  5
8EC
330
2
100
AcDbEntity
  8
0
100
AcDbLine
 10
272.4404097573
 20
140.4175929652
 30
0.0
 11
275.2688397573
 21
137.5891629652
 31
0.0
  0
ARC
  5
8ED
330
2
100
AcDbEntity
  8
0
100
AcDbCircle
 10
273.8546247573
 20
135.5033779652
 30
0.0
 40
2.0
100
AcDbArc
 50
270.0
 51
0.0
  0
LINE
  5
8EE
330
2
100
AcDbEntity
  8
0
100
AcDbLine
 10
272.8546247573
 20
129.9373679652
 30
0.0
 11
272.8546247573
 21
128.0694179652
 31
0.0
  0
ARC
  5
8EF
330
2
100
AcDbEntity
  8
0
100
AcDbCircle
 10
273.8546247573
 20
136.1749479652
 30
0.0
 40
2.0
100
AcDbArc
 50
0.0
 51
45.0
  0
ARC
  5
8F0
330
2
100
AcDbEntity
  8
0
100
AcDbCircle
 10
273.8546247573
 20
141.8318079652
 30
0.0
 40
2.0
100
AcDbArc
 50
180.0
 51
225.0
  0
ARC
  5
8F1
330
2
100
AcDbEntity
  8
0
100
AcDbCircle
 10
273.8546247573
 20
168.8318079652
 30
0.0
 40
2.0
100
AcDbArc
 50
315.0
 51
0.0
  0
ARC
  5
8F2
330
2
100
AcDbEntity
  8
0
100
AcDbCircle
 10
273.8546247573
 20
163.1749479652
 30
0.0
 40
2.0
100
AcDbArc
 50
135.0
 51
180.0
  0
LINE
  5
8F3
330
2
100
AcDbEntity
  8
0
100
AcDbLine
 10
272.4404097573
 20
164.5891629652
 30
0.0
 11
275.2688397573
 21
167.4175929652
 31
0.0
  0
LINE
  5
8F4
330
2
100
AcDbEntity
  8
0
100
AcDbLine
 10
272.8546247573
 20
175.0693879652
 30
0.0
 11
272.8546247573
 21
176.9373379652
 31
0.0
  0
ARC
  5
8F5
330
2
100
AcDbEntity
  8
0
100
AcDbCircle
 10
273.8546247573
 20
169.5033779652
 30
0.0
 40
2.0
100
AcDbArc
 50
0.0
 51
90.0
  0
LINE
  5
8F6
330
2
100
AcDbEntity
  8
HIDS
100
AcDbLine
 10
364.3475393157
 20
129.5033779652
 30
0.0
 11
364.3475393157
 21
174.0719199652
 31
0.0
  0
LINE
  5
909
330
2
100
AcDbEntity
  8
HIDS
100
AcDbLine
 10
367.3475393157
 20
126.5033779652
 30
0.0
 11
370.9505663157
 21
126.5033779652
 31
0.0
  0
ARC
  5
932
330
2
100
AcDbEntity
  8
HIDS
100
AcDbCircle
 10
369.3475393157
 20
174.0719199652
 30
0.0
 40
5.0
100
AcDbArc
 50
135.0
 51
180.0
  0
LINE
  5
961
330
2
100
AcDbEntity
  8
0
100
AcDbLine
 10
102.7991207573
 20
182.7523399652
 30
0.0
 11
175.8546247573
 21
182.7523399652
 31
0.0
  0
LINE
  5
962
330
2
100
AcDbEntity
  8
0
100
AcDbLine
 10
102.7991207573
 20
190.5033779652
 30
0.0
 11
174.4958757573
 21
190.5033779652
 31
0.0
  0
LINE
  5
963
330
2
100
AcDbEntity
  8
0
100
AcDbLine
 10
49.2991327573
 20
192.5033779652
 30
0.0
 11
93.2991207573
 21
192.5033779652
 31
0.0
  0
ARC
  5
964
330
2
100
AcDbEntity
  8
0
100
AcDbCircle
 10
49.2991327573
 20
187.5033779652
 30
0.0
 40
5.0
100
AcDbArc
 50
90.0
 51
180.0
  0
LINE
  5
965
330
2
100
AcDbEntity
  8
0
100
AcDbLine
 10
102.4991177573
 20
204.3783779652
 30
0.0
 11
102.4991177573
 21
192.0033779652
 31
0.0
  0
LINE
  5
966
330
2
100
AcDbEntity
  8
0
100
AcDbLine
 10
97.0991237573
 20
203.5658779652
 30
0.0
 11
97.0991237573
 21
192.0033779652
 31
0.0
  0
LINE
  5
967
330
2
100
AcDbEntity
  8
0
100
AcDbLine
 10
98.8991197573
 20
205.6283779652
 30
0.0
 11
98.8991197573
 21
192.0033779652
 31
0.0
  0
LINE
  5
968
330
2
100
AcDbEntity
  8
0
100
AcDbLine
 10
100.6991227573
 20
205.0033779652
 30
0.0
 11
100.6991227573
 21
192.0033779652
 31
0.0
  0
LINE
  5
969
330
2
100
AcDbEntity
  8
0
100
AcDbLine
 10
93.2991207573
 20
182.7523709652
 30
0.0
 11
102.7991207573
 21
182.7523709652
 31
0.0
  0
LINE
  5
96A
330
2
100
AcDbEntity
  8
0
100
AcDbLine
 10
93.2991207573
 20
190.5033779652
 30
0.0
 11
102.7991207573
 21
190.5033779652
 31
0.0
  0
LINE
  5
96B
330
2
100
AcDbEntity
  8
0
100
AcDbLine
 10
96.2991207573
 20
192.0033779652
 30
0.0
 11
103.2991207573
 21
192.0033779652
 31
0.0
  0
LINE
  5
96C
330
2
100
AcDbEntity
  8
0
100
AcDbLine
 10
96.2991207573
 20
192.0033779652
 30
0.0
 11
96.2991207573
 21
190.5033779652
 31
0.0
  0
LINE
  5
96D
330
2
100
AcDbEntity
  8
0
100
AcDbLine
 10
103.2991207573
 20
192.0033779652
 30
0.0
 11
103.2991207573
 21
190.5033779652
 31
0.0
  0
LINE
  5
96E
330
2
100
AcDbEntity
  8
HOJO
100
AcDbLine
 10
98.8991197573
 20
205.6283779652
 30
0.0
 11
100.6991227573
 21
205.0033779652
 31
0.0
  0
LINE
  5
96F
330
2
100
AcDbEntity
  8
HOJO
100
AcDbLine
 10
97.0991237573
 20
203.5658779652
 30
0.0
 11
98.8991197573
 21
204.1908779652
 31
0.0
  0
LINE
  5
970
330
2
100
AcDbEntity
  8
HOJO
100
AcDbLine
 10
102.4991177573
 20
204.3783779652
 30
0.0
 11
100.7001297573
 21
203.9306699652
 31
0.0
  0
CIRCLE
  5
971
330
2
100
AcDbEntity
  8
0
100
AcDbCircle
 10
268.8546247573
 20
186.0033779652
 30
0.0
 40
3.2
  0
ARC
  5
972
330
2
100
AcDbEntity
  8
0
100
AcDbCircle
 10
268.8546247573
 20
186.0033779652
 30
0.0
 40
7.0
100
AcDbArc
 50
0.0
 51
132.635925
  0
LINE
  5
974
330
2
100
AcDbEntity
  8
0
100
AcDbLine
 10
244.8546247573
 20
188.0033779652
 30
0.0
 11
206.8546247573
 21
188.0033779652
 31
0.0
  0
LINE
  5
975
330
2
100
AcDbEntity
  8
0
100
AcDbLine
 10
182.8546247573
 20
193.0033779652
 30
0.0
 11
268.8546247573
 21
193.0033779652
 31
0.0
  0
LINE
  5
976
330
2
100
AcDbEntity
  8
0
100
AcDbLine
 10
175.1910047573
 20
190.6280729652
 30
0.0
 11
180.4216417573
 21
192.5669609652
 31
0.0
  0
ARC
  5
977
330
2
100
AcDbEntity
  8
0
100
AcDbCircle
 10
182.8546247573
 20
186.0033779652
 30
0.0
 40
7.0
100
AcDbArc
 50
47.364067
 51
180.0
  0
ARC
  5
979
330
2
100
AcDbEntity
  8
0
100
AcDbCircle
 10
174.4958757573
 20
192.5033779652
 30
0.0
 40
2.0
100
AcDbArc
 50
270.0
 51
290.33873
  0
ARC
  5
97A
330
2
100
AcDbEntity
  8
0
100
AcDbCircle
 10
191.6600137573
 20
195.5671139652
 30
0.0
 40
6.0
100
AcDbArc
 50
227.364075
 51
300.358303
  0
CIRCLE
  5
97B
330
2
100
AcDbEntity
  8
0
100
AcDbCircle
 10
182.8546247573
 20
186.0033779652
 30
0.0
 40
3.2
  0
ARC
  5
97C
330
2
100
AcDbEntity
  8
0
100
AcDbCircle
 10
201.8546247573
 20
185.3682919652
 30
0.0
 40
2.0
100
AcDbArc
 50
104.477509
 51
180.0
  0
ARC
  5
97D
330
2
100
AcDbEntity
  8
0
100
AcDbCircle
 10
206.8546247573
 20
166.0033779652
 30
0.0
 40
22.0
100
AcDbArc
 50
90.0
 51
110.487312
  0
ARC
  5
97E
330
2
100
AcDbEntity
  8
0
100
AcDbCircle
 10
199.8546247573
 20
184.7383789652
 30
0.0
 40
2.0
100
AcDbArc
 50
110.487312
 51
180.0
  0
LINE
  5
97F
330
2
100
AcDbEntity
  8
0
100
AcDbLine
 10
199.7303877573
 20
182.8094849652
 30
0.0
 11
197.7303877573
 21
183.5493369652
 31
0.0
  0
ARC
  5
980
330
2
100
AcDbEntity
  8
0
100
AcDbCircle
 10
195.8546247573
 20
184.2432309652
 30
0.0
 40
2.0
100
AcDbArc
 50
319.398705
 51
0.0
  0
LINE
  5
981
330
2
100
AcDbEntity
  8
0
100
AcDbLine
 10
199.8546247573
 20
183.5033779652
 30
0.0
 11
199.8546247573
 21
185.3682919652
 31
0.0
  0
LINE
  5
982
330
2
100
AcDbEntity
  8
0
100
AcDbLine
 10
197.8546247573
 20
184.2432309652
 30
0.0
 11
197.8546247573
 21
184.7383789652
 31
0.0
  0
ARC
  5
983
330
2
100
AcDbEntity
  8
0
100
AcDbCircle
 10
202.2552897573
 20
183.0033779652
 30
0.0
 40
10.0
100
AcDbArc
 50
90.0
 51
112.331642
  0
ARC
  5
984
330
2
100
AcDbEntity
  8
0
100
AcDbCircle
 10
209.8546247573
 20
164.5033779652
 30
0.0
 40
30.0
100
AcDbArc
 50
112.331642
 51
120.358299
  0
ARC
  5
985
330
2
100
AcDbEntity
  8
0
100
AcDbCircle
 10
241.8546247573
 20
164.5033779652
 30
0.0
 40
30.0
100
AcDbArc
 50
59.641697
 51
67.668358
  0
ARC
  5
986
330
2
100
AcDbEntity
  8
0
100
AcDbCircle
 10
244.8546247573
 20
166.0033779652
 30
0.0
 40
22.0
100
AcDbArc
 50
69.512688
 51
90.0
  0
ARC
  5
987
330
2
100
AcDbEntity
  8
0
100
AcDbCircle
 10
251.8546247573
 20
184.7383789652
 30
0.0
 40
2.0
100
AcDbArc
 50
0.0
 51
69.512688
  0
ARC
  5
988
330
2
100
AcDbEntity
  8
0
100
AcDbCircle
 10
249.8546247573
 20
185.3682919652
 30
0.0
 40
2.0
100
AcDbArc
 50
0.0
 51
75.522491
  0
LINE
  5
989
330
2
100
AcDbEntity
  8
0
100
AcDbLine
 10
251.9788617573
 20
182.8094849652
 30
0.0
 11
253.9788617573
 21
183.5493369652
 31
0.0
  0
ARC
  5
98A
330
2
100
AcDbEntity
  8
0
100
AcDbCircle
 10
255.8546247573
 20
184.2432309652
 30
0.0
 40
2.0
100
AcDbArc
 50
180.0
 51
220.601288
  0
LINE
  5
98B
330
2
100
AcDbEntity
  8
0
100
AcDbLine
 10
251.8546247573
 20
183.5033779652
 30
0.0
 11
251.8546247573
 21
185.3682919652
 31
0.0
  0
LINE
  5
98C
330
2
100
AcDbEntity
  8
0
100
AcDbLine
 10
253.8546247573
 20
184.2432309652
 30
0.0
 11
253.8546247573
 21
184.7383789652
 31
0.0
  0
ARC
  5
98D
330
2
100
AcDbEntity
  8
0
100
AcDbCircle
 10
249.4539597573
 20
183.0033779652
 30
0.0
 40
10.0
100
AcDbArc
 50
67.668358
 51
90.0
  0
ARC
  5
98E
330
2
100
AcDbEntity
  8
0
100
AcDbCircle
 10
260.0492357573
 20
195.5671139652
 30
0.0
 40
6.0
100
AcDbArc
 50
239.641701
 51
312.635933
  0
ARC
  5
991
330
2
100
AcDbEntity
  8
HIDS
100
AcDbCircle
 10
383.3475393157
 20
188.1365109652
 30
0.0
 40
2.0
100
AcDbArc
 50
91.0
 51
180.0
  0
LINE
  5
992
330
2
100
AcDbEntity
  8
HIDS
100
AcDbLine
 10
381.3475393157
 20
188.1365109652
 30
0.0
 11
381.3475393157
 21
184.2051139652
 31
0.0
  0
ARC
  5
993
330
2
100
AcDbEntity
  8
HIDS
100
AcDbCircle
 10
382.7789973157
 20
187.5033779652
 30
0.0
 40
5.0
100
AcDbArc
 50
90.0
 51
135.0
  0
CIRCLE
  5
994
330
2
100
AcDbEntity
  8
HOJO
100
AcDbCircle
 10
595.1822167495
 20
186.0033779652
 30
0.0
 40
4.0
  0
CIRCLE
  5
995
330
2
100
AcDbEntity
  8
HOJO
100
AcDbCircle
 10
681.1822167495
 20
186.0033779652
 30
0.0
 40
4.0
  0
LINE
  5
996
330
2
100
AcDbEntity
  8
HIDS
100
AcDbLine
 10
430.3475393157
 20
185.9003509652
 30
0.0
 11
437.7445123157
 21
178.5033779652
 31
0.0
  0
LINE
  5
997
330
2
100
AcDbEntity
  8
0
100
AcDbLine
 10
819.7376977495
 20
187.5033779652
 30
0.0
 11
819.7376977495
 21
117.5033779652
 31
0.0
  0
LINE
  5
998
330
2
100
AcDbEntity
  8
0
100
AcDbLine
 10
770.7376977495
 20
112.5033779652
 30
0.0
 11
770.7376977495
 21
192.5033779652
 31
0.0
  0
ARC
  5
999
330
2
100
AcDbEntity
  8
0
100
AcDbCircle
 10
666.1822167495
 20
183.5033779652
 30
0.0
 40
2.0
100
AcDbArc
 50
180.0
 51
220.601288
  0
LINE
  5
99A
330
2
100
AcDbEntity
  8
0
100
AcDbLine
 10
674.5835837495
 20
173.7017879652
 30
0.0
 11
666.6637227495
 21
182.9416409652
 31
0.0
  0
ARC
  5
99B
330
2
100
AcDbEntity
  8
0
100
AcDbCircle
 10
610.1822167495
 20
183.5033779652
 30
0.0
 40
2.0
100
AcDbArc
 50
319.398705
 51
0.0
  0
LINE
  5
99C
330
2
100
AcDbEntity
  8
0
100
AcDbLine
 10
601.7808497495
 20
173.7017879652
 30
0.0
 11
609.7007107495
 21
182.9416409652
 31
0.0
  0
LINE
  5
99E
330
2
100
AcDbEntity
  8
0
100
AcDbLine
 10
588.1822167495
 20
119.0033779652
 30
0.0
 11
588.1822167495
 21
186.0033779652
 31
0.0
  0
LINE
  5
9A0
330
2
100
AcDbEntity
  8
0
100
AcDbLine
 10
688.1822167495
 20
186.0033779652
 30
0.0
 11
688.1822167495
 21
168.8318079652
 31
0.0
  0
LINE
  5
9A1
330
2
100
AcDbEntity
  8
0
100
AcDbLine
 10
761.2376977495
 20
190.5033779652
 30
0.0
 11
761.2376977495
 21
114.5033779652
 31
0.0
  0
ARC
  5
9A4
330
2
100
AcDbEntity
  8
HIDS
100
AcDbCircle
 10
430.3475393157
 20
184.2051139652
 30
0.0
 40
3.0
100
AcDbArc
 50
180.0
 51
230.643295
  0
ARC
  5
9A7
330
2
100
AcDbEntity
  8
0
100
AcDbCircle
 10
672.3768577495
 20
109.4396339652
 30
0.0
 40
6.0
100
AcDbArc
 50
47.364067
 51
120.358299
  0
LINE
  5
9A8
330
2
100
AcDbEntity
  8
0
100
AcDbLine
 10
675.1822167495
 20
134.0033779652
 30
0.0
 11
676.9559597495
 21
134.0033779652
 31
0.0
  0
ARC
  5
9A9
330
2
100
AcDbEntity
  8
0
100
AcDbCircle
 10
676.1020777495
 20
130.0033779652
 30
0.0
 40
2.0
100
AcDbArc
 50
90.0
 51
139.398712
  0
LINE
  5
9AA
330
2
100
AcDbEntity
  8
0
100
AcDbLine
 10
675.1822167495
 20
171.0033779652
 30
0.0
 11
676.9559597495
 21
171.0033779652
 31
0.0
  0
ARC
  5
9AB
330
2
100
AcDbEntity
  8
0
100
AcDbCircle
 10
676.1020777495
 20
175.0033779652
 30
0.0
 40
2.0
100
AcDbArc
 50
220.601288
 51
270.0
  0
LINE
  5
9AC
330
2
100
AcDbEntity
  8
0
100
AcDbLine
 10
681.1822167495
 20
112.0033779652
 30
0.0
 11
595.1822167495
 21
112.0033779652
 31
0.0
  0
LINE
  5
9AE
330
2
100
AcDbEntity
  8
CENTER
100
AcDbLine
 10
580.6414457495
 20
152.5033779652
 30
0.0
 11
828.2582277178
 21
152.5033779652
 31
0.0
  0
LINE
  5
9AF
330
2
100
AcDbEntity
  8
HIDS
100
AcDbLine
 10
442.8830613157
 20
127.3993049652
 30
0.0
 11
429.4516043157
 21
113.9678399652
 31
0.0
  0
ARC
  5
9B2
330
2
100
AcDbEntity
  8
HIDS
100
AcDbCircle
 10
404.3475393157
 20
152.5033779652
 30
0.0
 40
38.0
100
AcDbArc
 50
309.356701
 51
50.643299
  0
ARC
  5
9B7
330
2
100
AcDbEntity
  8
HIDS
100
AcDbCircle
 10
425.9160813157
 20
117.5033779652
 30
0.0
 40
5.0
100
AcDbArc
 50
270.0
 51
315.0
  0
LINE
  5
9B9
330
2
100
AcDbEntity
  8
HIDS
100
AcDbLine
 10
425.3824513157
 20
114.8705429652
 30
0.0
 11
404.3475393157
 21
114.5033779652
 31
0.0
  0
LINE
  5
9BD
330
2
100
AcDbEntity
  8
HIDS
100
AcDbLine
 10
427.3475393157
 20
116.8702369652
 30
0.0
 11
427.3475393157
 21
120.8016419652
 31
0.0
  0
ARC
  5
9BE
330
2
100
AcDbEntity
  8
HIDS
100
AcDbCircle
 10
425.3475393157
 20
116.8702369652
 30
0.0
 40
2.0
100
AcDbArc
 50
271.0
 51
0.0
  0
ARC
  5
9C2
330
2
100
AcDbEntity
  8
HIDS
100
AcDbCircle
 10
430.3475393157
 20
120.8016419652
 30
0.0
 40
3.0
100
AcDbArc
 50
129.356705
 51
180.0
  0
LINE
  5
9C8
330
2
100
AcDbEntity
  8
HIDS
100
AcDbLine
 10
444.3475393157
 20
175.5033779652
 30
0.0
 11
444.3475393157
 21
130.9348359652
 31
0.0
  0
ARC
  5
9F1
330
2
100
AcDbEntity
  8
HIDS
100
AcDbCircle
 10
439.3475393157
 20
130.9348359652
 30
0.0
 40
5.0
100
AcDbArc
 50
315.0
 51
0.0
  0
ARC
  5
A20
330
2
100
AcDbEntity
  8
HIDS
100
AcDbCircle
 10
441.3475393157
 20
175.5033779652
 30
0.0
 40
3.0
100
AcDbArc
 50
0.0
 51
90.0
  0
LINE
  5
A23
330
2
100
AcDbEntity
  8
HIDS
100
AcDbLine
 10
441.3475393157
 20
178.5033779652
 30
0.0
 11
437.7445123157
 21
178.5033779652
 31
0.0
  0
LINE
  5
A29
330
2
100
AcDbEntity
  8
0
100
AcDbLine
 10
673.6637227495
 20
133.3049679652
 30
0.0
 11
664.6637227495
 21
122.8049599652
 31
0.0
  0
LINE
  5
A2A
330
2
100
AcDbEntity
  8
0
100
AcDbLine
 10
674.5835837495
 20
131.3049679652
 30
0.0
 11
666.6637227495
 21
122.0651149652
 31
0.0
  0
LINE
  5
A2B
330
2
100
AcDbEntity
  8
0
100
AcDbLine
 10
602.7007107495
 20
133.3049679652
 30
0.0
 11
611.7007107495
 21
122.8049599652
 31
0.0
  0
LINE
  5
A2C
330
2
100
AcDbEntity
  8
0
100
AcDbLine
 10
601.7808497495
 20
131.3049679652
 30
0.0
 11
609.7007107495
 21
122.0651149652
 31
0.0
  0
ARC
  5
A2D
330
2
100
AcDbEntity
  8
0
100
AcDbCircle
 10
614.1822167495
 20
119.6384639652
 30
0.0
 40
2.0
100
AcDbArc
 50
180.0
 51
255.522491
  0
ARC
  5
A2E
330
2
100
AcDbEntity
  8
0
100
AcDbCircle
 10
619.1822167495
 20
139.0033779652
 30
0.0
 40
22.0
100
AcDbArc
 50
249.512688
 51
270.0
  0
ARC
  5
A2F
330
2
100
AcDbEntity
  8
0
100
AcDbCircle
 10
614.5828517495
 20
122.0033779652
 30
0.0
 40
10.0
100
AcDbArc
 50
247.66835
 51
270.0
  0
ARC
  5
A30
330
2
100
AcDbEntity
  8
0
100
AcDbCircle
 10
595.1822167495
 20
119.0033779652
 30
0.0
 40
7.0
100
AcDbArc
 50
180.0
 51
312.635925
  0
CIRCLE
  5
A32
330
2
100
AcDbEntity
  8
HOJO
100
AcDbCircle
 10
595.1822167495
 20
119.0033779652
 30
0.0
 40
4.0
  0
CIRCLE
  5
A33
330
2
100
AcDbEntity
  8
0
100
AcDbCircle
 10
595.1822167495
 20
119.0033779652
 30
0.0
 40
3.2
  0
ARC
  5
A35
330
2
100
AcDbEntity
  8
0
100
AcDbCircle
 10
612.1822167495
 20
120.2683849652
 30
0.0
 40
2.0
100
AcDbArc
 50
180.0
 51
249.51268
  0
ARC
  5
A36
330
2
100
AcDbEntity
  8
0
100
AcDbCircle
 10
603.9875757495
 20
109.4396339652
 30
0.0
 40
6.0
100
AcDbArc
 50
59.641697
 51
132.635925
  0
ARC
  5
A37
330
2
100
AcDbEntity
  8
0
100
AcDbCircle
 10
622.1822167495
 20
140.5033779652
 30
0.0
 40
30.0
100
AcDbArc
 50
239.641693
 51
247.66835
  0
LINE
  5
A38
330
2
100
AcDbEntity
  8
0
100
AcDbLine
 10
612.0580097495
 20
122.1972709652
 30
0.0
 11
610.0580097495
 21
121.4574189652
 31
0.0
  0
ARC
  5
A39
330
2
100
AcDbEntity
  8
0
100
AcDbCircle
 10
608.1822167495
 20
120.7635329652
 30
0.0
 40
2.0
100
AcDbArc
 50
0.0
 51
40.601295
  0
ARC
  5
A3A
330
2
100
AcDbEntity
  8
0
100
AcDbCircle
 10
610.1822167495
 20
121.5033779652
 30
0.0
 40
2.0
100
AcDbArc
 50
0.0
 51
40.601295
  0
LINE
  5
A3B
330
2
100
AcDbEntity
  8
0
100
AcDbLine
 10
612.1822167495
 20
121.5033779652
 30
0.0
 11
612.1822167495
 21
119.6384639652
 31
0.0
  0
LINE
  5
A3C
330
2
100
AcDbEntity
  8
0
100
AcDbLine
 10
610.1822167495
 20
120.7635329652
 30
0.0
 11
610.1822167495
 21
120.2683849652
 31
0.0
  0
LINE
  5
A3D
330
2
100
AcDbEntity
  8
0
100
AcDbLine
 10
619.1822167495
 20
117.0033779652
 30
0.0
 11
657.1822167495
 21
117.0033779652
 31
0.0
  0
ARC
  5
A3E
330
2
100
AcDbEntity
  8
0
100
AcDbCircle
 10
661.7815817495
 20
122.0033779652
 30
0.0
 40
10.0
100
AcDbArc
 50
270.0
 51
292.331635
  0
ARC
  5
A3F
330
2
100
AcDbEntity
  8
0
100
AcDbCircle
 10
657.1822167495
 20
139.0033779652
 30
0.0
 40
22.0
100
AcDbArc
 50
270.0
 51
290.487305
  0
ARC
  5
A40
330
2
100
AcDbEntity
  8
0
100
AcDbCircle
 10
664.1822167495
 20
120.2683849652
 30
0.0
 40
2.0
100
AcDbArc
 50
290.487312
 51
0.0
  0
ARC
  5
A41
330
2
100
AcDbEntity
  8
0
100
AcDbCircle
 10
662.1822167495
 20
119.6384639652
 30
0.0
 40
2.0
100
AcDbArc
 50
284.477509
 51
0.0
  0
ARC
  5
A42
330
2
100
AcDbEntity
  8
0
100
AcDbCircle
 10
654.1822167495
 20
140.5033779652
 30
0.0
 40
30.0
100
AcDbArc
 50
292.331635
 51
300.358307
  0
LINE
  5
A43
330
2
100
AcDbEntity
  8
0
100
AcDbLine
 10
664.3064237495
 20
122.1972709652
 30
0.0
 11
666.3064237495
 21
121.4574189652
 31
0.0
  0
ARC
  5
A44
330
2
100
AcDbEntity
  8
0
100
AcDbCircle
 10
668.1822167495
 20
120.7635329652
 30
0.0
 40
2.0
100
AcDbArc
 50
139.398712
 51
180.0
  0
ARC
  5
A45
330
2
100
AcDbEntity
  8
0
100
AcDbCircle
 10
666.1822167495
 20
121.5033779652
 30
0.0
 40
2.0
100
AcDbArc
 50
139.398712
 51
180.0
  0
LINE
  5
A46
330
2
100
AcDbEntity
  8
0
100
AcDbLine
 10
664.1822167495
 20
121.5033779652
 30
0.0
 11
664.1822167495
 21
119.6384639652
 31
0.0
  0
LINE
  5
A47
330
2
100
AcDbEntity
  8
0
100
AcDbLine
 10
666.1822167495
 20
120.7635329652
 30
0.0
 11
666.1822167495
 21
120.2683849652
 31
0.0
  0
CIRCLE
  5
A48
330
2
100
AcDbEntity
  8
0
100
AcDbCircle
 10
627.1822167495
 20
152.5033779652
 30
0.0
 40
25.002001
  0
CIRCLE
  5
A49
330
2
100
AcDbEntity
  8
0
100
AcDbCircle
 10
627.1822167495
 20
152.5033779652
 30
0.0
 40
23.0
  0
CIRCLE
  5
A4A
330
2
100
AcDbEntity
  8
0
100
AcDbCircle
 10
627.1822167495
 20
152.5033779652
 30
0.0
 40
16.0
  0
CIRCLE
  5
A4B
330
2
100
AcDbEntity
  8
0
100
AcDbCircle
 10
627.1822167495
 20
152.5033779652
 30
0.0
 40
19.5
  0
LINE
  5
A4C
330
2
100
AcDbEntity
  8
0
100
AcDbLine
 10
597.1822167495
 20
166.0033779652
 30
0.0
 11
597.1822167495
 21
139.0033779652
 31
0.0
  0
LINE
  5
A4D
330
2
100
AcDbEntity
  8
0
100
AcDbLine
 10
592.1822167495
 20
141.8318079652
 30
0.0
 11
592.1822167495
 21
163.1749479652
 31
0.0
  0
LINE
  5
A4E
330
2
100
AcDbEntity
  8
0
100
AcDbLine
 10
591.5964017495
 20
140.4175929652
 30
0.0
 11
588.7680317495
 21
137.5891629652
 31
0.0
  0
ARC
  5
A4F
330
2
100
AcDbEntity
  8
0
100
AcDbCircle
 10
599.8172877495
 20
134.0033779652
 30
0.0
 40
2.0
100
AcDbArc
 50
194.477509
 51
270.0
  0
ARC
  5
A50
330
2
100
AcDbEntity
  8
0
100
AcDbCircle
 10
599.4084737495
 20
136.0033779652
 30
0.0
 40
2.0
100
AcDbArc
 50
188.626923
 51
270.0
  0
ARC
  5
A51
330
2
100
AcDbEntity
  8
0
100
AcDbCircle
 10
590.1822167495
 20
136.1749479652
 30
0.0
 40
2.0
100
AcDbArc
 50
135.0
 51
180.0
  0
ARC
  5
A52
330
2
100
AcDbEntity
  8
0
100
AcDbCircle
 10
619.1822167495
 20
139.0033779652
 30
0.0
 40
22.0
100
AcDbArc
 50
180.0
 51
194.477509
  0
LINE
  5
A53
330
2
100
AcDbEntity
  8
0
100
AcDbLine
 10
602.0179097495
 20
133.8204099652
 30
0.0
 11
601.0980497495
 21
131.8204099652
 31
0.0
  0
LINE
  5
A54
330
2
100
AcDbEntity
  8
0
100
AcDbLine
 10
600.2623557495
 20
132.0033779652
 30
0.0
 11
599.8172877495
 21
132.0033779652
 31
0.0
  0
ARC
  5
A55
330
2
100
AcDbEntity
  8
0
100
AcDbCircle
 10
600.2623557495
 20
130.0033779652
 30
0.0
 40
2.0
100
AcDbArc
 50
40.601295
 51
90.0
  0
LINE
  5
A56
330
2
100
AcDbEntity
  8
0
100
AcDbLine
 10
601.1822167495
 20
134.0033779652
 30
0.0
 11
599.4084737495
 21
134.0033779652
 31
0.0
  0
ARC
  5
A57
330
2
100
AcDbEntity
  8
0
100
AcDbCircle
 10
601.1822167495
 20
132.0033779652
 30
0.0
 40
2.0
100
AcDbArc
 50
40.601295
 51
90.0
  0
ARC
  5
A58
330
2
100
AcDbEntity
  8
0
100
AcDbCircle
 10
590.1822167495
 20
141.8318079652
 30
0.0
 40
2.0
100
AcDbArc
 50
315.0
 51
0.0
  0
ARC
  5
A59
330
2
100
AcDbEntity
  8
0
100
AcDbCircle
 10
619.1822167495
 20
166.0033779652
 30
0.0
 40
22.0
100
AcDbArc
 50
165.522491
 51
180.0
  0
ARC
  5
A5A
330
2
100
AcDbEntity
  8
0
100
AcDbCircle
 10
590.1822167495
 20
168.8318079652
 30
0.0
 40
2.0
100
AcDbArc
 50
180.0
 51
225.0
  0
LINE
  5
A5B
330
2
100
AcDbEntity
  8
0
100
AcDbLine
 10
591.5964017495
 20
164.5891629652
 30
0.0
 11
588.7680317495
 21
167.4175929652
 31
0.0
  0
ARC
  5
A5C
330
2
100
AcDbEntity
  8
0
100
AcDbCircle
 10
590.1822167495
 20
163.1749479652
 30
0.0
 40
2.0
100
AcDbArc
 50
0.0
 51
45.0
  0
ARC
  5
A5D
330
2
100
AcDbEntity
  8
0
100
AcDbCircle
 10
599.8172877495
 20
171.0033779652
 30
0.0
 40
2.0
100
AcDbArc
 50
90.0
 51
165.522491
  0
ARC
  5
A5E
330
2
100
AcDbEntity
  8
0
100
AcDbCircle
 10
599.4084737495
 20
169.0033779652
 30
0.0
 40
2.0
100
AcDbArc
 50
90.0
 51
171.373077
  0
LINE
  5
A5F
330
2
100
AcDbEntity
  8
0
100
AcDbLine
 10
602.7007107495
 20
171.7017879652
 30
0.0
 11
611.7007107495
 21
182.2017879652
 31
0.0
  0
LINE
  5
A60
330
2
100
AcDbEntity
  8
0
100
AcDbLine
 10
600.2623557495
 20
173.0033779652
 30
0.0
 11
599.8172877495
 21
173.0033779652
 31
0.0
  0
LINE
  5
A61
330
2
100
AcDbEntity
  8
0
100
AcDbLine
 10
601.1822167495
 20
171.0033779652
 30
0.0
 11
599.4084737495
 21
171.0033779652
 31
0.0
  0
LINE
  5
A62
330
2
100
AcDbEntity
  8
0
100
AcDbLine
 10
602.0179097495
 20
171.1863459652
 30
0.0
 11
601.0980497495
 21
173.1863459652
 31
0.0
  0
ARC
  5
A63
330
2
100
AcDbEntity
  8
0
100
AcDbCircle
 10
601.1822167495
 20
173.0033779652
 30
0.0
 40
2.0
100
AcDbArc
 50
270.0
 51
319.398705
  0
ARC
  5
A64
330
2
100
AcDbEntity
  8
0
100
AcDbCircle
 10
600.2623557495
 20
175.0033779652
 30
0.0
 40
2.0
100
AcDbArc
 50
270.0
 51
319.398705
  0
ARC
  5
A65
330
2
100
AcDbEntity
  8
0
100
AcDbCircle
 10
627.1822167495
 20
152.5033779652
 30
0.0
 40
6.0
100
AcDbArc
 50
109.471222
 51
70.528778
  0
CIRCLE
  5
A66
330
2
100
AcDbEntity
  8
0
100
AcDbCircle
 10
627.1822167495
 20
152.5033779652
 30
0.0
 40
10.0
  0
LINE
  5
A67
330
2
100
AcDbEntity
  8
0
100
AcDbLine
 10
674.3465237495
 20
133.8204099652
 30
0.0
 11
675.2663837495
 21
131.8204099652
 31
0.0
  0
ARC
  5
A68
330
2
100
AcDbEntity
  8
0
100
AcDbCircle
 10
675.1822167495
 20
132.0033779652
 30
0.0
 40
2.0
100
AcDbArc
 50
90.0
 51
139.398712
  0
LINE
  5
A69
330
2
100
AcDbEntity
  8
0
100
AcDbLine
 10
629.1822167495
 20
160.3033809652
 30
0.0
 11
629.1822167495
 21
158.1602379652
 31
0.0
  0
LINE
  5
A6A
330
2
100
AcDbEntity
  8
0
100
AcDbLine
 10
625.1822167495
 20
160.3033809652
 30
0.0
 11
625.1822167495
 21
158.1602379652
 31
0.0
  0
LINE
  5
A6B
330
2
100
AcDbEntity
  8
0
100
AcDbLine
 10
625.1822167495
 20
160.3033809652
 30
0.0
 11
629.1822167495
 21
160.3033809652
 31
0.0
  0
LINE
  5
A6C
330
2
100
AcDbEntity
  8
0
100
AcDbLine
 10
673.6637227495
 20
171.7017879652
 30
0.0
 11
664.6637227495
 21
182.2017879652
 31
0.0
  0
LINE
  5
A6D
330
2
100
AcDbEntity
  8
0
100
AcDbLine
 10
674.3465237495
 20
171.1863459652
 30
0.0
 11
675.2663837495
 21
173.1863459652
 31
0.0
  0
ARC
  5
A6E
330
2
100
AcDbEntity
  8
0
100
AcDbCircle
 10
675.1822167495
 20
173.0033779652
 30
0.0
 40
2.0
100
AcDbArc
 50
220.601288
 51
270.0
  0
LINE
  5
A6F
330
2
100
AcDbEntity
  8
0
100
AcDbLine
 10
816.9876977495
 20
176.5033779652
 30
0.0
 11
770.7376977495
 21
176.5033779652
 31
0.0
  0
LINE
  5
A70
330
2
100
AcDbEntity
  8
0
100
AcDbLine
 10
816.9876977495
 20
126.5033779652
 30
0.0
 11
770.7376977495
 21
126.5033779652
 31
0.0
  0
LINE
  5
A71
330
2
100
AcDbEntity
  8
0
100
AcDbLine
 10
814.7376977495
 20
112.5033779652
 30
0.0
 11
770.7376977495
 21
112.5033779652
 31
0.0
  0
LINE
  5
A72
330
2
100
AcDbEntity
  8
0
100
AcDbLine
 10
688.1822167495
 20
136.1749479652
 30
0.0
 11
688.1822167495
 21
119.0033779652
 31
0.0
  0
LINE
  5
A73
330
2
100
AcDbEntity
  8
0
100
AcDbLine
 10
761.2376977495
 20
122.2544159652
 30
0.0
 11
688.1822167495
 21
122.2544159652
 31
0.0
  0
LINE
  5
A74
330
2
100
AcDbEntity
  8
0
100
AcDbLine
 10
761.2376977495
 20
114.5033779652
 30
0.0
 11
689.5409817495
 21
114.5033779652
 31
0.0
  0
ARC
  5
A75
330
2
100
AcDbEntity
  8
0
100
AcDbCircle
 10
681.1822167495
 20
119.0033779652
 30
0.0
 40
7.0
100
AcDbArc
 50
227.364075
 51
0.0
  0
CIRCLE
  5
A77
330
2
100
AcDbEntity
  8
HOJO
100
AcDbCircle
 10
681.1822167495
 20
119.0033779652
 30
0.0
 40
4.0
  0
CIRCLE
  5
A78
330
2
100
AcDbEntity
  8
0
100
AcDbCircle
 10
681.1822167495
 20
119.0033779652
 30
0.0
 40
3.2
  0
LINE
  5
A79
330
2
100
AcDbEntity
  8
0
100
AcDbLine
 10
688.8458517495
 20
114.3786829652
 30
0.0
 11
683.6151997495
 21
112.4397949652
 31
0.0
  0
ARC
  5
A7A
330
2
100
AcDbEntity
  8
0
100
AcDbCircle
 10
689.5409817495
 20
112.5033779652
 30
0.0
 40
2.0
100
AcDbArc
 50
90.0
 51
110.33873
  0
LINE
  5
A7B
330
2
100
AcDbEntity
  8
0
100
AcDbLine
 10
770.7376977495
 20
122.2543769652
 30
0.0
 11
761.2376977495
 21
122.2543769652
 31
0.0
  0
LINE
  5
A7C
330
2
100
AcDbEntity
  8
0
100
AcDbLine
 10
770.7376977495
 20
114.5033779652
 30
0.0
 11
761.2376977495
 21
114.5033779652
 31
0.0
  0
LINE
  5
A7D
330
2
100
AcDbEntity
  8
0
100
AcDbLine
 10
679.1822167495
 20
166.0033779652
 30
0.0
 11
679.1822167495
 21
139.0033779652
 31
0.0
  0
LINE
  5
A7E
330
2
100
AcDbEntity
  8
0
100
AcDbLine
 10
684.1822167495
 20
141.8318079652
 30
0.0
 11
684.1822167495
 21
163.1749479652
 31
0.0
  0
LINE
  5
A7F
330
2
100
AcDbEntity
  8
0
100
AcDbLine
 10
684.7680317495
 20
140.4175929652
 30
0.0
 11
687.5964017495
 21
137.5891629652
 31
0.0
  0
ARC
  5
A80
330
2
100
AcDbEntity
  8
0
100
AcDbCircle
 10
676.5471457495
 20
134.0033779652
 30
0.0
 40
2.0
100
AcDbArc
 50
270.0
 51
345.522491
  0
LINE
  5
A81
330
2
100
AcDbEntity
  8
0
100
AcDbLine
 10
676.1020777495
 20
132.0033779652
 30
0.0
 11
676.5471457495
 21
132.0033779652
 31
0.0
  0
ARC
  5
A82
330
2
100
AcDbEntity
  8
0
100
AcDbCircle
 10
657.1822167495
 20
139.0033779652
 30
0.0
 40
22.0
100
AcDbArc
 50
345.522488
 51
0.0
  0
ARC
  5
A83
330
2
100
AcDbEntity
  8
0
100
AcDbCircle
 10
676.9559597495
 20
136.0033779652
 30
0.0
 40
2.0
100
AcDbArc
 50
270.0
 51
351.373077
  0
ARC
  5
A84
330
2
100
AcDbEntity
  8
0
100
AcDbCircle
 10
686.1822167495
 20
136.1749479652
 30
0.0
 40
2.0
100
AcDbArc
 50
0.0
 51
45.0
  0
ARC
  5
A85
330
2
100
AcDbEntity
  8
0
100
AcDbCircle
 10
686.1822167495
 20
141.8318079652
 30
0.0
 40
2.0
100
AcDbArc
 50
180.0
 51
225.0
  0
ARC
  5
A86
330
2
100
AcDbEntity
  8
0
100
AcDbCircle
 10
657.1822167495
 20
166.0033779652
 30
0.0
 40
22.0
100
AcDbArc
 50
0.0
 51
14.477512
  0
ARC
  5
A87
330
2
100
AcDbEntity
  8
0
100
AcDbCircle
 10
686.1822167495
 20
168.8318079652
 30
0.0
 40
2.0
100
AcDbArc
 50
315.0
 51
0.0
  0
ARC
  5
A88
330
2
100
AcDbEntity
  8
0
100
AcDbCircle
 10
686.1822167495
 20
163.1749479652
 30
0.0
 40
2.0
100
AcDbArc
 50
135.0
 51
180.0
  0
LINE
  5
A89
330
2
100
AcDbEntity
  8
0
100
AcDbLine
 10
684.7680317495
 20
164.5891629652
 30
0.0
 11
687.5964017495
 21
167.4175929652
 31
0.0
  0
ARC
  5
A8A
330
2
100
AcDbEntity
  8
0
100
AcDbCircle
 10
676.5471457495
 20
171.0033779652
 30
0.0
 40
2.0
100
AcDbArc
 50
14.477512
 51
90.0
  0
ARC
  5
A8B
330
2
100
AcDbEntity
  8
0
100
AcDbCircle
 10
676.9559597495
 20
169.0033779652
 30
0.0
 40
2.0
100
AcDbArc
 50
8.626927
 51
90.0
  0
LINE
  5
A8C
330
2
100
AcDbEntity
  8
0
100
AcDbLine
 10
676.1020777495
 20
173.0033779652
 30
0.0
 11
676.5471457495
 21
173.0033779652
 31
0.0
  0
ARC
  5
A8D
330
2
100
AcDbEntity
  8
0
100
AcDbCircle
 10
814.7376977495
 20
117.5033779652
 30
0.0
 40
5.0
100
AcDbArc
 50
270.0
 51
0.0
  0
LINE
  5
A8E
330
2
100
AcDbEntity
  8
0
100
AcDbLine
 10
588.8891257495
 20
414.0956809169
 30
0.0
 11
687.4753077495
 21
414.0956809169
 31
0.0
  0
ARC
  5
A8F
330
2
100
AcDbEntity
  8
0
100
AcDbCircle
 10
672.3768577495
 20
195.5671139652
 30
0.0
 40
6.0
100
AcDbArc
 50
239.641693
 51
312.635925
  0
ARC
  5
A90
330
2
100
AcDbEntity
  8
0
100
AcDbCircle
 10
672.5241967495
 20
377.3916709169
 30
0.0
 40
11.0
100
AcDbArc
 50
248.924667
 51
295.717728
  0
LINE
  5
A91
330
2
100
AcDbEntity
  8
0
100
AcDbLine
 10
663.5497097495
 20
368.5956809169
 30
0.0
 11
681.0949367495
 21
368.5956809169
 31
0.0
  0
ARC
  5
A92
330
2
100
AcDbEntity
  8
0
100
AcDbCircle
 10
672.5241967495
 20
369.7996909169
 30
0.0
 40
11.0
100
AcDbArc
 50
64.282272
 51
111.075333
  0
LINE
  5
A93
330
2
100
AcDbEntity
  8
0
100
AcDbLine
 10
663.5497097495
 20
378.5956809169
 30
0.0
 11
681.0949367495
 21
378.5956809169
 31
0.0
  0
LINE
  5
A94
330
2
100
AcDbEntity
  8
0
100
AcDbLine
 10
689.1822167495
 20
401.5956809169
 30
0.0
 11
588.6709867495
 21
401.5956809169
 31
0.0
  0
LINE
  5
A95
330
2
100
AcDbEntity
  8
0
100
AcDbLine
 10
687.4753077495
 20
333.0956809169
 30
0.0
 11
588.8891257495
 21
333.0956809169
 31
0.0
  0
LINE
  5
A96
330
2
100
AcDbEntity
  8
CENTER
100
AcDbLine
 10
580.6414457495
 20
373.5956809169
 30
0.0
 11
828.2582277178
 21
373.5956809169
 31
0.0
  0
LINE
  5
A97
330
2
100
AcDbEntity
  8
0
100
AcDbLine
 10
681.1822167495
 20
193.0033779652
 30
0.0
 11
595.1822167495
 21
193.0033779652
 31
0.0
  0
LINE
  5
A99
330
2
100
AcDbEntity
  8
0
100
AcDbLine
 10
672.5241967495
 20
366.3916709169
 30
0.0
 11
672.5241967495
 21
333.0956809169
 31
0.0
  0
LINE
  5
A9A
330
2
100
AcDbEntity
  8
0
100
AcDbLine
 10
663.5497097495
 20
368.5956809169
 30
0.0
 11
663.5497097495
 21
333.0956809169
 31
0.0
  0
LINE
  5
A9B
330
2
100
AcDbEntity
  8
0
100
AcDbLine
 10
612.8147237495
 20
368.5956809169
 30
0.0
 11
612.8147237495
 21
333.0956809169
 31
0.0
  0
LINE
  5
A9C
330
2
100
AcDbEntity
  8
0
100
AcDbLine
 10
603.8402367495
 20
366.3916709169
 30
0.0
 11
603.8402367495
 21
333.0956809169
 31
0.0
  0
LINE
  5
A9D
330
2
100
AcDbEntity
  8
0
100
AcDbLine
 10
588.1822167495
 20
373.5956809169
 30
0.0
 11
588.8891257495
 21
333.0956809169
 31
0.0
  0
LINE
  5
A9E
330
2
100
AcDbEntity
  8
CENTER
100
AcDbLine
 10
595.1822167495
 20
329.7367639169
 30
0.0
 11
595.1822167495
 21
417.4117819169
 31
0.0
  0
LINE
  5
A9F
330
2
100
AcDbEntity
  8
CENTER
100
AcDbLine
 10
627.1822167495
 20
423.0908279169
 30
0.0
 11
627.1822167495
 21
324.1005339169
 31
0.0
  0
LINE
  5
AA0
330
2
100
AcDbEntity
  8
HIDS
100
AcDbLine
 10
599.1822167495
 20
333.0956809169
 30
0.0
 11
599.1822167495
 21
365.5956809169
 31
0.0
  0
LINE
  5
AA1
330
2
100
AcDbEntity
  8
HIDS
100
AcDbLine
 10
591.1822167495
 20
333.0956809169
 30
0.0
 11
591.1822167495
 21
365.5956809169
 31
0.0
  0
LINE
  5
AA6
330
2
100
AcDbEntity
  8
HIDS
100
AcDbLine
 10
425.3824513157
 20
190.1362059652
 30
0.0
 11
404.3475393157
 21
190.5033779652
 31
0.0
  0
ARC
  5
AA7
330
2
100
AcDbEntity
  8
HIDS
100
AcDbCircle
 10
427.3475393157
 20
189.5033779652
 30
0.0
 40
3.0
100
AcDbArc
 50
0.0
 51
90.0
  0
ARC
  5
AA8
330
2
100
AcDbEntity
  8
HIDS
100
AcDbCircle
 10
425.3475393157
 20
188.1365109652
 30
0.0
 40
2.0
100
AcDbArc
 50
0.0
 51
89.0
  0
LINE
  5
AA9
330
2
100
AcDbEntity
  8
HIDS
100
AcDbLine
 10
430.3475393157
 20
189.5033779652
 30
0.0
 11
430.3475393157
 21
185.9003509652
 31
0.0
  0
LINE
  5
AAA
330
2
100
AcDbEntity
  8
HIDS
100
AcDbLine
 10
427.3475393157
 20
188.1365109652
 30
0.0
 11
427.3475393157
 21
184.2051139652
 31
0.0
  0
ARC
  5
AAB
330
2
100
AcDbEntity
  8
0
100
AcDbCircle
 10
614.1822167495
 20
185.3682919652
 30
0.0
 40
2.0
100
AcDbArc
 50
104.477509
 51
180.0
  0
ARC
  5
AAC
330
2
100
AcDbEntity
  8
0
100
AcDbCircle
 10
619.1822167495
 20
166.0033779652
 30
0.0
 40
22.0
100
AcDbArc
 50
90.0
 51
110.487312
  0
ARC
  5
AAD
330
2
100
AcDbEntity
  8
0
100
AcDbCircle
 10
614.5828517495
 20
183.0033779652
 30
0.0
 40
10.0
100
AcDbArc
 50
90.0
 51
112.331642
  0
CIRCLE
  5
AAE
330
2
100
AcDbEntity
  8
0
100
AcDbCircle
 10
595.1822167495
 20
186.0033779652
 30
0.0
 40
3.2
  0
ARC
  5
AAF
330
2
100
AcDbEntity
  8
0
100
AcDbCircle
 10
595.1822167495
 20
186.0033779652
 30
0.0
 40
7.0
100
AcDbArc
 50
47.364067
 51
180.0
  0
ARC
  5
AB1
330
2
100
AcDbEntity
  8
0
100
AcDbCircle
 10
603.9875757495
 20
195.5671139652
 30
0.0
 40
6.0
100
AcDbArc
 50
227.364075
 51
300.358307
  0
ARC
  5
AB2
330
2
100
AcDbEntity
  8
0
100
AcDbCircle
 10
612.1822167495
 20
184.7383789652
 30
0.0
 40
2.0
100
AcDbArc
 50
110.487312
 51
180.0
  0
LINE
  5
AB3
330
2
100
AcDbEntity
  8
0
100
AcDbLine
 10
612.0580097495
 20
182.8094849652
 30
0.0
 11
610.0580097495
 21
183.5493369652
 31
0.0
  0
ARC
  5
AB4
330
2
100
AcDbEntity
  8
0
100
AcDbCircle
 10
608.1822167495
 20
184.2432309652
 30
0.0
 40
2.0
100
AcDbArc
 50
319.398705
 51
0.0
  0
LINE
  5
AB5
330
2
100
AcDbEntity
  8
0
100
AcDbLine
 10
612.1822167495
 20
183.5033779652
 30
0.0
 11
612.1822167495
 21
185.3682919652
 31
0.0
  0
LINE
  5
AB6
330
2
100
AcDbEntity
  8
0
100
AcDbLine
 10
610.1822167495
 20
184.2432309652
 30
0.0
 11
610.1822167495
 21
184.7383789652
 31
0.0
  0
ARC
  5
AB7
330
2
100
AcDbEntity
  8
0
100
AcDbCircle
 10
622.1822167495
 20
164.5033779652
 30
0.0
 40
30.0
100
AcDbArc
 50
112.331642
 51
120.358299
  0
LINE
  5
AB8
330
2
100
AcDbEntity
  8
0
100
AcDbLine
 10
619.1822167495
 20
188.0033779652
 30
0.0
 11
657.1822167495
 21
188.0033779652
 31
0.0
  0
ARC
  5
AB9
330
2
100
AcDbEntity
  8
0
100
AcDbCircle
 10
657.1822167495
 20
166.0033779652
 30
0.0
 40
22.0
100
AcDbArc
 50
69.512688
 51
90.0
  0
ARC
  5
ABA
330
2
100
AcDbEntity
  8
0
100
AcDbCircle
 10
664.1822167495
 20
184.7383789652
 30
0.0
 40
2.0
100
AcDbArc
 50
0.0
 51
69.512688
  0
ARC
  5
ABB
330
2
100
AcDbEntity
  8
0
100
AcDbCircle
 10
662.1822167495
 20
185.3682919652
 30
0.0
 40
2.0
100
AcDbArc
 50
0.0
 51
75.522491
  0
LINE
  5
ABC
330
2
100
AcDbEntity
  8
0
100
AcDbLine
 10
664.3064237495
 20
182.8094849652
 30
0.0
 11
666.3064237495
 21
183.5493369652
 31
0.0
  0
ARC
  5
ABD
330
2
100
AcDbEntity
  8
0
100
AcDbCircle
 10
668.1822167495
 20
184.2432309652
 30
0.0
 40
2.0
100
AcDbArc
 50
180.0
 51
220.601288
  0
LINE
  5
ABE
330
2
100
AcDbEntity
  8
0
100
AcDbLine
 10
664.1822167495
 20
183.5033779652
 30
0.0
 11
664.1822167495
 21
185.3682919652
 31
0.0
  0
LINE
  5
ABF
330
2
100
AcDbEntity
  8
0
100
AcDbLine
 10
666.1822167495
 20
184.2432309652
 30
0.0
 11
666.1822167495
 21
184.7383789652
 31
0.0
  0
ARC
  5
AC0
330
2
100
AcDbEntity
  8
0
100
AcDbCircle
 10
654.1822167495
 20
164.5033779652
 30
0.0
 40
30.0
100
AcDbArc
 50
59.641697
 51
67.668358
  0
ARC
  5
AC1
330
2
100
AcDbEntity
  8
0
100
AcDbCircle
 10
661.7815817495
 20
183.0033779652
 30
0.0
 40
10.0
100
AcDbArc
 50
67.668358
 51
90.0
  0
LINE
  5
AC2
330
2
100
AcDbEntity
  8
0
100
AcDbLine
 10
672.5241967495
 20
414.0956809169
 30
0.0
 11
672.5241967495
 21
380.7996909169
 31
0.0
  0
LINE
  5
AC3
330
2
100
AcDbEntity
  8
0
100
AcDbLine
 10
663.5497097495
 20
414.0956809169
 30
0.0
 11
663.5497097495
 21
378.5956809169
 31
0.0
  0
LINE
  5
AC4
330
2
100
AcDbEntity
  8
0
100
AcDbLine
 10
603.8402367495
 20
414.0956809169
 30
0.0
 11
603.8402367495
 21
380.7996909169
 31
0.0
  0
LINE
  5
AC5
330
2
100
AcDbEntity
  8
0
100
AcDbLine
 10
612.8147237495
 20
414.0956809169
 30
0.0
 11
612.8147237495
 21
378.5956809169
 31
0.0
  0
LINE
  5
AC6
330
2
100
AcDbEntity
  8
0
100
AcDbLine
 10
588.1822167495
 20
373.5956809169
 30
0.0
 11
588.8891257495
 21
414.0956809169
 31
0.0
  0
LINE
  5
AC7
330
2
100
AcDbEntity
  8
HIDS
  6
sekkei_H
100
AcDbLine
 10
599.4322167495
 20
401.5956809169
 30
0.0
 11
599.4322167495
 21
414.0956809169
 31
0.0
  0
LINE
  5
AC8
330
2
100
AcDbEntity
  8
HIDS
  6
sekkei_H
100
AcDbLine
 10
590.9322167495
 20
401.5956809169
 30
0.0
 11
590.9322167495
 21
414.0956809169
 31
0.0
  0
ARC
  5
AC9
330
2
100
AcDbEntity
  8
0
100
AcDbCircle
 10
603.8402367495
 20
377.3916709169
 30
0.0
 40
11.0
100
AcDbArc
 50
244.282272
 51
291.075317
  0
LINE
  5
ACA
330
2
100
AcDbEntity
  8
HIDS
100
AcDbLine
 10
591.1822167495
 20
365.5956809169
 30
0.0
 11
599.1822167495
 21
365.5956809169
 31
0.0
  0
ARC
  5
ACB
330
2
100
AcDbEntity
  8
0
100
AcDbCircle
 10
595.2694967495
 20
362.0956809169
 30
0.0
 40
6.5
100
AcDbArc
 50
64.282272
 51
90.0
  0
LINE
  5
ACC
330
2
100
AcDbEntity
  8
0
100
AcDbLine
 10
612.8147237495
 20
368.5956809169
 30
0.0
 11
595.2694967495
 21
368.5956809169
 31
0.0
  0
ARC
  5
ACD
330
2
100
AcDbEntity
  8
0
100
AcDbCircle
 10
595.2694967495
 20
385.0956809169
 30
0.0
 40
6.5
100
AcDbArc
 50
270.0
 51
295.717728
  0
LINE
  5
ACE
330
2
100
AcDbEntity
  8
0
100
AcDbLine
 10
612.8147237495
 20
378.5956809169
 30
0.0
 11
595.2694967495
 21
378.5956809169
 31
0.0
  0
LINE
  5
ACF
330
2
100
AcDbEntity
  8
0
100
AcDbLine
 10
599.0669217495
 20
367.4813009169
 30
0.0
 11
598.0901147495
 21
367.9518209169
 31
0.0
  0
ARC
  5
AD0
330
2
100
AcDbEntity
  8
0
100
AcDbCircle
 10
612.8147237495
 20
362.0956809169
 30
0.0
 40
6.5
100
AcDbArc
 50
90.0
 51
111.075333
  0
LINE
  5
AD1
330
2
100
AcDbEntity
  8
0
100
AcDbLine
 10
610.4773217495
 20
368.1608969169
 30
0.0
 11
607.7958027495
 21
367.1274809169
 31
0.0
  0
ARC
  5
AD2
330
2
100
AcDbEntity
  8
0
100
AcDbCircle
 10
603.8402367495
 20
369.7996909169
 30
0.0
 40
11.0
100
AcDbArc
 50
68.924667
 51
115.717728
  0
LINE
  5
AD3
330
2
100
AcDbEntity
  8
0
100
AcDbLine
 10
599.0669217495
 20
379.7100609169
 30
0.0
 11
598.0901147495
 21
379.2395719169
 31
0.0
  0
ARC
  5
AD4
330
2
100
AcDbEntity
  8
0
100
AcDbCircle
 10
612.8147237495
 20
385.0956809169
 30
0.0
 40
6.5
100
AcDbArc
 50
248.924667
 51
270.0
  0
LINE
  5
AD5
330
2
100
AcDbEntity
  8
0
100
AcDbLine
 10
610.4773217495
 20
379.0304649169
 30
0.0
 11
607.7958027495
 21
380.0638819169
 31
0.0
  0
LINE
  5
AD6
330
2
100
AcDbEntity
  8
HIDS
100
AcDbLine
 10
591.1822167495
 20
401.5956809169
 30
0.0
 11
591.1822167495
 21
381.5956809169
 31
0.0
  0
LINE
  5
AD7
330
2
100
AcDbEntity
  8
HIDS
100
AcDbLine
 10
599.1822167495
 20
401.5956809169
 30
0.0
 11
599.1822167495
 21
381.5956809169
 31
0.0
  0
LINE
  5
AD8
330
2
100
AcDbEntity
  8
HIDS
100
AcDbLine
 10
591.1822167495
 20
381.5956809169
 30
0.0
 11
599.1822167495
 21
381.5956809169
 31
0.0
  0
LINE
  5
AD9
330
2
100
AcDbEntity
  8
0
100
AcDbLine
 10
665.8870507495
 20
368.1608969169
 30
0.0
 11
668.5686307495
 21
367.1274809169
 31
0.0
  0
ARC
  5
ADA
330
2
100
AcDbEntity
  8
0
100
AcDbCircle
 10
663.5497097495
 20
362.0956809169
 30
0.0
 40
6.5
100
AcDbArc
 50
68.924667
 51
90.0
  0
LINE
  5
ADB
330
2
100
AcDbEntity
  8
0
100
AcDbLine
 10
665.8870507495
 20
379.0304649169
 30
0.0
 11
668.5686307495
 21
380.0638819169
 31
0.0
  0
ARC
  5
ADC
330
2
100
AcDbEntity
  8
0
100
AcDbCircle
 10
663.5497097495
 20
385.0956809169
 30
0.0
 40
6.5
100
AcDbArc
 50
270.0
 51
291.075317
  0
LINE
  5
ADD
330
2
100
AcDbEntity
  8
0
100
AcDbLine
 10
819.7376977495
 20
408.5956809169
 30
0.0
 11
819.7376977495
 21
338.5956809169
 31
0.0
  0
LINE
  5
ADE
330
2
100
AcDbEntity
  8
0
100
AcDbLine
 10
770.7376977495
 20
413.5956809169
 30
0.0
 11
770.7376977495
 21
333.5956809169
 31
0.0
  0
LINE
  5
ADF
330
2
100
AcDbEntity
  8
0
100
AcDbLine
 10
683.6151997495
 20
373.5956809169
 30
0.0
 11
683.1794087495
 21
348.6305929169
 31
0.0
  0
LINE
  5
AE0
330
2
100
AcDbEntity
  8
0
100
AcDbLine
 10
689.1822167495
 20
396.5956809169
 30
0.0
 11
689.1822167495
 21
350.5956809169
 31
0.0
  0
LINE
  5
AE1
330
2
100
AcDbEntity
  8
CENTER
100
AcDbLine
 10
681.1822167495
 20
329.7367639169
 30
0.0
 11
681.1822167495
 21
417.4117819169
 31
0.0
  0
LINE
  5
AE2
330
2
100
AcDbEntity
  8
0
100
AcDbLine
 10
761.2376977495
 20
335.5956809169
 30
0.0
 11
761.2376977495
 21
366.7296539169
 31
0.0
  0
LINE
  5
AE3
330
2
100
AcDbEntity
  8
HIDS
100
AcDbLine
 10
685.1822167495
 20
333.0956809169
 30
0.0
 11
685.1822167495
 21
365.5956809169
 31
0.0
  0
LINE
  5
AE4
330
2
100
AcDbEntity
  8
HIDS
100
AcDbLine
 10
677.1822167495
 20
333.0956809169
 30
0.0
 11
677.1822167495
 21
365.5956809169
 31
0.0
  0
LINE
  5
AE7
330
2
100
AcDbEntity
  8
0
100
AcDbLine
 10
817.4876977495
 20
349.5956809169
 30
0.0
 11
770.7376977495
 21
349.5956809169
 31
0.0
  0
LINE
  5
AE8
330
2
100
AcDbEntity
  8
0
100
AcDbLine
 10
814.7376977495
 20
333.5956809169
 30
0.0
 11
770.7376977495
 21
333.5956809169
 31
0.0
  0
LINE
  5
AE9
330
2
100
AcDbEntity
  8
0
100
AcDbLine
 10
814.7376977495
 20
192.5033779652
 30
0.0
 11
770.7376977495
 21
192.5033779652
 31
0.0
  0
LINE
  5
AEA
330
2
100
AcDbEntity
  8
0
100
AcDbLine
 10
761.2376977495
 20
182.7523399652
 30
0.0
 11
688.1822167495
 21
182.7523399652
 31
0.0
  0
LINE
  5
AEB
330
2
100
AcDbEntity
  8
0
100
AcDbLine
 10
761.2376977495
 20
190.5033779652
 30
0.0
 11
689.5409817495
 21
190.5033779652
 31
0.0
  0
ARC
  5
AEC
330
2
100
AcDbEntity
  8
0
100
AcDbCircle
 10
681.1822167495
 20
186.0033779652
 30
0.0
 40
7.0
100
AcDbArc
 50
0.0
 51
132.635925
  0
CIRCLE
  5
AED
330
2
100
AcDbEntity
  8
0
100
AcDbCircle
 10
681.1822167495
 20
186.0033779652
 30
0.0
 40
3.2
  0
LINE
  5
AEE
330
2
100
AcDbEntity
  8
0
100
AcDbLine
 10
688.8458517495
 20
190.6280729652
 30
0.0
 11
683.6151997495
 21
192.5669609652
 31
0.0
  0
ARC
  5
AEF
330
2
100
AcDbEntity
  8
0
100
AcDbCircle
 10
689.5409817495
 20
192.5033779652
 30
0.0
 40
2.0
100
AcDbArc
 50
249.66127
 51
270.0
  0
LINE
  5
AF0
330
2
100
AcDbEntity
  8
0
100
AcDbLine
 10
770.7376977495
 20
182.7523709652
 30
0.0
 11
761.2376977495
 21
182.7523709652
 31
0.0
  0
LINE
  5
AF1
330
2
100
AcDbEntity
  8
0
100
AcDbLine
 10
770.7376977495
 20
190.5033779652
 30
0.0
 11
761.2376977495
 21
190.5033779652
 31
0.0
  0
LINE
  5
AF2
330
2
100
AcDbEntity
  8
0
100
AcDbLine
 10
761.5377467495
 20
204.3783779652
 30
0.0
 11
761.5377467495
 21
192.0033779652
 31
0.0
  0
LINE
  5
AF3
330
2
100
AcDbEntity
  8
0
100
AcDbLine
 10
766.9377097495
 20
203.5658779652
 30
0.0
 11
766.9377097495
 21
192.0033779652
 31
0.0
  0
LINE
  5
AF4
330
2
100
AcDbEntity
  8
0
100
AcDbLine
 10
765.1377217495
 20
205.6283779652
 30
0.0
 11
765.1377217495
 21
192.0033779652
 31
0.0
  0
LINE
  5
AF5
330
2
100
AcDbEntity
  8
0
100
AcDbLine
 10
763.3377347495
 20
205.0033779652
 30
0.0
 11
763.3377347495
 21
192.0033779652
 31
0.0
  0
LINE
  5
AF6
330
2
100
AcDbEntity
  8
0
100
AcDbLine
 10
767.7376977495
 20
192.0033779652
 30
0.0
 11
760.7376977495
 21
192.0033779652
 31
0.0
  0
LINE
  5
AF7
330
2
100
AcDbEntity
  8
0
100
AcDbLine
 10
760.7376977495
 20
192.0033779652
 30
0.0
 11
760.7376977495
 21
190.5033779652
 31
0.0
  0
LINE
  5
AF8
330
2
100
AcDbEntity
  8
0
100
AcDbLine
 10
767.7376977495
 20
192.0033779652
 30
0.0
 11
767.7376977495
 21
190.5033779652
 31
0.0
  0
LINE
  5
AF9
330
2
100
AcDbEntity
  8
HOJO
100
AcDbLine
 10
761.5377467495
 20
204.3783779652
 30
0.0
 11
763.3366967495
 21
203.9306699652
 31
0.0
  0
LINE
  5
AFA
330
2
100
AcDbEntity
  8
HOJO
100
AcDbLine
 10
766.9377097495
 20
203.5658779652
 30
0.0
 11
765.1377217495
 21
204.1908779652
 31
0.0
  0
LINE
  5
AFB
330
2
100
AcDbEntity
  8
HOJO
100
AcDbLine
 10
765.1377217495
 20
205.6283779652
 30
0.0
 11
763.3377347495
 21
205.0033779652
 31
0.0
  0
LINE
  5
AFC
330
2
100
AcDbEntity
  8
0
100
AcDbLine
 10
770.7376977495
 20
350.5956809169
 30
0.0
 11
685.1791037495
 21
350.5956809169
 31
0.0
  0
LINE
  5
AFD
330
2
100
AcDbEntity
  8
0
100
AcDbLine
 10
689.4843407495
 20
335.5956809169
 30
0.0
 11
761.2376977495
 21
335.5956809169
 31
0.0
  0
LINE
  5
AFE
330
2
100
AcDbEntity
  8
0
100
AcDbLine
 10
687.4753077495
 20
333.0956809169
 30
0.0
 11
687.7807277495
 21
350.5956809169
 31
0.0
  0
ARC
  5
AFF
330
2
100
AcDbEntity
  8
0
100
AcDbCircle
 10
689.4843407495
 20
333.5956809169
 30
0.0
 40
2.0
100
AcDbArc
 50
90.0
 51
179.0
  0
ARC
  5
B00
330
2
100
AcDbEntity
  8
0
100
AcDbCircle
 10
685.1791037495
 20
348.5956809169
 30
0.0
 40
2.0
100
AcDbArc
 50
90.0
 51
179.0
  0
LINE
  5
B01
330
2
100
AcDbEntity
  8
0
100
AcDbLine
 10
770.7376977495
 20
335.5956809169
 30
0.0
 11
761.2376977495
 21
335.5956809169
 31
0.0
  0
ARC
  5
B02
330
2
100
AcDbEntity
  8
0
100
AcDbCircle
 10
814.7376977495
 20
187.5033779652
 30
0.0
 40
5.0
100
AcDbArc
 50
0.0
 51
90.0
  0
ARC
  5
B03
330
2
100
AcDbEntity
  8
0
100
AcDbCircle
 10
814.7376977495
 20
338.5956809169
 30
0.0
 40
5.0
100
AcDbArc
 50
270.0
 51
0.0
  0
LINE
  5
B04
330
2
100
AcDbEntity
  8
0
100
AcDbLine
 10
817.4876977495
 20
397.5956809169
 30
0.0
 11
770.7376977495
 21
397.5956809169
 31
0.0
  0
LINE
  5
B05
330
2
100
AcDbEntity
  8
0
100
AcDbLine
 10
814.7376977495
 20
413.5956809169
 30
0.0
 11
770.7376977495
 21
413.5956809169
 31
0.0
  0
LINE
  5
B06
330
2
100
AcDbEntity
  8
0
100
AcDbLine
 10
761.2376977495
 20
380.4617089169
 30
0.0
 11
761.2376977495
 21
411.5956809169
 31
0.0
  0
LINE
  5
B07
330
2
100
AcDbEntity
  8
0
100
AcDbLine
 10
687.4753077495
 20
414.0956809169
 30
0.0
 11
687.7807277495
 21
396.5956809169
 31
0.0
  0
LINE
  5
B08
330
2
100
AcDbEntity
  8
0
100
AcDbLine
 10
689.1822167495
 20
410.9749539169
 30
0.0
 11
689.1822167495
 21
401.5956809169
 31
0.0
  0
LINE
  5
B09
330
2
100
AcDbEntity
  8
HIDS
  6
sekkei_H
100
AcDbLine
 10
685.4322167495
 20
401.5956809169
 30
0.0
 11
685.4322167495
 21
414.0956809169
 31
0.0
  0
LINE
  5
B0A
330
2
100
AcDbEntity
  8
HIDS
  6
sekkei_H
100
AcDbLine
 10
676.9322167495
 20
401.5956809169
 30
0.0
 11
676.9322167495
 21
414.0956809169
 31
0.0
  0
LINE
  5
B0B
330
2
100
AcDbEntity
  8
0
100
AcDbLine
 10
770.7376977495
 20
396.5956809169
 30
0.0
 11
685.1791037495
 21
396.5956809169
 31
0.0
  0
LINE
  5
B0C
330
2
100
AcDbEntity
  8
0
100
AcDbLine
 10
683.6151997495
 20
373.5956809169
 30
0.0
 11
683.1794087495
 21
398.5607689169
 31
0.0
  0
LINE
  5
B0D
330
2
100
AcDbEntity
  8
HIDS
100
AcDbLine
 10
677.1822167495
 20
365.5956809169
 30
0.0
 11
685.1822167495
 21
365.5956809169
 31
0.0
  0
LINE
  5
B0E
330
2
100
AcDbEntity
  8
0
100
AcDbLine
 10
677.2975117495
 20
367.4813009169
 30
0.0
 11
678.2743187495
 21
367.9518209169
 31
0.0
  0
ARC
  5
B0F
330
2
100
AcDbEntity
  8
0
100
AcDbCircle
 10
681.0949367495
 20
362.0956809169
 30
0.0
 40
6.5
100
AcDbArc
 50
90.0
 51
115.717728
  0
LINE
  5
B10
330
2
100
AcDbEntity
  8
0
100
AcDbLine
 10
677.2975117495
 20
379.7100609169
 30
0.0
 11
678.2743187495
 21
379.2395719169
 31
0.0
  0
ARC
  5
B11
330
2
100
AcDbEntity
  8
0
100
AcDbCircle
 10
681.0949367495
 20
385.0956809169
 30
0.0
 40
6.5
100
AcDbArc
 50
244.282272
 51
270.0
  0
LINE
  5
B12
330
2
100
AcDbEntity
  8
HIDS
100
AcDbLine
 10
677.1822167495
 20
401.5956809169
 30
0.0
 11
677.1822167495
 21
381.5956809169
 31
0.0
  0
LINE
  5
B13
330
2
100
AcDbEntity
  8
HIDS
100
AcDbLine
 10
685.1822167495
 20
401.5956809169
 30
0.0
 11
685.1822167495
 21
381.5956809169
 31
0.0
  0
LINE
  5
B14
330
2
100
AcDbEntity
  8
HIDS
100
AcDbLine
 10
677.1822167495
 20
381.5956809169
 30
0.0
 11
685.1822167495
 21
381.5956809169
 31
0.0
  0
ARC
  5
B15
330
2
100
AcDbEntity
  8
0
100
AcDbCircle
 10
685.1791037495
 20
398.5956809169
 30
0.0
 40
2.0
100
AcDbArc
 50
181.0
 51
270.0
  0
ARC
  5
B16
330
2
100
AcDbEntity
  8
0
100
AcDbCircle
 10
761.7376977495
 20
367.5956809169
 30
0.0
 40
1.0
100
AcDbArc
 50
180.0
 51
270.0
  0
ARC
  5
B17
330
2
100
AcDbEntity
  8
0
100
AcDbCircle
 10
766.7376977495
 20
367.5956809169
 30
0.0
 40
1.0
100
AcDbArc
 50
270.0
 51
0.0
  0
LINE
  5
B18
330
2
100
AcDbEntity
  8
0
100
AcDbLine
 10
761.7376977495
 20
366.5956809169
 30
0.0
 11
766.7376977495
 21
366.5956809169
 31
0.0
  0
LINE
  5
B19
330
2
100
AcDbEntity
  8
0
100
AcDbLine
 10
765.2376977495
 20
377.0956809169
 30
0.0
 11
765.2376977495
 21
370.0956809169
 31
0.0
  0
LINE
  5
B1A
330
2
100
AcDbEntity
  8
0
100
AcDbLine
 10
763.2376977495
 20
377.0956809169
 30
0.0
 11
763.2376977495
 21
370.0956809169
 31
0.0
  0
LINE
  5
B1B
330
2
100
AcDbEntity
  8
0
100
AcDbLine
 10
760.7376977495
 20
367.5956809169
 30
0.0
 11
760.7376977495
 21
379.5956809169
 31
0.0
  0
LINE
  5
B1C
330
2
100
AcDbEntity
  8
0
100
AcDbLine
 10
767.7376977495
 20
367.5956809169
 30
0.0
 11
767.7376977495
 21
379.5956809169
 31
0.0
  0
ARC
  5
B1D
330
2
100
AcDbEntity
  8
0
100
AcDbCircle
 10
764.2376977495
 20
370.0956809169
 30
0.0
 40
1.0
100
AcDbArc
 50
180.0
 51
0.0
  0
LINE
  5
B1E
330
2
100
AcDbEntity
  8
0
100
AcDbLine
 10
766.7376977495
 20
380.5956809169
 30
0.0
 11
761.7376977495
 21
380.5956809169
 31
0.0
  0
ARC
  5
B1F
330
2
100
AcDbEntity
  8
0
100
AcDbCircle
 10
761.7376977495
 20
379.5956809169
 30
0.0
 40
1.0
100
AcDbArc
 50
90.0
 51
180.0
  0
ARC
  5
B20
330
2
100
AcDbEntity
  8
0
100
AcDbCircle
 10
764.2376977495
 20
377.0956809169
 30
0.0
 40
1.0
100
AcDbArc
 50
0.0
 51
180.0
  0
ARC
  5
B21
330
2
100
AcDbEntity
  8
0
100
AcDbCircle
 10
766.7376977495
 20
379.5956809169
 30
0.0
 40
1.0
100
AcDbArc
 50
0.0
 51
90.0
  0
LINE
  5
B22
330
2
100
AcDbEntity
  8
0
100
AcDbLine
 10
690.6305197495
 20
411.5956809169
 30
0.0
 11
761.2376977495
 21
411.5956809169
 31
0.0
  0
ARC
  5
B23
330
2
100
AcDbEntity
  8
0
100
AcDbCircle
 10
690.6305197495
 20
409.5956809169
 30
0.0
 40
2.0
100
AcDbArc
 50
90.0
 51
136.398758
  0
LINE
  5
B24
330
2
100
AcDbEntity
  8
0
100
AcDbLine
 10
770.7376977495
 20
411.5956809169
 30
0.0
 11
761.2376977495
 21
411.5956809169
 31
0.0
  0
ARC
  5
B25
330
2
100
AcDbEntity
  8
0
100
AcDbCircle
 10
814.7376977495
 20
408.5957119169
 30
0.0
 40
5.0
100
AcDbArc
 50
0.0
 51
90.0
  0
LINE
  5
1183
330
2
100
AcDbEntity
  8
0
100
AcDbLine
 10
149.6974087633
 20
281.8512096297
 30
0.0
 11
190.1974087633
 21
282.5581416297
 31
0.0
  0
LINE
  5
1184
330
2
100
AcDbEntity
  8
0
100
AcDbLine
 10
149.6974087633
 20
362.8512096297
 30
0.0
 11
190.1974087633
 21
362.1442856297
 31
0.0
  0
LINE
  5
1185
330
2
100
AcDbEntity
  8
CENTER
100
AcDbLine
 10
92.9587917633
 20
322.3512096297
 30
0.0
 11
206.4360257633
 21
322.3512096297
 31
0.0
  0
LINE
  5
1186
330
2
100
AcDbEntity
  8
PHAS
  6
sekkei_P_S
100
AcDbLine
 10
198.4738677633
 20
306.4773236297
 30
0.0
 11
185.0974027633
 21
302.8931106297
 31
0.0
  0
LINE
  5
1187
330
2
100
AcDbEntity
  8
PHAS
  6
sekkei_P_S
100
AcDbLine
 10
198.4738677633
 20
338.2250956297
 30
0.0
 11
185.0974027633
 21
341.8093086297
 31
0.0
  0
LWPOLYLINE
  5
118D
330
2
100
AcDbEntity
  8
HOJO
100
AcDbPolyline
 90
       21
 70
     0
 43
0.0
 10
109.1974087633
 20
348.4112526297
 10
112.6715297633
 20
348.2755416297
 10
116.2653107633
 20
349.2431006297
 10
119.5712487633
 20
347.9407636297
 10
119.7307947633
 20
344.1120126297
 10
122.8416347633
 20
339.8844276297
 10
126.5108547633
 20
338.3688946297
 10
128.9038297632
 20
333.6627176297
 10
133.5302337633
 20
332.0673966297
 10
140.3103237633
 20
332.7055336297
 10
146.6118067633
 20
332.0673966297
 10
154.5883697633
 20
333.1043526297
 10
160.9696257633
 20
331.6685776297
 10
166.7127587633
 20
333.4234146297
 10
171.0998437633
 20
332.5460036297
 10
172.0570277633
 20
338.0498176297
 10
178.8371177633
 20
341.4797496297
 10
178.9966337633
 20
346.4252146297
 10
182.8322357632
 20
349.7577646297
 10
186.4802147633
 20
349.4008926297
 10
190.1974087633
 20
349.7726116297
  0
LWPOLYLINE
  5
118E
330
2
100
AcDbEntity
  8
HOJO
100
AcDbPolyline
 90
       21
 70
     0
 43
0.0
 10
109.1974087633
 20
296.2911666297
 10
112.6715297633
 20
296.4268706297
 10
116.2653107633
 20
295.4593186297
 10
119.5712487633
 20
296.7616556297
 10
119.7307947633
 20
300.5904066297
 10
122.8416347633
 20
304.8179916297
 10
126.5108547633
 20
306.3335246297
 10
128.9038297632
 20
311.0397016297
 10
133.5302337633
 20
312.6350226297
 10
140.3103237633
 20
311.9968856297
 10
146.6118067633
 20
312.6350226297
 10
154.5883697633
 20
311.5980666297
 10
160.9696257633
 20
313.0338416297
 10
166.7127587633
 20
311.2790046297
 10
171.0998437633
 20
312.1564156297
 10
172.0570277633
 20
306.6526016297
 10
178.8371177633
 20
303.2226696297
 10
178.9966337633
 20
298.2772046297
 10
182.8322357632
 20
294.9446546297
 10
186.4802147633
 20
295.3015196297
 10
190.1974087633
 20
294.9297996297
  0
LINE
  5
1192
330
2
100
AcDbEntity
  8
0
100
AcDbLine
 10
121.6974087633
 20
362.3624706297
 30
0.0
 11
121.6974087633
 21
341.4394356297
 31
0.0
  0
LINE
  5
1193
330
2
100
AcDbEntity
  8
0
100
AcDbLine
 10
109.1974087633
 20
362.1442856297
 30
0.0
 11
109.1974087633
 21
282.5581416297
 31
0.0
  0
LINE
  5
1194
330
2
100
AcDbEntity
  8
CENTER
100
AcDbLine
 10
149.6974087633
 20
369.8993356297
 30
0.0
 11
149.6974087633
 21
274.8030836297
 31
0.0
  0
LINE
  5
11B0
330
2
100
AcDbEntity
  8
PHAS
  6
sekkei_P_S
100
AcDbLine
 10
100.9209497633
 20
338.2250956297
 30
0.0
 11
114.2974147633
 21
341.8093086297
 31
0.0
  0
LINE
  5
11B1
330
2
100
AcDbEntity
  8
PHAS
  6
sekkei_P_S
100
AcDbLine
 10
100.9209497633
 20
306.4773236297
 30
0.0
 11
114.2974147633
 21
302.8931106297
 31
0.0
  0
LINE
  5
11B2
330
2
100
AcDbEntity
  8
PHAS
  6
sekkei_P_S
100
AcDbLine
 10
98.6974087633
 20
335.3273146297
 30
0.0
 11
98.6974087633
 21
309.4381846297
 31
0.0
  0
ARC
  5
11B3
330
2
100
AcDbEntity
  8
PHAS
  6
sekkei_P_S
100
AcDbCircle
 10
101.6974087633
 20
309.3751046297
 30
0.0
 40
3.0
100
AcDbArc
 50
180.0
 51
255.0
  0
ARC
  5
11B4
330
2
100
AcDbEntity
  8
PHAS
  6
sekkei_P_S
100
AcDbCircle
 10
101.6974087633
 20
335.3273146297
 30
0.0
 40
3.0
100
AcDbArc
 50
105.0
 51
180.0
  0
LINE
  5
11B5
330
2
100
AcDbEntity
  8
0
100
AcDbLine
 10
184.6973167633
 20
332.3512096297
 30
0.0
 11
184.6973167633
 21
312.3512096297
 31
0.0
  0
LINE
  5
11B6
330
2
100
AcDbEntity
  8
0
100
AcDbLine
 10
114.6975007633
 20
332.3512096297
 30
0.0
 11
114.6975007633
 21
312.3512096297
 31
0.0
  0
LINE
  5
11B7
330
2
100
AcDbEntity
  8
0
100
AcDbLine
 10
114.2974147633
 20
343.2012156297
 30
0.0
 11
114.2974147633
 21
301.5012036297
 31
0.0
  0
LINE
  5
11B8
330
2
100
AcDbEntity
  8
0
100
AcDbLine
 10
111.6974087633
 20
300.7516306297
 30
0.0
 11
111.6974087633
 21
343.9507886297
 31
0.0
  0
LINE
  5
11B9
330
2
100
AcDbEntity
  8
0
100
AcDbLine
 10
185.0974027633
 20
343.2012156297
 30
0.0
 11
185.0974027633
 21
301.5012036297
 31
0.0
  0
LINE
  5
11BA
330
2
100
AcDbEntity
  8
0
100
AcDbLine
 10
187.6974087633
 20
300.7516306297
 30
0.0
 11
187.6974087633
 21
343.9507886297
 31
0.0
  0
LINE
  5
11BB
330
2
100
AcDbEntity
  8
0
100
AcDbLine
 10
149.6974087633
 20
281.8512096297
 30
0.0
 11
109.1974087633
 21
282.5581416297
 31
0.0
  0
LINE
  5
11BC
330
2
100
AcDbEntity
  8
0
100
AcDbLine
 10
121.6974087633
 20
282.3399486297
 30
0.0
 11
121.6974087633
 21
303.2629986297
 31
0.0
  0
LINE
  5
11BD
330
2
100
AcDbEntity
  8
0
100
AcDbLine
 10
124.6974087633
 20
309.8512096297
 30
0.0
 11
128.2995207633
 21
309.8512096297
 31
0.0
  0
LINE
  5
11BE
330
2
100
AcDbEntity
  8
0
100
AcDbLine
 10
116.6974087633
 20
301.5012036297
 30
0.0
 11
116.6974087633
 21
312.3512096297
 31
0.0
  0
LINE
  5
11BF
330
2
100
AcDbEntity
  8
PHAS
100
AcDbLine
 10
115.4974267633
 20
302.8512096297
 30
0.0
 11
116.6974087633
 21
302.8931106297
 31
0.0
  0
ARC
  5
11C0
330
2
100
AcDbEntity
  8
PHAS
100
AcDbCircle
 10
115.4974267633
 20
303.0712106297
 30
0.0
 40
1.219999999999997
100
AcDbArc
 50
188.302261
 51
349.611145
  0
LINE
  5
11C1
330
2
100
AcDbEntity
  8
0
100
AcDbLine
 10
115.8814607633
 20
297.8283446297
 30
0.0
 11
113.0133567633
 21
298.8722366297
 31
0.0
  0
LINE
  5
11C2
330
2
100
AcDbEntity
  8
0
100
AcDbLine
 10
114.2974147633
 20
301.5012036297
 30
0.0
 11
116.6974087633
 21
301.5012036297
 31
0.0
  0
LINE
  5
11C3
330
2
100
AcDbEntity
  8
0
100
AcDbLine
 10
111.6974087633
 20
302.8512096297
 30
0.0
 11
114.2974147633
 21
302.8512096297
 31
0.0
  0
LINE
  5
11C4
330
2
100
AcDbEntity
  8
PHAS
100
AcDbLine
 10
115.4974267633
 20
302.8512096297
 30
0.0
 11
114.2974147633
 21
302.8931106297
 31
0.0
  0
LINE
  5
11C5
330
2
100
AcDbEntity
  8
0
100
AcDbLine
 10
109.1974087633
 20
294.1809976297
 30
0.0
 11
115.6974087633
 21
294.3512096297
 31
0.0
  0
ARC
  5
11C6
330
2
100
AcDbEntity
  8
0
100
AcDbCircle
 10
113.6974087633
 20
300.7516306297
 30
0.0
 40
2.0
100
AcDbArc
 50
180.0
 51
250.0
  0
LINE
  5
11C7
330
2
100
AcDbEntity
  8
0
100
AcDbLine
 10
114.6973777633
 20
295.0512216297
 30
0.0
 11
115.6974087633
 21
295.0512216297
 31
0.0
  0
LINE
  5
11C8
330
2
100
AcDbEntity
  8
0
100
AcDbLine
 10
114.6973777633
 20
295.0512216297
 30
0.0
 11
114.6973777633
 21
295.8814526297
 31
0.0
  0
LINE
  5
11C9
330
2
100
AcDbEntity
  8
0
100
AcDbLine
 10
110.6973777633
 20
295.3511946297
 30
0.0
 11
110.6973777633
 21
296.3497596297
 31
0.0
  0
LINE
  5
11CA
330
2
100
AcDbEntity
  8
0
100
AcDbLine
 10
110.6973777633
 20
295.3511946297
 30
0.0
 11
114.6973777633
 21
295.3511786297
 31
0.0
  0
LINE
  5
11CB
330
2
100
AcDbEntity
  8
0
100
AcDbLine
 10
115.6974087633
 20
294.3512096297
 30
0.0
 11
115.6974087633
 21
295.6122186297
 31
0.0
  0
LINE
  5
11CC
330
2
100
AcDbEntity
  8
0
100
AcDbLine
 10
117.1974087633
 20
295.8265056297
 30
0.0
 11
117.1974087633
 21
295.9489576297
 31
0.0
  0
ARC
  5
11CD
330
2
100
AcDbEntity
  8
0
100
AcDbCircle
 10
115.1974087633
 20
295.9489576297
 30
0.0
 40
2.0
100
AcDbArc
 50
0.0
 51
69.999992
  0
LINE
  5
11CE
330
2
100
AcDbEntity
  8
0
100
AcDbLine
 10
114.6975007633
 20
312.3512096297
 30
0.0
 11
124.6974087633
 21
312.3512096297
 31
0.0
  0
LINE
  5
11CF
330
2
100
AcDbEntity
  8
0
100
AcDbLine
 10
117.6974087633
 20
306.3512096297
 30
0.0
 11
124.6974087633
 21
306.3512096297
 31
0.0
  0
LINE
  5
11D0
330
2
100
AcDbEntity
  8
0
100
AcDbLine
 10
117.6974087633
 20
306.3512096297
 30
0.0
 11
123.6974087633
 21
312.3512096297
 31
0.0
  0
LINE
  5
11D1
330
2
100
AcDbEntity
  8
0
100
AcDbLine
 10
123.6974087633
 20
306.3512096297
 30
0.0
 11
117.6974087633
 21
312.3512096297
 31
0.0
  0
LINE
  5
11D2
330
2
100
AcDbEntity
  8
0
100
AcDbLine
 10
117.6974087633
 20
306.3512096297
 30
0.0
 11
117.6974087633
 21
312.3512096297
 31
0.0
  0
LINE
  5
11D3
330
2
100
AcDbEntity
  8
0
100
AcDbLine
 10
117.6974087633
 20
306.3512096297
 30
0.0
 11
116.6974087633
 21
305.7738626297
 31
0.0
  0
LINE
  5
11D4
330
2
100
AcDbEntity
  8
0
100
AcDbLine
 10
124.6974087633
 20
305.5845016297
 30
0.0
 11
124.6974087633
 21
312.3512096297
 31
0.0
  0
LINE
  5
11D5
330
2
100
AcDbEntity
  8
0
100
AcDbLine
 10
123.6974087633
 20
306.3512096297
 30
0.0
 11
123.6974087633
 21
312.3512096297
 31
0.0
  0
LINE
  5
11D6
330
2
100
AcDbEntity
  8
0
100
AcDbLine
 10
142.7323207633
 20
307.2183816297
 30
0.0
 11
126.8195707633
 21
306.9406106297
 31
0.0
  0
LINE
  5
11D7
330
2
100
AcDbEntity
  8
0
100
AcDbLine
 10
140.3994047633
 20
311.1776566297
 30
0.0
 11
128.8716637633
 21
310.9764386297
 31
0.0
  0
ARC
  5
11D8
330
2
100
AcDbEntity
  8
0
100
AcDbCircle
 10
142.6974087633
 20
309.2180766297
 30
0.0
 40
2.0
100
AcDbArc
 50
271.0
 51
0.0
  0
ARC
  5
11D9
330
2
100
AcDbEntity
  8
0
100
AcDbCircle
 10
140.3644927633
 20
313.1773506297
 30
0.0
 40
2.0
100
AcDbArc
 50
271.0
 51
330.014954
  0
LINE
  5
11DA
330
2
100
AcDbEntity
  8
0
100
AcDbLine
 10
144.2685447633
 20
307.9805126297
 30
0.0
 11
141.9356287633
 21
311.9398026297
 31
0.0
  0
LINE
  5
11DB
330
2
100
AcDbEntity
  8
0
100
AcDbLine
 10
144.6974087633
 20
309.2180766297
 30
0.0
 11
144.6974087633
 21
312.4411606297
 31
0.0
  0
LINE
  5
11DC
330
2
100
AcDbEntity
  8
0
100
AcDbLine
 10
156.6624967633
 20
307.4365676297
 30
0.0
 11
171.9671537633
 21
307.1694166297
 31
0.0
  0
LINE
  5
11DD
330
2
100
AcDbEntity
  8
0
100
AcDbLine
 10
158.9954127633
 20
311.3958416297
 30
0.0
 11
171.2693997633
 21
311.1815926297
 31
0.0
  0
ARC
  5
11DE
330
2
100
AcDbEntity
  8
0
100
AcDbCircle
 10
159.0303247633
 20
313.3955366297
 30
0.0
 40
2.0
100
AcDbArc
 50
215.590439
 51
269.0
  0
ARC
  5
11DF
330
2
100
AcDbEntity
  8
0
100
AcDbCircle
 10
156.6974087633
 20
309.4362616297
 30
0.0
 40
2.0
100
AcDbArc
 50
180.0
 51
269.0
  0
LINE
  5
11E0
330
2
100
AcDbEntity
  8
0
100
AcDbLine
 10
157.4591887633
 20
312.1579876297
 30
0.0
 11
155.1262727633
 21
308.1987136297
 31
0.0
  0
LINE
  5
11E1
330
2
100
AcDbEntity
  8
0
100
AcDbLine
 10
154.6974087633
 20
309.4362616297
 30
0.0
 11
154.6974087633
 21
311.6226026297
 31
0.0
  0
LINE
  5
11E2
330
2
100
AcDbEntity
  8
0
100
AcDbLine
 10
182.6974087633
 20
301.5012036297
 30
0.0
 11
182.6974087633
 21
312.3512096297
 31
0.0
  0
LINE
  5
11E3
330
2
100
AcDbEntity
  8
0
100
AcDbLine
 10
187.6974087633
 20
302.8512096297
 30
0.0
 11
185.0974027633
 21
302.8512096297
 31
0.0
  0
LINE
  5
11E4
330
2
100
AcDbEntity
  8
PHAS
100
AcDbLine
 10
183.8973907633
 20
302.8512096297
 30
0.0
 11
182.6974087633
 21
302.8931106297
 31
0.0
  0
LINE
  5
11E5
330
2
100
AcDbEntity
  8
PHAS
100
AcDbLine
 10
183.8973907633
 20
302.8512096297
 30
0.0
 11
185.0974027633
 21
302.8931106297
 31
0.0
  0
ARC
  5
11E6
330
2
100
AcDbEntity
  8
PHAS
100
AcDbCircle
 10
183.8973907633
 20
303.0712106297
 30
0.0
 40
1.219999999999997
100
AcDbArc
 50
190.388855
 51
351.697737
  0
ARC
  5
11E7
330
2
100
AcDbEntity
  8
0
100
AcDbCircle
 10
185.6974087633
 20
300.7516306297
 30
0.0
 40
2.0
100
AcDbArc
 50
290.0
 51
0.0
  0
LINE
  5
11E8
330
2
100
AcDbEntity
  8
0
100
AcDbLine
 10
183.5132657633
 20
297.8283066297
 30
0.0
 11
186.3814607633
 21
298.8722366297
 31
0.0
  0
ARC
  5
11E9
330
2
100
AcDbEntity
  8
0
100
AcDbCircle
 10
184.1973167633
 20
295.9489196297
 30
0.0
 40
2.0
100
AcDbArc
 50
110.000008
 51
180.0
  0
LINE
  5
11EA
330
2
100
AcDbEntity
  8
0
100
AcDbLine
 10
182.1973167633
 20
295.4963056297
 30
0.0
 11
182.1973167633
 21
295.9489196297
 31
0.0
  0
LINE
  5
11EB
330
2
100
AcDbEntity
  8
0
100
AcDbLine
 10
185.0974027633
 20
301.5012036297
 30
0.0
 11
182.6974087633
 21
301.5012036297
 31
0.0
  0
LINE
  5
11EC
330
2
100
AcDbEntity
  8
0
100
AcDbLine
 10
184.6973167633
 20
312.3512096297
 30
0.0
 11
174.6974087633
 21
312.3512096297
 31
0.0
  0
LINE
  5
11ED
330
2
100
AcDbEntity
  8
0
100
AcDbLine
 10
181.6974087633
 20
306.3512096297
 30
0.0
 11
174.6974087633
 21
306.3512096297
 31
0.0
  0
LINE
  5
11EE
330
2
100
AcDbEntity
  8
0
100
AcDbLine
 10
181.6974087633
 20
306.3512096297
 30
0.0
 11
175.6974087633
 21
312.3512096297
 31
0.0
  0
LINE
  5
11EF
330
2
100
AcDbEntity
  8
0
100
AcDbLine
 10
175.6974087633
 20
306.3512096297
 30
0.0
 11
181.6974087633
 21
312.3512096297
 31
0.0
  0
LINE
  5
11F0
330
2
100
AcDbEntity
  8
0
100
AcDbLine
 10
174.6974087633
 20
305.3168776297
 30
0.0
 11
174.6974087633
 21
312.3512096297
 31
0.0
  0
LINE
  5
11F1
330
2
100
AcDbEntity
  8
0
100
AcDbLine
 10
175.6974087633
 20
306.3512096297
 30
0.0
 11
175.6974087633
 21
312.3512096297
 31
0.0
  0
LINE
  5
11F2
330
2
100
AcDbEntity
  8
0
100
AcDbLine
 10
174.6974087633
 20
309.8512096297
 30
0.0
 11
171.5007537633
 21
309.8512096297
 31
0.0
  0
LINE
  5
11F3
330
2
100
AcDbEntity
  8
0
100
AcDbLine
 10
181.6974087633
 20
306.3512096297
 30
0.0
 11
181.6974087633
 21
312.3512096297
 31
0.0
  0
LINE
  5
11F4
330
2
100
AcDbEntity
  8
0
100
AcDbLine
 10
181.6974087633
 20
306.3512096297
 30
0.0
 11
182.6974087633
 21
305.7738626297
 31
0.0
  0
LINE
  5
11F5
330
2
100
AcDbEntity
  8
0
100
AcDbLine
 10
134.6975007633
 20
315.8512096297
 30
0.0
 11
164.6973167633
 21
315.8512096297
 31
0.0
  0
LINE
  5
11F6
330
2
100
AcDbEntity
  8
0
100
AcDbLine
 10
184.6973167633
 20
330.1512126297
 30
0.0
 11
114.6975007633
 21
330.1512126297
 31
0.0
  0
LINE
  5
11F7
330
2
100
AcDbEntity
  8
0
100
AcDbLine
 10
164.6973167633
 20
328.8512096297
 30
0.0
 11
134.6975007633
 21
328.8512096297
 31
0.0
  0
ARC
  5
11F8
330
2
100
AcDbEntity
  8
0
100
AcDbCircle
 10
142.6974087633
 20
335.4843426297
 30
0.0
 40
2.0
100
AcDbArc
 50
0.0
 51
89.0
  0
LINE
  5
11F9
330
2
100
AcDbEntity
  8
0
100
AcDbLine
 10
117.6974087633
 20
338.3512096297
 30
0.0
 11
123.6974087633
 21
332.3512096297
 31
0.0
  0
LINE
  5
11FA
330
2
100
AcDbEntity
  8
0
100
AcDbLine
 10
123.6974087633
 20
338.3512096297
 30
0.0
 11
117.6974087633
 21
332.3512096297
 31
0.0
  0
LINE
  5
11FB
330
2
100
AcDbEntity
  8
0
100
AcDbLine
 10
116.6974087633
 20
343.2012156297
 30
0.0
 11
116.6974087633
 21
332.3512096297
 31
0.0
  0
LINE
  5
11FC
330
2
100
AcDbEntity
  8
0
100
AcDbLine
 10
117.6974087633
 20
338.3512096297
 30
0.0
 11
117.6974087633
 21
332.3512096297
 31
0.0
  0
LINE
  5
11FD
330
2
100
AcDbEntity
  8
0
100
AcDbLine
 10
124.6974087633
 20
332.3512096297
 30
0.0
 11
124.6974087633
 21
339.1179176297
 31
0.0
  0
LINE
  5
11FE
330
2
100
AcDbEntity
  8
0
100
AcDbLine
 10
123.6974087633
 20
338.3512096297
 30
0.0
 11
123.6974087633
 21
332.3512096297
 31
0.0
  0
LINE
  5
11FF
330
2
100
AcDbEntity
  8
0
100
AcDbLine
 10
141.9356287633
 20
332.7626166297
 30
0.0
 11
144.2685447633
 21
336.7219066297
 31
0.0
  0
LINE
  5
1200
330
2
100
AcDbEntity
  8
0
100
AcDbLine
 10
124.6974087633
 20
334.8512096297
 30
0.0
 11
128.2995207633
 21
334.8512096297
 31
0.0
  0
LINE
  5
1201
330
2
100
AcDbEntity
  8
0
100
AcDbLine
 10
122.6975007633
 20
316.3512096297
 30
0.0
 11
134.6975007633
 21
316.3512096297
 31
0.0
  0
LINE
  5
1202
330
2
100
AcDbEntity
  8
0
100
AcDbLine
 10
122.6975007633
 20
328.0080696297
 30
0.0
 11
134.6975007633
 21
328.0080696297
 31
0.0
  0
LINE
  5
1203
330
2
100
AcDbEntity
  8
0
100
AcDbLine
 10
116.6975007633
 20
316.3512096297
 30
0.0
 11
116.6975007633
 21
328.3512096297
 31
0.0
  0
LINE
  5
1204
330
2
100
AcDbEntity
  8
0
100
AcDbLine
 10
122.6975007633
 20
316.1012096297
 30
0.0
 11
122.6975007633
 21
328.6012096297
 31
0.0
  0
LINE
  5
1205
330
2
100
AcDbEntity
  8
0
100
AcDbLine
 10
121.5475067633
 20
316.1012096297
 30
0.0
 11
121.5475067633
 21
328.6012096297
 31
0.0
  0
LINE
  5
1206
330
2
100
AcDbEntity
  8
0
100
AcDbLine
 10
116.6975007633
 20
316.3512096297
 30
0.0
 11
114.6975007633
 21
315.1965156297
 31
0.0
  0
LINE
  5
1207
330
2
100
AcDbEntity
  8
0
100
AcDbLine
 10
116.6975007633
 20
316.3512096297
 30
0.0
 11
121.5475067633
 21
316.3512096297
 31
0.0
  0
LINE
  5
1208
330
2
100
AcDbEntity
  8
0
100
AcDbLine
 10
121.5475067633
 20
316.1012096297
 30
0.0
 11
122.6975007633
 21
316.1012096297
 31
0.0
  0
LINE
  5
1209
330
2
100
AcDbEntity
  8
0
100
AcDbLine
 10
116.6975007633
 20
328.3512096297
 30
0.0
 11
114.6975007633
 21
329.5059186297
 31
0.0
  0
LINE
  5
120A
330
2
100
AcDbEntity
  8
0
100
AcDbLine
 10
114.6975007633
 20
332.3512096297
 30
0.0
 11
124.6974087633
 21
332.3512096297
 31
0.0
  0
LINE
  5
120B
330
2
100
AcDbEntity
  8
0
100
AcDbLine
 10
116.6975007633
 20
328.0080696297
 30
0.0
 11
121.5475067633
 21
328.0080696297
 31
0.0
  0
LINE
  5
120C
330
2
100
AcDbEntity
  8
0
100
AcDbLine
 10
121.5475067633
 20
328.6012096297
 30
0.0
 11
122.6975007633
 21
328.6012096297
 31
0.0
  0
LINE
  5
120D
330
2
100
AcDbEntity
  8
0
100
AcDbLine
 10
134.6975007633
 20
315.8512096297
 30
0.0
 11
134.6975007633
 21
328.8512096297
 31
0.0
  0
LINE
  5
120E
330
2
100
AcDbEntity
  8
0
100
AcDbLine
 10
140.3994047633
 20
333.5247626297
 30
0.0
 11
128.8716637633
 21
333.7259806297
 31
0.0
  0
ARC
  5
120F
330
2
100
AcDbEntity
  8
0
100
AcDbCircle
 10
140.3644927633
 20
331.5250686297
 30
0.0
 40
2.0
100
AcDbArc
 50
29.985052
 51
89.0
  0
LINE
  5
1210
330
2
100
AcDbEntity
  8
0
100
AcDbLine
 10
144.6974087633
 20
332.2612586297
 30
0.0
 11
144.6974087633
 21
335.4843426297
 31
0.0
  0
ARC
  5
1211
330
2
100
AcDbEntity
  8
0
100
AcDbCircle
 10
115.1974087633
 20
348.7534616297
 30
0.0
 40
2.0
100
AcDbArc
 50
290.000008
 51
0.0
  0
LINE
  5
1212
330
2
100
AcDbEntity
  8
0
100
AcDbLine
 10
115.8814607633
 20
346.8740826297
 30
0.0
 11
113.0133567633
 21
345.8301826297
 31
0.0
  0
LINE
  5
1213
330
2
100
AcDbEntity
  8
0
100
AcDbLine
 10
114.2974147633
 20
343.2012156297
 30
0.0
 11
116.6974087633
 21
343.2012156297
 31
0.0
  0
LINE
  5
1214
330
2
100
AcDbEntity
  8
PHAS
100
AcDbLine
 10
115.4974267633
 20
341.8512096297
 30
0.0
 11
116.6974087633
 21
341.8093086297
 31
0.0
  0
ARC
  5
1215
330
2
100
AcDbEntity
  8
PHAS
100
AcDbCircle
 10
115.4974267633
 20
341.6312086297
 30
0.0
 40
1.219999999999997
100
AcDbArc
 50
10.388855
 51
171.697739
  0
LINE
  5
1216
330
2
100
AcDbEntity
  8
0
100
AcDbLine
 10
111.6974087633
 20
341.8512096297
 30
0.0
 11
114.2974147633
 21
341.8512096297
 31
0.0
  0
LINE
  5
1217
330
2
100
AcDbEntity
  8
PHAS
100
AcDbLine
 10
115.4974267633
 20
341.8512096297
 30
0.0
 11
114.2974147633
 21
341.8093086297
 31
0.0
  0
ARC
  5
1218
330
2
100
AcDbEntity
  8
0
100
AcDbCircle
 10
113.6974087633
 20
343.9507886297
 30
0.0
 40
2.0
100
AcDbArc
 50
110.0
 51
180.0
  0
LINE
  5
1219
330
2
100
AcDbEntity
  8
0
100
AcDbLine
 10
117.6974087633
 20
338.3512096297
 30
0.0
 11
124.6974087633
 21
338.3512096297
 31
0.0
  0
LINE
  5
121A
330
2
100
AcDbEntity
  8
0
100
AcDbLine
 10
117.6974087633
 20
338.3512096297
 30
0.0
 11
116.6974087633
 21
338.9285566297
 31
0.0
  0
LINE
  5
121B
330
2
100
AcDbEntity
  8
0
100
AcDbLine
 10
109.1974087633
 20
350.5214216297
 30
0.0
 11
115.6974087633
 21
350.3512096297
 31
0.0
  0
LINE
  5
121C
330
2
100
AcDbEntity
  8
0
100
AcDbLine
 10
110.6973777633
 20
349.3512246297
 30
0.0
 11
110.6973777633
 21
348.3526596297
 31
0.0
  0
LINE
  5
121D
330
2
100
AcDbEntity
  8
0
100
AcDbLine
 10
114.6973777633
 20
349.6511976297
 30
0.0
 11
115.6974087633
 21
349.6511976297
 31
0.0
  0
LINE
  5
121E
330
2
100
AcDbEntity
  8
0
100
AcDbLine
 10
110.6973777633
 20
349.3512246297
 30
0.0
 11
114.6973777633
 21
349.3512406297
 31
0.0
  0
LINE
  5
121F
330
2
100
AcDbEntity
  8
0
100
AcDbLine
 10
114.6973777633
 20
349.6511976297
 30
0.0
 11
114.6973777633
 21
348.8209666297
 31
0.0
  0
LINE
  5
1220
330
2
100
AcDbEntity
  8
0
100
AcDbLine
 10
115.6974087633
 20
350.3512096297
 30
0.0
 11
115.6974087633
 21
349.0902076297
 31
0.0
  0
LINE
  5
1221
330
2
100
AcDbEntity
  8
0
100
AcDbLine
 10
117.1974087633
 20
348.8759136297
 30
0.0
 11
117.1974087633
 21
348.7534616297
 31
0.0
  0
LINE
  5
1222
330
2
100
AcDbEntity
  8
0
100
AcDbLine
 10
142.7323207633
 20
337.4840526297
 30
0.0
 11
126.8195707633
 21
337.7618086297
 31
0.0
  0
ARC
  5
1223
330
2
100
AcDbEntity
  8
0
100
AcDbCircle
 10
156.6974087633
 20
335.2661576297
 30
0.0
 40
2.0
100
AcDbArc
 50
91.0
 51
180.0
  0
LINE
  5
1224
330
2
100
AcDbEntity
  8
0
100
AcDbLine
 10
181.6974087633
 20
338.3512096297
 30
0.0
 11
175.6974087633
 21
332.3512096297
 31
0.0
  0
LINE
  5
1225
330
2
100
AcDbEntity
  8
0
100
AcDbLine
 10
175.6974087633
 20
338.3512096297
 30
0.0
 11
181.6974087633
 21
332.3512096297
 31
0.0
  0
LINE
  5
1226
330
2
100
AcDbEntity
  8
0
100
AcDbLine
 10
174.6974087633
 20
332.3512096297
 30
0.0
 11
174.6974087633
 21
339.3855416297
 31
0.0
  0
LINE
  5
1227
330
2
100
AcDbEntity
  8
0
100
AcDbLine
 10
175.6974087633
 20
338.3512096297
 30
0.0
 11
175.6974087633
 21
332.3512096297
 31
0.0
  0
LINE
  5
1228
330
2
100
AcDbEntity
  8
0
100
AcDbLine
 10
182.6974087633
 20
343.2012156297
 30
0.0
 11
182.6974087633
 21
332.3512096297
 31
0.0
  0
LINE
  5
1229
330
2
100
AcDbEntity
  8
0
100
AcDbLine
 10
181.6974087633
 20
338.3512096297
 30
0.0
 11
181.6974087633
 21
332.3512096297
 31
0.0
  0
LINE
  5
122A
330
2
100
AcDbEntity
  8
0
100
AcDbLine
 10
176.6973167633
 20
328.0080696297
 30
0.0
 11
164.6973167633
 21
328.0080696297
 31
0.0
  0
LINE
  5
122B
330
2
100
AcDbEntity
  8
0
100
AcDbLine
 10
176.6973167633
 20
316.3512096297
 30
0.0
 11
164.6973167633
 21
316.3512096297
 31
0.0
  0
LINE
  5
122C
330
2
100
AcDbEntity
  8
0
100
AcDbLine
 10
158.9954127633
 20
333.3065776297
 30
0.0
 11
171.2693997633
 21
333.5208266297
 31
0.0
  0
LINE
  5
122D
330
2
100
AcDbEntity
  8
0
100
AcDbLine
 10
164.6973167633
 20
315.8512096297
 30
0.0
 11
164.6973167633
 21
328.8512096297
 31
0.0
  0
ARC
  5
122E
330
2
100
AcDbEntity
  8
0
100
AcDbCircle
 10
159.0303247633
 20
331.3068826297
 30
0.0
 40
2.0
100
AcDbArc
 50
91.0
 51
144.409561
  0
LINE
  5
122F
330
2
100
AcDbEntity
  8
0
100
AcDbLine
 10
157.4591887633
 20
332.5444316297
 30
0.0
 11
155.1262727633
 21
336.5037056297
 31
0.0
  0
LINE
  5
1230
330
2
100
AcDbEntity
  8
0
100
AcDbLine
 10
154.6974087633
 20
335.2661576297
 30
0.0
 11
154.6974087633
 21
333.0798166297
 31
0.0
  0
LINE
  5
1231
330
2
100
AcDbEntity
  8
0
100
AcDbLine
 10
176.6973167633
 20
316.1012096297
 30
0.0
 11
176.6973167633
 21
328.6012096297
 31
0.0
  0
LINE
  5
1232
330
2
100
AcDbEntity
  8
0
100
AcDbLine
 10
177.8473107633
 20
316.1012096297
 30
0.0
 11
177.8473107633
 21
328.6012096297
 31
0.0
  0
LINE
  5
1233
330
2
100
AcDbEntity
  8
0
100
AcDbLine
 10
182.6973167633
 20
316.3512096297
 30
0.0
 11
182.6973167633
 21
328.3512096297
 31
0.0
  0
LINE
  5
1234
330
2
100
AcDbEntity
  8
0
100
AcDbLine
 10
182.6973167633
 20
316.3512096297
 30
0.0
 11
177.8473107633
 21
316.3512096297
 31
0.0
  0
LINE
  5
1235
330
2
100
AcDbEntity
  8
0
100
AcDbLine
 10
177.8473107633
 20
316.1012096297
 30
0.0
 11
176.6973167633
 21
316.1012096297
 31
0.0
  0
LINE
  5
1236
330
2
100
AcDbEntity
  8
0
100
AcDbLine
 10
182.6973167633
 20
316.3512096297
 30
0.0
 11
184.6973167633
 21
315.1965156297
 31
0.0
  0
LINE
  5
1237
330
2
100
AcDbEntity
  8
0
100
AcDbLine
 10
184.6973167633
 20
332.3512096297
 30
0.0
 11
174.6974087633
 21
332.3512096297
 31
0.0
  0
LINE
  5
1238
330
2
100
AcDbEntity
  8
0
100
AcDbLine
 10
182.6973167633
 20
328.0080696297
 30
0.0
 11
177.8473107633
 21
328.0080696297
 31
0.0
  0
LINE
  5
1239
330
2
100
AcDbEntity
  8
0
100
AcDbLine
 10
174.6974087633
 20
334.8512096297
 30
0.0
 11
171.5007537633
 21
334.8512096297
 31
0.0
  0
LINE
  5
123A
330
2
100
AcDbEntity
  8
0
100
AcDbLine
 10
177.8473107633
 20
328.6012096297
 30
0.0
 11
176.6973167633
 21
328.6012096297
 31
0.0
  0
LINE
  5
123B
330
2
100
AcDbEntity
  8
0
100
AcDbLine
 10
182.6973167633
 20
328.3512096297
 30
0.0
 11
184.6973167633
 21
329.5059186297
 31
0.0
  0
LINE
  5
123C
330
2
100
AcDbEntity
  8
0
100
AcDbLine
 10
156.6624967633
 20
337.2658516297
 30
0.0
 11
171.9671537633
 21
337.5330026297
 31
0.0
  0
ARC
  5
123D
330
2
100
AcDbEntity
  8
0
100
AcDbCircle
 10
184.1973167633
 20
348.7534926297
 30
0.0
 40
2.0
100
AcDbArc
 50
180.0
 51
250.0
  0
LINE
  5
123E
330
2
100
AcDbEntity
  8
0
100
AcDbLine
 10
181.6974087633
 20
338.3512096297
 30
0.0
 11
174.6974087633
 21
338.3512096297
 31
0.0
  0
LINE
  5
123F
330
2
100
AcDbEntity
  8
0
100
AcDbLine
 10
183.5132657633
 20
346.8741126297
 30
0.0
 11
186.3814607633
 21
345.8301826297
 31
0.0
  0
LINE
  5
1240
330
2
100
AcDbEntity
  8
0
100
AcDbLine
 10
181.6974087633
 20
338.3512096297
 30
0.0
 11
182.6974087633
 21
338.9285566297
 31
0.0
  0
LINE
  5
1241
330
2
100
AcDbEntity
  8
0
100
AcDbLine
 10
187.6974087633
 20
341.8512096297
 30
0.0
 11
185.0974027633
 21
341.8512096297
 31
0.0
  0
LINE
  5
1242
330
2
100
AcDbEntity
  8
0
100
AcDbLine
 10
185.0974027633
 20
343.2012156297
 30
0.0
 11
182.6974087633
 21
343.2012156297
 31
0.0
  0
LINE
  5
1243
330
2
100
AcDbEntity
  8
PHAS
100
AcDbLine
 10
183.8973907633
 20
341.8512096297
 30
0.0
 11
185.0974027633
 21
341.8093086297
 31
0.0
  0
LINE
  5
1244
330
2
100
AcDbEntity
  8
PHAS
100
AcDbLine
 10
183.8973907633
 20
341.8512096297
 30
0.0
 11
182.6974087633
 21
341.8093086297
 31
0.0
  0
ARC
  5
1245
330
2
100
AcDbEntity
  8
PHAS
100
AcDbCircle
 10
183.8973907633
 20
341.6312086297
 30
0.0
 40
1.219999999999997
100
AcDbArc
 50
8.302277
 51
169.611145
  0
ARC
  5
1246
330
2
100
AcDbEntity
  8
0
100
AcDbCircle
 10
185.6974087633
 20
343.9507886297
 30
0.0
 40
2.0
100
AcDbArc
 50
0.0
 51
70.0
  0
LINE
  5
1247
330
2
100
AcDbEntity
  8
0
100
AcDbLine
 10
182.1973167633
 20
349.2061136297
 30
0.0
 11
182.1973167633
 21
348.7534926297
 31
0.0
  0
LINE
  5
1248
330
2
100
AcDbEntity
  8
0
100
AcDbLine
 10
149.6974087633
 20
362.8512096297
 30
0.0
 11
109.1974087633
 21
362.1442856297
 31
0.0
  0
LINE
  5
1249
330
2
100
AcDbEntity
  8
0
100
AcDbLine
 10
190.1974087633
 20
362.1442856297
 30
0.0
 11
190.1974087633
 21
282.5581416297
 31
0.0
  0
LINE
  5
1259
330
2
100
AcDbEntity
  8
PHAS
  6
sekkei_P_S
100
AcDbLine
 10
200.6974087633
 20
335.3273146297
 30
0.0
 11
200.6974087633
 21
309.4381846297
 31
0.0
  0
ARC
  5
125A
330
2
100
AcDbEntity
  8
PHAS
  6
sekkei_P_S
100
AcDbCircle
 10
197.6974087633
 20
309.3751046297
 30
0.0
 40
3.0
100
AcDbArc
 50
285.0
 51
0.0
  0
ARC
  5
125B
330
2
100
AcDbEntity
  8
PHAS
  6
sekkei_P_S
100
AcDbCircle
 10
197.6974087633
 20
335.3273146297
 30
0.0
 40
3.0
100
AcDbArc
 50
0.0
 51
75.0
  0
TEXT
  5
17DC
330
2
100
AcDbEntity
  8
TITLE
100
AcDbText
 10
46.9231375876
 20
39.6658165667
 30
0.0
 40
8.0
  1
F2SM-12-10～120-S40W
100
AcDbText
  0
TEXT
  5
17DD
330
2
100
AcDbEntity
  8
TITLE
100
AcDbText
 10
46.9231375876
 20
78.6658165667
 30
0.0
 40
8.0
  1
F2SM-12-10～120-T40W
100
AcDbText
  0
TEXT
  5
17DE
330
2
100
AcDbEntity
  8
TITLE
100
AcDbText
 10
46.9231375876
 20
65.6658165667
 30
0.0
 40
8.0
  1
F2SM-12-10～60-T60
100
AcDbText
  0
TEXT
  5
17DF
330
2
100
AcDbEntity
  8
TITLE
100
AcDbText
 10
46.9231375876
 20
52.6658165667
 30
0.0
 40
8.0
  1
F2SM-12-10～120-S40
100
AcDbText
  0
LINE
  5
17E1
330
2
100
AcDbEntity
  8
CENTER
100
AcDbLine
 10
180.3546247573
 20
123.4310359652
 30
0.0
 11
180.3546247573
 21
134.5757199652
 31
0.0
  0
LINE
  5
17E2
330
2
100
AcDbEntity
  8
CENTER
100
AcDbLine
 10
182.8546247573
 20
126.9820159652
 30
0.0
 11
182.8546247573
 21
111.0247399652
 31
0.0
  0
LINE
  5
17E3
330
2
100
AcDbEntity
  8
CENTER
100
AcDbLine
 10
190.8332627573
 20
119.0033779652
 30
0.0
 11
174.8759867573
 21
119.0033779652
 31
0.0
  0
LINE
  5
17E4
330
2
100
AcDbEntity
  8
CENTER
100
AcDbLine
 10
174.7822827573
 20
129.0033779652
 30
0.0
 11
185.9269667573
 21
129.0033779652
 31
0.0
  0
LINE
  5
17E5
330
2
100
AcDbEntity
  8
CENTER
100
AcDbLine
 10
182.8546247573
 20
193.9820159652
 30
0.0
 11
182.8546247573
 21
178.0247399652
 31
0.0
  0
LINE
  5
17E6
330
2
100
AcDbEntity
  8
CENTER
100
AcDbLine
 10
180.3546247573
 20
170.4310359652
 30
0.0
 11
180.3546247573
 21
181.5757199652
 31
0.0
  0
LINE
  5
17E7
330
2
100
AcDbEntity
  8
CENTER
100
AcDbLine
 10
190.8332627573
 20
186.0033779652
 30
0.0
 11
174.8759867573
 21
186.0033779652
 31
0.0
  0
LINE
  5
17E8
330
2
100
AcDbEntity
  8
CENTER
100
AcDbLine
 10
174.7822827573
 20
176.0033779652
 30
0.0
 11
185.9269667573
 21
176.0033779652
 31
0.0
  0
LINE
  5
17E9
330
2
100
AcDbEntity
  8
CENTER
100
AcDbLine
 10
236.8546247573
 20
122.3965049652
 30
0.0
 11
236.8546247573
 21
182.6102509652
 31
0.0
  0
LINE
  5
17EA
330
2
100
AcDbEntity
  8
CENTER
100
AcDbLine
 10
271.3546247573
 20
123.4310359652
 30
0.0
 11
271.3546247573
 21
134.5757199652
 31
0.0
  0
LINE
  5
17EB
330
2
100
AcDbEntity
  8
CENTER
100
AcDbLine
 10
268.8546247573
 20
126.9820159652
 30
0.0
 11
268.8546247573
 21
111.0247399652
 31
0.0
  0
LINE
  5
17EC
330
2
100
AcDbEntity
  8
CENTER
100
AcDbLine
 10
276.8332627573
 20
119.0033779652
 30
0.0
 11
260.8759867573
 21
119.0033779652
 31
0.0
  0
LINE
  5
17ED
330
2
100
AcDbEntity
  8
CENTER
100
AcDbLine
 10
265.7822827573
 20
129.0033779652
 30
0.0
 11
276.9269667573
 21
129.0033779652
 31
0.0
  0
LINE
  5
17EE
330
2
100
AcDbEntity
  8
CENTER
100
AcDbLine
 10
268.8546247573
 20
193.9820159652
 30
0.0
 11
268.8546247573
 21
178.0247399652
 31
0.0
  0
LINE
  5
17EF
330
2
100
AcDbEntity
  8
CENTER
100
AcDbLine
 10
271.3546247573
 20
170.4310359652
 30
0.0
 11
271.3546247573
 21
181.5757199652
 31
0.0
  0
LINE
  5
17F0
330
2
100
AcDbEntity
  8
CENTER
100
AcDbLine
 10
276.8332627573
 20
186.0033779652
 30
0.0
 11
260.8759867573
 21
186.0033779652
 31
0.0
  0
LINE
  5
17F1
330
2
100
AcDbEntity
  8
CENTER
100
AcDbLine
 10
265.7822827573
 20
176.0033779652
 30
0.0
 11
276.9269667573
 21
176.0033779652
 31
0.0
  0
LINE
  5
17F2
330
2
100
AcDbEntity
  8
CENTER
100
AcDbLine
 10
627.1822167495
 20
122.3965049652
 30
0.0
 11
627.1822167495
 21
182.6102509652
 31
0.0
  0
LINE
  5
17F3
330
2
100
AcDbEntity
  8
CENTER
100
AcDbLine
 10
595.1822167495
 20
126.9820159652
 30
0.0
 11
595.1822167495
 21
111.0247399652
 31
0.0
  0
LINE
  5
17F4
330
2
100
AcDbEntity
  8
CENTER
100
AcDbLine
 10
603.1608547495
 20
119.0033779652
 30
0.0
 11
587.2035787495
 21
119.0033779652
 31
0.0
  0
LINE
  5
17F5
330
2
100
AcDbEntity
  8
CENTER
100
AcDbLine
 10
689.1608547495
 20
119.0033779652
 30
0.0
 11
673.2035787495
 21
119.0033779652
 31
0.0
  0
LINE
  5
17F6
330
2
100
AcDbEntity
  8
CENTER
100
AcDbLine
 10
681.1822167495
 20
126.9820159652
 30
0.0
 11
681.1822167495
 21
111.0247399652
 31
0.0
  0
LINE
  5
17F7
330
2
100
AcDbEntity
  8
CENTER
100
AcDbLine
 10
595.1822167495
 20
193.9820159652
 30
0.0
 11
595.1822167495
 21
178.0247399652
 31
0.0
  0
LINE
  5
17F8
330
2
100
AcDbEntity
  8
CENTER
100
AcDbLine
 10
603.1608547495
 20
186.0033779652
 30
0.0
 11
587.2035787495
 21
186.0033779652
 31
0.0
  0
LINE
  5
17F9
330
2
100
AcDbEntity
  8
CENTER
100
AcDbLine
 10
681.1822167495
 20
193.9820159652
 30
0.0
 11
681.1822167495
 21
178.0247399652
 31
0.0
  0
LINE
  5
17FA
330
2
100
AcDbEntity
  8
CENTER
100
AcDbLine
 10
689.1608547495
 20
186.0033779652
 30
0.0
 11
673.2035787495
 21
186.0033779652
 31
0.0
  0
LINE
  5
17FB
330
2
100
AcDbEntity
  8
CENTER
100
AcDbLine
 10
347.6089223157
 20
152.5033779652
 30
0.0
 11
461.0861563157
 21
152.5033779652
 31
0.0
  0
LINE
  5
17FC
330
2
100
AcDbEntity
  8
CENTER
100
AcDbLine
 10
404.3475393157
 20
200.0515039652
 30
0.0
 11
404.3475393157
 21
104.9552519652
 31
0.0
  0
LINE
  5
17FD
330
2
100
AcDbEntity
  8
0
100
AcDbLine
 10
444.8475393157
 20
192.2964539652
 30
0.0
 11
444.8475393157
 21
112.7103099652
 31
0.0
  0
LINE
  5
17FE
330
2
100
AcDbEntity
  8
0
100
AcDbLine
 10
376.3475393157
 20
112.4921169652
 30
0.0
 11
376.3475393157
 21
192.514640385
 31
0.0
  0
LINE
  5
17FF
330
2
100
AcDbEntity
  8
0
100
AcDbLine
 10
363.8475393157
 20
192.2964539652
 30
0.0
 11
363.8475393157
 21
112.7103099652
 31
0.0
  0
LINE
  5
1800
330
2
100
AcDbEntity
  8
PHAS
  6
sekkei_P_S
100
AcDbLine
 10
455.3475393157
 20
165.4794829652
 30
0.0
 11
455.3475393157
 21
139.5903529652
 31
0.0
  0
LINE
  5
1801
330
2
100
AcDbEntity
  8
0
100
AcDbLine
 10
411.6805473157
 20
161.4589749652
 30
0.0
 11
411.6805473157
 21
143.5477809652
 31
0.0
  0
LINE
  5
1802
330
2
100
AcDbEntity
  8
0
100
AcDbLine
 10
397.0145313157
 20
161.6771759652
 30
0.0
 11
397.0145313157
 21
143.3295799652
 31
0.0
  0
LINE
  5
1803
330
2
100
AcDbEntity
  8
0
100
AcDbLine
 10
409.3475393157
 20
165.4183869652
 30
0.0
 11
409.3475393157
 21
139.5883689652
 31
0.0
  0
LINE
  5
1804
330
2
100
AcDbEntity
  8
0
100
AcDbLine
 10
399.3475393157
 20
139.3701689652
 30
0.0
 11
399.3475393157
 21
165.6365869652
 31
0.0
  0
LINE
  5
1807
330
2
100
AcDbEntity
  8
PHAS
  6
sekkei_P_S
100
AcDbLine
 10
353.3475393157
 20
165.4794829652
 30
0.0
 11
353.3475393157
 21
139.5903529652
 31
0.0
  0
LINE
  5
1808
330
2
100
AcDbEntity
  8
HOJO
100
AcDbLine
 10
376.3475393157
 20
123.0033779652
 30
0.0
 11
396.3475393157
 21
123.0033779652
 31
0.0
  0
LINE
  5
1809
330
2
100
AcDbEntity
  8
HOJO
100
AcDbLine
 10
376.3475393157
 20
115.0033779652
 30
0.0
 11
396.3475393157
 21
115.0033779652
 31
0.0
  0
LINE
  5
180A
330
2
100
AcDbEntity
  8
0
100
AcDbLine
 10
404.3475393157
 20
112.0033779652
 30
0.0
 11
363.8475393157
 21
112.7103099652
 31
0.0
  0
LINE
  5
180C
330
2
100
AcDbEntity
  8
0
100
AcDbLine
 10
397.3825433157
 20
137.3705659652
 30
0.0
 11
376.3475393157
 21
137.0033779652
 31
0.0
  0
LINE
  5
180D
330
2
100
AcDbEntity
  8
0
100
AcDbLine
 10
395.0495353157
 20
141.3297629652
 30
0.0
 11
376.3475393157
 21
141.0033779652
 31
0.0
  0
LWPOLYLINE
  5
180E
330
2
100
AcDbEntity
  8
HOJO
100
AcDbPolyline
 90
       21
 70
     0
 43
0.0
 10
363.8475393157
 20
127.1213907673
 10
367.3787893157
 20
126.8824377673
 10
371.0975393157
 20
127.3511877673
 10
374.8787893157
 20
126.9449377673
 10
378.3787893157
 20
127.4449377673
 10
382.4100393157
 20
126.9136877673
 10
385.9412893157
 20
127.4761877673
 10
390.4725393157
 20
126.9761877673
 10
395.1600393157
 20
127.6011877673
 10
399.8475393157
 20
127.0074377673
 10
403.6600393157
 20
127.6324377673
 10
408.9725393157
 20
127.1324377673
 10
412.8787893157
 20
127.7886877673
 10
417.5037893157
 20
126.9449377673
 10
421.9100393157
 20
127.7886877673
 10
425.9725393157
 20
126.9136877673
 10
429.3475393157
 20
127.7574377673
 10
433.6287893157
 20
127.0074377673
 10
437.2537893157
 20
127.7261877673
 10
441.1287893157
 20
127.0074377673
 10
444.8475393157
 20
127.5497577673
  0
LINE
  5
180F
330
2
100
AcDbEntity
  8
CENTER
100
AcDbLine
 10
361.3425653157
 20
119.0033779652
 30
0.0
 11
448.3913013157
 21
119.0033779652
 31
0.0
  0
LINE
  5
1813
330
2
100
AcDbEntity
  8
0
100
AcDbLine
 10
369.3475393157
 20
127.130599532
 30
0.0
 11
369.3475393157
 21
132.8033659652
 31
0.0
  0
LINE
  5
1814
330
2
100
AcDbEntity
  8
0
100
AcDbLine
 10
370.3475393157
 20
127.2566499521
 30
0.0
 11
370.3475393157
 21
133.5033779652
 31
0.0
  0
LINE
  5
1815
330
2
100
AcDbEntity
  8
0
100
AcDbLine
 10
365.3475393157
 20
127.019888608
 30
0.0
 11
365.3475393157
 21
132.5033779652
 31
0.0
  0
LINE
  5
1817
330
2
100
AcDbEntity
  8
0
100
AcDbLine
 10
363.8475393157
 20
114.7533779652
 30
0.0
 11
376.3475393157
 21
114.7533779652
 31
0.0
  0
LINE
  5
1819
330
2
100
AcDbEntity
  8
0
100
AcDbLine
 10
363.8475393157
 20
123.2533779652
 30
0.0
 11
376.3475393157
 21
123.2533779652
 31
0.0
  0
LINE
  5
181A
330
2
100
AcDbEntity
  8
CENTER
100
AcDbLine
 10
363.4079333157
 20
129.0033779652
 30
0.0
 11
371.3925523157
 21
129.0033779652
 31
0.0
  0
LINE
  5
181C
330
2
100
AcDbEntity
  8
PHAS
  6
sekkei_P_S
100
AcDbLine
 10
355.5710803157
 20
136.6294919652
 30
0.0
 11
363.8475393157
 21
134.4118214565
 31
0.0
  0
ARC
  5
181D
330
2
100
AcDbEntity
  8
PHAS
  6
sekkei_P_S
100
AcDbCircle
 10
356.3475393157
 20
139.5272729652
 30
0.0
 40
3.0
100
AcDbArc
 50
180.0
 51
255.0
  0
LINE
  5
181E
330
2
100
AcDbEntity
  8
0
100
AcDbLine
 10
376.3475393157
 20
137.0033779652
 30
0.0
 11
363.8475393157
 21
137.0033779652
 31
0.0
  0
LINE
  5
181F
330
2
100
AcDbEntity
  8
0
100
AcDbLine
 10
376.3475393157
 20
141.0033779652
 30
0.0
 11
363.8475393157
 21
141.0033779652
 31
0.0
  0
LINE
  5
1820
330
2
100
AcDbEntity
  8
0
100
AcDbLine
 10
365.3475393157
 20
132.5033779652
 30
0.0
 11
369.3475393157
 21
132.5033779652
 31
0.0
  0
LINE
  5
1821
330
2
100
AcDbEntity
  8
0
100
AcDbLine
 10
363.8475393157
 20
133.6735749652
 30
0.0
 11
370.3475393157
 21
133.5033779652
 31
0.0
  0
LINE
  5
1822
330
2
100
AcDbEntity
  8
0
100
AcDbLine
 10
369.3475393157
 20
132.8033659652
 30
0.0
 11
370.3475393157
 21
132.8033659652
 31
0.0
  0
LINE
  5
1824
330
2
100
AcDbEntity
  8
0
100
AcDbLine
 10
404.3475393157
 20
112.0033779652
 30
0.0
 11
444.8475393157
 21
112.7103099652
 31
0.0
  0
LINE
  5
1825
330
2
100
AcDbEntity
  8
HOJO
100
AcDbLine
 10
412.3475393157
 20
123.0033779652
 30
0.0
 11
444.8475393157
 21
123.0033779652
 31
0.0
  0
LINE
  5
1826
330
2
100
AcDbEntity
  8
HOJO
100
AcDbLine
 10
412.3475393157
 20
115.0033779652
 30
0.0
 11
444.8475393157
 21
115.0033779652
 31
0.0
  0
LINE
  5
1827
330
2
100
AcDbEntity
  8
HOJO
100
AcDbLine
 10
412.3475393157
 20
123.0033779652
 30
0.0
 11
412.3475393157
 21
115.0033779652
 31
0.0
  0
LINE
  5
1828
330
2
100
AcDbEntity
  8
HOJO
100
AcDbLine
 10
396.3475393157
 20
123.0033779652
 30
0.0
 11
396.3475393157
 21
115.0033779652
 31
0.0
  0
LINE
  5
182C
330
2
100
AcDbEntity
  8
0
100
AcDbLine
 10
411.3125353157
 20
137.5887659652
 30
0.0
 11
444.8475393157
 21
137.0033779652
 31
0.0
  0
LINE
  5
182D
330
2
100
AcDbEntity
  8
0
100
AcDbLine
 10
413.6455433157
 20
141.5479639652
 30
0.0
 11
444.8475393157
 21
141.0033779652
 31
0.0
  0
LINE
  5
182E
330
2
100
AcDbEntity
  8
0
100
AcDbLine
 10
398.9187373157
 20
138.1327729652
 30
0.0
 11
396.5857293157
 21
142.0919709652
 31
0.0
  0
ARC
  5
182F
330
2
100
AcDbEntity
  8
0
100
AcDbCircle
 10
397.3475393157
 20
139.3701689652
 30
0.0
 40
2.0
100
AcDbArc
 50
271.0
 51
0.0
  0
ARC
  5
1830
330
2
100
AcDbEntity
  8
0
100
AcDbCircle
 10
395.0145313157
 20
143.3295799652
 30
0.0
 40
2.0
100
AcDbArc
 50
271.0
 51
0.0
  0
LINE
  5
1831
330
2
100
AcDbEntity
  8
0
100
AcDbLine
 10
412.1093493157
 20
142.3101709652
 30
0.0
 11
409.7763413157
 21
138.3509729652
 31
0.0
  0
ARC
  5
1832
330
2
100
AcDbEntity
  8
0
100
AcDbCircle
 10
411.3475393157
 20
139.5883689652
 30
0.0
 40
2.0
100
AcDbArc
 50
180.0
 51
269.0
  0
ARC
  5
1833
330
2
100
AcDbEntity
  8
0
100
AcDbCircle
 10
413.6805473157
 20
143.5477809652
 30
0.0
 40
2.0
100
AcDbArc
 50
180.0
 51
269.0
  0
LINE
  5
1834
330
2
100
AcDbEntity
  8
PHAS
  6
sekkei_P_S
100
AcDbLine
 10
453.1239983157
 20
136.6294919652
 30
0.0
 11
444.8475393157
 21
134.4118214565
 31
0.0
  0
ARC
  5
1835
330
2
100
AcDbEntity
  8
PHAS
  6
sekkei_P_S
100
AcDbCircle
 10
452.3475393157
 20
139.5272729652
 30
0.0
 40
3.0
100
AcDbArc
 50
285.0
 51
0.0
  0
LINE
  5
1836
330
2
100
AcDbEntity
  8
HIDS
100
AcDbLine
 10
376.3475393157
 20
190.0033779652
 30
0.0
 11
396.3475393157
 21
190.0033779652
 31
0.0
  0
LINE
  5
1837
330
2
100
AcDbEntity
  8
0
100
AcDbLine
 10
404.3475393157
 20
193.0033779652
 30
0.0
 11
363.8475393157
 21
192.2964539652
 31
0.0
  0
LINE
  5
183A
330
2
100
AcDbEntity
  8
CENTER
100
AcDbLine
 10
361.3425653157
 20
186.0033779652
 30
0.0
 11
448.3913013157
 21
186.0033779652
 31
0.0
  0
LINE
  5
183B
330
2
100
AcDbEntity
  8
0
100
AcDbLine
 10
395.0495353157
 20
163.6769929652
 30
0.0
 11
376.3475393157
 21
164.0033779652
 31
0.0
  0
LINE
  5
183C
330
2
100
AcDbEntity
  8
HIDS
100
AcDbLine
 10
376.3475393157
 20
182.0033779652
 30
0.0
 11
396.3475393157
 21
182.0033779652
 31
0.0
  0
LINE
  5
183D
330
2
100
AcDbEntity
  8
0
100
AcDbLine
 10
397.3825433157
 20
167.6361899652
 30
0.0
 11
376.3475393157
 21
168.0033779652
 31
0.0
  0
LINE
  5
1840
330
2
100
AcDbEntity
  8
PHAS
  6
sekkei_P_S
100
AcDbLine
 10
355.5710803157
 20
168.3772639652
 30
0.0
 11
363.8475393157
 21
170.594934474
 31
0.0
  0
ARC
  5
1841
330
2
100
AcDbEntity
  8
PHAS
  6
sekkei_P_S
100
AcDbCircle
 10
356.3475393157
 20
165.4794829652
 30
0.0
 40
3.0
100
AcDbArc
 50
105.0
 51
180.0
  0
LINE
  5
1842
330
2
100
AcDbEntity
  8
0
100
AcDbLine
 10
365.3475393157
 20
179.5033779652
 30
0.0
 11
365.3475393157
 21
172.5033779652
 31
0.0
  0
LINE
  5
1843
330
2
100
AcDbEntity
  8
0
100
AcDbLine
 10
370.3475393157
 20
180.5033779652
 30
0.0
 11
370.3475393157
 21
171.5033779652
 31
0.0
  0
LINE
  5
1844
330
2
100
AcDbEntity
  8
0
100
AcDbLine
 10
369.3475393157
 20
179.8033659652
 30
0.0
 11
369.3475393157
 21
172.2033899652
 31
0.0
  0
LINE
  5
1845
330
2
100
AcDbEntity
  8
0
100
AcDbLine
 10
376.3475393157
 20
164.0033779652
 30
0.0
 11
363.8475393157
 21
164.0033779652
 31
0.0
  0
LINE
  5
1846
330
2
100
AcDbEntity
  8
0
100
AcDbLine
 10
376.3475393157
 20
168.0033779652
 30
0.0
 11
363.8475393157
 21
168.0033779652
 31
0.0
  0
LINE
  5
1847
330
2
100
AcDbEntity
  8
0
100
AcDbLine
 10
363.8475393157
 20
171.3331809652
 30
0.0
 11
370.3475393157
 21
171.5033779652
 31
0.0
  0
LINE
  5
1848
330
2
100
AcDbEntity
  8
0
100
AcDbLine
 10
365.3475393157
 20
172.5033779652
 30
0.0
 11
369.3475393157
 21
172.5033779652
 31
0.0
  0
LINE
  5
1849
330
2
100
AcDbEntity
  8
HIDS
  6
sekkei_H
100
AcDbLine
 10
363.8475393157
 20
181.7533779652
 30
0.0
 11
376.3475393157
 21
181.7533779652
 31
0.0
  0
LINE
  5
184A
330
2
100
AcDbEntity
  8
0
100
AcDbLine
 10
365.3475393157
 20
179.5033779652
 30
0.0
 11
369.3475393157
 21
179.5033779652
 31
0.0
  0
LINE
  5
184B
330
2
100
AcDbEntity
  8
0
100
AcDbLine
 10
363.8475393157
 20
180.6735749652
 30
0.0
 11
370.3475393157
 21
180.5033779652
 31
0.0
  0
LINE
  5
184C
330
2
100
AcDbEntity
  8
CENTER
100
AcDbLine
 10
363.4079333157
 20
176.0033779652
 30
0.0
 11
371.3925523157
 21
176.0033779652
 31
0.0
  0
LINE
  5
184D
330
2
100
AcDbEntity
  8
0
100
AcDbLine
 10
369.3475393157
 20
179.8033659652
 30
0.0
 11
370.3475393157
 21
179.8033659652
 31
0.0
  0
LINE
  5
1850
330
2
100
AcDbEntity
  8
HIDS
  6
sekkei_H
100
AcDbLine
 10
363.8475393157
 20
190.2533779652
 30
0.0
 11
376.3475393157
 21
190.2533779652
 31
0.0
  0
LINE
  5
1853
330
2
100
AcDbEntity
  8
HIDS
100
AcDbLine
 10
412.3475393157
 20
190.0033779652
 30
0.0
 11
444.8475393157
 21
190.0033779652
 31
0.0
  0
LINE
  5
1854
330
2
100
AcDbEntity
  8
0
100
AcDbLine
 10
413.6455433157
 20
163.4587919652
 30
0.0
 11
444.8475393157
 21
164.0033779652
 31
0.0
  0
LINE
  5
1855
330
2
100
AcDbEntity
  8
0
100
AcDbLine
 10
411.3125353157
 20
167.4179899652
 30
0.0
 11
444.8475393157
 21
168.0033779652
 31
0.0
  0
LINE
  5
1856
330
2
100
AcDbEntity
  8
HIDS
100
AcDbLine
 10
412.3475393157
 20
182.0033779652
 30
0.0
 11
444.8475393157
 21
182.0033779652
 31
0.0
  0
ARC
  5
1857
330
2
100
AcDbEntity
  8
0
100
AcDbCircle
 10
397.3475393157
 20
165.6365869652
 30
0.0
 40
2.0
100
AcDbArc
 50
0.0
 51
89.0
  0
ARC
  5
1858
330
2
100
AcDbEntity
  8
0
100
AcDbCircle
 10
395.0145313157
 20
161.6771759652
 30
0.0
 40
2.0
100
AcDbArc
 50
0.0
 51
89.0
  0
LINE
  5
1859
330
2
100
AcDbEntity
  8
0
100
AcDbLine
 10
396.5857293157
 20
162.9147849652
 30
0.0
 11
398.9187373157
 21
166.8739829652
 31
0.0
  0
ARC
  5
185A
330
2
100
AcDbEntity
  8
0
100
AcDbCircle
 10
411.3475393157
 20
165.4183869652
 30
0.0
 40
2.0
100
AcDbArc
 50
91.0
 51
180.0
  0
LINE
  5
185B
330
2
100
AcDbEntity
  8
0
100
AcDbLine
 10
412.1093493157
 20
162.6965849652
 30
0.0
 11
409.7763413157
 21
166.6557829652
 31
0.0
  0
ARC
  5
185C
330
2
100
AcDbEntity
  8
0
100
AcDbCircle
 10
413.6805473157
 20
161.4589749652
 30
0.0
 40
2.0
100
AcDbArc
 50
91.0
 51
180.0
  0
LINE
  5
185D
330
2
100
AcDbEntity
  8
HIDS
100
AcDbLine
 10
396.3475393157
 20
190.0033779652
 30
0.0
 11
396.3475393157
 21
182.0033779652
 31
0.0
  0
LINE
  5
185E
330
2
100
AcDbEntity
  8
HIDS
100
AcDbLine
 10
412.3475393157
 20
190.0033779652
 30
0.0
 11
412.3475393157
 21
182.0033779652
 31
0.0
  0
ARC
  5
185F
330
2
100
AcDbEntity
  8
PHAS
  6
sekkei_P_S
100
AcDbCircle
 10
452.3475393157
 20
165.4794829652
 30
0.0
 40
3.0
100
AcDbArc
 50
0.0
 51
75.0
  0
LINE
  5
1860
330
2
100
AcDbEntity
  8
PHAS
  6
sekkei_P_S
100
AcDbLine
 10
453.1239983157
 20
168.3772639652
 30
0.0
 11
444.8475393157
 21
170.594934474
 31
0.0
  0
LINE
  5
1863
330
2
100
AcDbEntity
  8
0
100
AcDbLine
 10
404.3475393157
 20
193.0033779652
 30
0.0
 11
444.8475393157
 21
192.2964539652
 31
0.0
  0
LINE
  5
2250
330
2
100
AcDbEntity
  8
0
100
AcDbLine
 10
376.3475393157
 20
122.2033779652
 30
0.0
 11
444.8475393157
 21
122.2033779652
 31
0.0
  0
LINE
  5
2251
330
2
100
AcDbEntity
  8
0
100
AcDbLine
 10
376.3475393157
 20
115.8033779652
 30
0.0
 11
444.8475393157
 21
115.8033779652
 31
0.0
  0
LINE
  5
2253
330
2
100
AcDbEntity
  8
HIDS
100
AcDbLine
 10
376.3475393157
 20
189.2033779652
 30
0.0
 11
444.8475393157
 21
189.2033779652
 31
0.0
  0
LINE
  5
2254
330
2
100
AcDbEntity
  8
HIDS
100
AcDbLine
 10
376.3475393157
 20
182.8033779652
 30
0.0
 11
444.8475393157
 21
182.8033779652
 31
0.0
  0
LINE
  5
236F
330
2
100
AcDbEntity
  8
HIDS
100
AcDbLine
 10
598.3822167495
 20
401.5956809169
 30
0.0
 11
598.3822167495
 21
333.0956809169
 31
0.0
  0
LINE
  5
2370
330
2
100
AcDbEntity
  8
HIDS
100
AcDbLine
 10
591.9822167495
 20
401.5956809169
 30
0.0
 11
591.9822167495
 21
333.0956809169
 31
0.0
  0
LINE
  5
2371
330
2
100
AcDbEntity
  8
HIDS
100
AcDbLine
 10
684.3822167495
 20
401.5956809169
 30
0.0
 11
684.3822167495
 21
333.0956809169
 31
0.0
  0
LINE
  5
2372
330
2
100
AcDbEntity
  8
HIDS
100
AcDbLine
 10
677.9822167495
 20
401.5956809169
 30
0.0
 11
677.9822167495
 21
333.0956809169
 31
0.0
  0
INSERT
  5
2726
330
2
100
AcDbEntity
  8
0
100
AcDbBlockReference
  2
A$C43346cd4
 10
118.7991207573
 20
190.5033779652
 30
0.0
  0
LINE
  5
274B
330
2
100
AcDbEntity
  8
CENTER
100
AcDbLine
 10
740.4459382114
 20
359.5956809169
 30
0.0
 11
750.0294572876
 21
359.5956809169
 31
0.0
  0
CIRCLE
  5
274C
330
2
100
AcDbEntity
  8
0
100
AcDbCircle
 10
745.2376977495
 20
359.5956809169
 30
0.0
 40
3.799999999999998
  0
CIRCLE
  5
274D
330
2
100
AcDbEntity
  8
0
100
AcDbCircle
 10
745.2376977495
 20
359.5956809169
 30
0.0
 40
3.499999999999146
  0
LINE
  5
274E
330
2
100
AcDbEntity
  8
CENTER
100
AcDbLine
 10
745.2376977495
 20
364.387440455
 30
0.0
 11
745.2376977495
 21
354.8039213787
 31
0.0
  0
ARC
  5
274F
330
2
100
AcDbEntity
  8
0
100
AcDbCircle
 10
747.0513341132
 20
361.4093172805
 30
0.0
 40
1.336363636363619
100
AcDbArc
 50
180.0
 51
270.0
  0
ARC
  5
2750
330
2
100
AcDbEntity
  8
0
100
AcDbCircle
 10
743.4240613859
 20
361.4093172805
 30
0.0
 40
1.336363636363619
100
AcDbArc
 50
270.0
 51
0.0
  0
ARC
  5
2751
330
2
100
AcDbEntity
  8
0
100
AcDbCircle
 10
747.0513341132
 20
357.7820445532
 30
0.0
 40
1.336363636363619
100
AcDbArc
 50
90.0
 51
180.0
  0
LINE
  5
2752
330
2
100
AcDbEntity
  8
0
100
AcDbLine
 10
743.1376977495
 20
360.0729536441
 30
0.0
 11
743.4240613859
 21
360.0729536441
 31
0.0
  0
LINE
  5
2753
330
2
100
AcDbEntity
  8
0
100
AcDbLine
 10
743.1376977495
 20
359.5956809169
 30
0.0
 11
743.1376977495
 21
360.0729536441
 31
0.0
  0
LINE
  5
2754
330
2
100
AcDbEntity
  8
0
100
AcDbLine
 10
745.3107783894
 20
355.7963837161
 30
0.0
 11
745.3107783894
 21
356.0964439686
 31
0.0
  0
LINE
  5
2755
330
2
100
AcDbEntity
  8
0
100
AcDbLine
 10
744.8966679172
 20
355.811014663
 30
0.0
 11
744.8966679172
 21
356.1123350177
 31
0.0
  0
LINE
  5
2756
330
2
100
AcDbEntity
  8
0
100
AcDbLine
 10
745.7149704768
 20
357.7820445532
 30
0.0
 11
745.7149704768
 21
357.4956809169
 31
0.0
  0
LINE
  5
2757
330
2
100
AcDbEntity
  8
0
100
AcDbLine
 10
745.7149704768
 20
357.4956809169
 30
0.0
 11
745.2376977495
 21
357.4956809169
 31
0.0
  0
LINE
  5
2758
330
2
100
AcDbEntity
  8
0
100
AcDbLine
 10
745.2376977495
 20
357.4956809169
 30
0.0
 11
744.7604250222
 21
357.4956809169
 31
0.0
  0
LINE
  5
2759
330
2
100
AcDbEntity
  8
0
100
AcDbLine
 10
744.7604250222
 20
357.4956809169
 30
0.0
 11
744.7604250222
 21
357.7820445532
 31
0.0
  0
LINE
  5
275A
330
2
100
AcDbEntity
  8
0
100
AcDbLine
 10
743.4240613859
 20
359.1184081896
 30
0.0
 11
743.1376977495
 21
359.1184081896
 31
0.0
  0
ARC
  5
275B
330
2
100
AcDbEntity
  8
0
100
AcDbCircle
 10
743.4240613859
 20
357.7820445532
 30
0.0
 40
1.336363636363619
100
AcDbArc
 50
0.0
 51
90.0
  0
LINE
  5
275C
330
2
100
AcDbEntity
  8
0
100
AcDbLine
 10
743.1376977495
 20
359.1184081896
 30
0.0
 11
743.1376977495
 21
359.5956809169
 31
0.0
  0
LINE
  5
275D
330
2
100
AcDbEntity
  8
0
100
AcDbLine
 10
747.0513341132
 20
360.0729536441
 30
0.0
 11
747.3376977495
 21
360.0729536441
 31
0.0
  0
LINE
  5
275E
330
2
100
AcDbEntity
  8
0
100
AcDbLine
 10
747.3376977495
 20
360.0729536441
 30
0.0
 11
747.3376977495
 21
359.5956809169
 31
0.0
  0
LINE
  5
275F
330
2
100
AcDbEntity
  8
0
100
AcDbLine
 10
747.3376977495
 20
359.1184081896
 30
0.0
 11
747.0513341132
 21
359.1184081896
 31
0.0
  0
LINE
  5
2760
330
2
100
AcDbEntity
  8
0
100
AcDbLine
 10
747.3376977495
 20
359.5956809169
 30
0.0
 11
747.3376977495
 21
359.1184081896
 31
0.0
  0
LINE
  5
2761
330
2
100
AcDbEntity
  8
0
100
AcDbLine
 10
745.2376977495
 20
361.6956809169
 30
0.0
 11
745.7149704768
 21
361.6956809169
 31
0.0
  0
LINE
  5
2762
330
2
100
AcDbEntity
  8
0
100
AcDbLine
 10
745.7149704768
 20
361.6956809169
 30
0.0
 11
745.7149704768
 21
361.4093172805
 31
0.0
  0
LINE
  5
2763
330
2
100
AcDbEntity
  8
0
100
AcDbLine
 10
744.7604250222
 20
361.6956809169
 30
0.0
 11
745.2376977495
 21
361.6956809169
 31
0.0
  0
LINE
  5
2764
330
2
100
AcDbEntity
  8
0
100
AcDbLine
 10
744.7604250222
 20
361.4093172805
 30
0.0
 11
744.7604250222
 21
361.6956809169
 31
0.0
  0
LINE
  5
2765
330
2
100
AcDbEntity
  8
0
100
AcDbLine
 10
745.2376977495
 20
370.3006448108
 30
0.0
 11
745.2376977495
 21
366.7059188108
 31
0.0
  0
LINE
  5
2766
330
2
100
AcDbEntity
  8
0
100
AcDbLine
 10
746.8103617495
 20
373.2865448108
 30
0.0
 11
743.5901157495
 21
373.2865448108
 31
0.0
  0
LINE
  5
2767
330
2
100
AcDbEntity
  8
0
100
AcDbLine
 10
749.4315157495
 20
370.3006448108
 30
0.0
 11
740.8941017495
 21
370.3006448108
 31
0.0
  0
LINE
  5
2768
330
2
100
AcDbEntity
  8
0
100
AcDbLine
 10
748.0834937495
 20
371.8006448108
 30
0.0
 11
742.4096957495
 21
371.8006448108
 31
0.0
  0
CIRCLE
  5
2769
330
2
100
AcDbEntity
  8
0
100
AcDbCircle
 10
745.2376977495
 20
359.5956809169
 30
0.0
 40
4.0
  0
CIRCLE
  5
276A
330
2
100
AcDbEntity
  8
0
100
AcDbCircle
 10
745.2376977495
 20
370.3006448108
 30
0.0
 40
4.926010018386079
  0
LINE
  5
277A
330
2
100
AcDbEntity
  8
0
  6
CENS
 62
     3
100
AcDbLine
 10
418.3475393157
 20
194.9091749205
 30
0.0
 11
418.3475393157
 21
184.1873486862
 31
0.0
  0
ARC
  5
277B
330
2
100
AcDbEntity
  8
HIDS
  6
sekkei_H
100
AcDbCircle
 10
416.7235957616
 20
192.322990651
 30
0.0
 40
1.59999999999961
100
AcDbArc
 50
162.1310666483
 51
165.0
  0
LINE
  5
277C
330
2
100
AcDbEntity
  8
HIDS
  6
sekkei_H
100
AcDbLine
 10
414.8475393157
 20
191.5033779652
 30
0.0
 11
415.1781144395
 21
192.7371011232
 31
0.0
  0
ARC
  5
277D
330
2
100
AcDbEntity
  8
0
100
AcDbCircle
 10
419.9714828697
 20
192.322990651
 30
0.0
 40
1.59999999999961
100
AcDbArc
 50
15.0
 51
77.3231615211
  0
LINE
  5
277E
330
2
100
AcDbEntity
  8
0
100
AcDbLine
 10
421.5169641918
 20
192.7371011232
 30
0.0
 11
421.5259595136
 21
192.7035301252
 31
0.0
  0
LINE
  5
277F
330
2
100
AcDbEntity
  8
HIDS
  6
sekkei_H
100
AcDbLine
 10
421.5259595136
 20
192.7035301252
 30
0.0
 11
421.8475393157
 21
191.5033779652
 31
0.0
  0
LINE
  5
2780
330
2
100
AcDbEntity
  8
HIDS
  6
sekkei_H
100
AcDbLine
 10
414.5475393157
 20
191.5033779652
 30
0.0
 11
422.1475393157
 21
191.5033779652
 31
0.0
  0
LINE
  5
2781
330
2
100
AcDbEntity
  8
HIDS
  6
sekkei_H
100
AcDbLine
 10
414.5475393157
 20
191.5033779652
 30
0.0
 11
414.5475393157
 21
190.3253332746
 31
0.0
  0
LINE
  5
2782
330
2
100
AcDbEntity
  8
HIDS
  6
sekkei_H
100
AcDbLine
 10
422.1475393157
 20
191.5033779652
 30
0.0
 11
422.1475393157
 21
190.1926725247
 31
0.0
  0
ARC
  5
2783
330
2
100
AcDbEntity
  8
0
100
AcDbCircle
 10
418.3475393157
 20
185.1033779652
 30
0.0
 40
9.000000000010642
100
AcDbArc
 50
77.3231615211
 51
102.6768384789
  0
ARC
  5
2784
330
2
100
AcDbEntity
  8
0
100
AcDbCircle
 10
416.7235957616
 20
192.322990651
 30
0.0
 40
1.59999999999961
100
AcDbArc
 50
102.6768384789
 51
162.1310666483
  0
INSERT
  5
2801
330
2
100
AcDbEntity
  8
0
100
AcDbBlockReference
  2
A$C5abbbf07
 10
761.2376977495
 20
190.5033779652
 30
0.0
  0
ENDSEC
  0
SECTION
  2
OBJECTS
  0
DICTIONARY
  5
7
330
0
100
AcDbDictionary
281
     1
  3
ACAD_CIP_PREVIOUS_PRODUCT_INFO
350
2230
  3
ACAD_COLOR
350
20D7
  3
ACAD_DETAILVIEWSTYLE
350
2227
  3
ACAD_GROUP
350
75
  3
ACAD_LAYOUT
350
61
  3
ACAD_MATERIAL
350
20AD
  3
ACAD_MLEADERSTYLE
350
20FC
  3
ACAD_MLINESTYLE
350
76
  3
ACAD_PLOTSETTINGS
350
77
  3
ACAD_PLOTSTYLENAME
350
6
  3
ACAD_SCALELIST
350
20DA
  3
ACAD_SECTIONVIEWSTYLE
350
2225
  3
ACAD_TABLESTYLE
350
20D8
  3
ACAD_VISUALSTYLE
350
20C6
  3
AcadDim
350
480
  3
ACDB_RECOMPOSE_DATA
350
2908
  3
AcDbVariableDictionary
350
102
  3
DWGPROPS
350
2909
  0
DICTIONARY
  5
2127
330
6E
100
AcDbDictionary
280
     1
281
     1
  0
DICTIONARY
  5
21A0
330
66
100
AcDbDictionary
280
     1
281
     1
  3
ACAD_LAYERSTATES
360
21A1
  0
DICTIONARY
  5
210A
330
5E
100
AcDbDictionary
280
     1
281
     1
  3
ADSK_XREC_LAYER_RECONCILED
360
210B
  0
DICTIONARY
  5
210C
330
3E
100
AcDbDictionary
280
     1
281
     1
  3
ADSK_XREC_LAYER_RECONCILED
360
210D
  0
DICTIONARY
  5
2112
330
2B5
100
AcDbDictionary
280
     1
281
     1
  3
ADSK_XREC_LAYER_RECONCILED
360
2113
  0
DICTIONARY
  5
2114
330
2BA
100
AcDbDictionary
280
     1
281
     1
  3
ADSK_XREC_LAYER_RECONCILED
360
2115
  0
DICTIONARY
  5
2118
330
3FA
100
AcDbDictionary
280
     1
281
     1
  3
ADSK_XREC_LAYER_RECONCILED
360
2119
  0
DICTIONARY
  5
211A
330
478
100
AcDbDictionary
280
     1
281
     1
  3
ADSK_XREC_LAYER_RECONCILED
360
211B
  0
XRECORD
  5
2230
102
{ACAD_REACTORS
330
7
102
}
330
7
100
AcDbXrecord
280
     1
300
ACD
300
2020
300
87224ACD_2020_0F
  0
DICTIONARY
  5
20D7
102
{ACAD_REACTORS
330
7
102
}
330
7
100
AcDbDictionary
281
     1
  0
DICTIONARY
  5
2227
102
{ACAD_REACTORS
330
7
102
}
330
7
100
AcDbDictionary
281
     1
  3
Imperial24
350
2228
  0
DICTIONARY
  5
75
102
{ACAD_REACTORS
330
7
102
}
330
7
100
AcDbDictionary
281
     1
  0
DICTIONARY
  5
61
102
{ACAD_REACTORS
330
7
102
}
330
7
100
AcDbDictionary
281
     1
  3
Model
350
60
  3
レイアウト1
350
2902
  0
DICTIONARY
  5
20AD
102
{ACAD_REACTORS
330
7
102
}
330
7
100
AcDbDictionary
281
     1
  3
ByBlock
350
20B6
  3
ByLayer
350
20AE
  3
Global
350
20BE
  0
DICTIONARY
  5
20FC
102
{ACAD_REACTORS
330
7
102
}
330
7
100
AcDbDictionary
281
     1
  3
Standard
350
20FD
  0
DICTIONARY
  5
76
102
{ACAD_REACTORS
330
7
102
}
330
7
100
AcDbDictionary
281
     1
  3
STANDARD
350
78
  0
DICTIONARY
  5
77
102
{ACAD_REACTORS
330
7
102
}
330
7
100
AcDbDictionary
281
     1
  0
ACDBDICTIONARYWDFLT
  5
6
102
{ACAD_REACTORS
330
7
102
}
330
7
100
AcDbDictionary
281
     1
  3
Normal
350
5
100
AcDbDictionaryWithDefault
340
5
  0
DICTIONARY
  5
20DA
102
{ACAD_REACTORS
330
7
102
}
330
7
100
AcDbDictionary
281
     1
  3
A0
350
20DB
  3
A1
350
20DC
  3
A2
350
20DD
  3
A3
350
20DE
  3
A4
350
20DF
  3
A5
350
20E0
  3
A6
350
20E1
  3
A7
350
20E2
  3
A8
350
20E3
  3
A9
350
20E4
  3
B0
350
20E5
  3
B1
350
20E6
  3
B2
350
20E7
  3
B3
350
20E8
  3
B4
350
20E9
  3
B5
350
20EA
  3
B6
350
20EB
  3
B7
350
20EC
  3
B8
350
20ED
  3
B9
350
20EE
  3
C0
350
20EF
  3
C1
350
20F0
  3
C2
350
20F1
  3
C3
350
20F2
  3
C4
350
20F3
  3
C5
350
20F4
  3
C6
350
20F5
  3
C7
350
20F6
  3
C8
350
20F7
  3
C9
350
20F8
  3
D0
350
20F9
  3
D1
350
20FA
  3
D2
350
20FB
  0
DICTIONARY
  5
2225
102
{ACAD_REACTORS
330
7
102
}
330
7
100
AcDbDictionary
281
     1
  3
Imperial24
350
2226
  0
DICTIONARY
  5
20D8
102
{ACAD_REACTORS
330
7
102
}
330
7
100
AcDbDictionary
281
     1
  3
Standard
350
20D9
  0
DICTIONARY
  5
20C6
102
{ACAD_REACTORS
330
7
102
}
330
7
100
AcDbDictionary
281
     1
  3
2dWireframe
350
20CC
  3
3D Hidden
350
20CE
  3
3dWireframe
350
20CD
  3
Basic
350
20CB
  3
Brighten
350
20D2
  3
ColorChange
350
20D6
  3
Conceptual
350
20CF
  3
Dim
350
20D1
  3
EdgeColorOff
350
2224
  3
Facepattern
350
20D5
  3
Flat
350
20C7
  3
FlatWithEdges
350
20C8
  3
Gouraud
350
20C9
  3
GouraudWithEdges
350
20CA
  3
Hidden
350
221C
  3
JitterOff
350
2222
  3
Linepattern
350
20D4
  3
OverhangOff
350
2223
  3
Realistic
350
20D0
  3
Shaded
350
2221
  3
Shaded with edges
350
2220
  3
Shades of Gray
350
221D
  3
Sketchy
350
221E
  3
Thicken
350
20D3
  3
Wireframe
350
221B
  3
X-Ray
350
221F
  0
XRECORD
  5
480
102
{ACAD_REACTORS
330
7
102
}
330
7
100
AcDbXrecord
280
     1
 90
   990106
  3

 60
     0
 61
     0
 62
     1
 63
     3
 64
     1
 65
     0
 66
     0
 67
     3
 68
     1
 69
     0
 70
     0
 71
     0
 72
     0
 40
0.0
170
     2
340
0
  0
XRECORD
  5
2908
102
{ACAD_REACTORS
330
7
102
}
330
7
100
AcDbXrecord
280
     1
 90
        1
330
20D9
  0
DICTIONARY
  5
102
102
{ACAD_REACTORS
330
7
102
}
330
7
100
AcDbDictionary
281
     1
  3
CANNOSCALE
350
2155
  3
CMLEADERSTYLE
350
2154
  3
CTABLESTYLE
350
2153
  3
CVIEWDETAILSTYLE
350
22D1
  3
CVIEWSECTIONSTYLE
350
22D2
  3
DIMASSOC
350
103
  3
INDEXCTL
350
2157
  3
LIGHTINGUNITS
350
21F3
  3
MSLTSCALE
350
21F2
  3
SOLIDHIST
350
22D4
  3
SORTENTS
350
2156
  3
XCLIPFRAME
350
2906
  0
XRECORD
  5
2909
102
{ACAD_REACTORS
330
7
102
}
330
7
100
AcDbXrecord
280
     1
  1
DWGPROPS COOKIE
  2

  3

  4

  6

  7

  8
ykitaga
  9

300
=
301
=
302
=
303
=
304
=
305
=
306
=
307
=
308
=
309
=
 40
0.2501539236
 41
2453557.745358796
 42
2460515.516284722
  1

 90
        0
  0
DICTIONARY
  5
21A1
102
{ACAD_REACTORS
330
21A0
102
}
330
21A0
100
AcDbDictionary
281
     1
  0
XRECORD
  5
210B
102
{ACAD_REACTORS
330
210A
102
}
330
210A
100
AcDbXrecord
280
     1
290
     1
  0
XRECORD
  5
210D
102
{ACAD_REACTORS
330
210C
102
}
330
210C
100
AcDbXrecord
280
     1
290
     1
  0
XRECORD
  5
2113
102
{ACAD_REACTORS
330
2112
102
}
330
2112
100
AcDbXrecord
280
     1
290
     1
  0
XRECORD
  5
2115
102
{ACAD_REACTORS
330
2114
102
}
330
2114
100
AcDbXrecord
280
     1
290
     1
  0
XRECORD
  5
2119
102
{ACAD_REACTORS
330
2118
102
}
330
2118
100
AcDbXrecord
280
     1
290
     1
  0
XRECORD
  5
211B
102
{ACAD_REACTORS
330
211A
102
}
330
211A
100
AcDbXrecord
280
     1
290
     1
  0
ACDBDETAILVIEWSTYLE
  5
2228
102
{ACAD_XDICTIONARY
360
295E
102
}
102
{ACAD_REACTORS
330
2227
102
}
330
2227
100
AcDbModelDocViewStyle
 70
     0
  3
Imperial24
290
     0
100
AcDbDetailViewStyle
 70
     0
 71
     0
 90
        3
 71
     1
340
16
 40
0.24
340
0
 40
0.24
300

 40
0.36
280
     3
 71
     2
340
8
 90
       25
 71
     3
340
16
 40
0.24
 90
        1
 40
0.75
 90
        1
300
%<\AcVar ViewType \f "%tc1">% %<\AcVar ViewDetailId>%\PSCALE %<\AcVar ViewScale \f "%sn">%
 71
     4
340
8
 90
       25
340
8
 90
       25
280
     0
  0
LAYOUT
  5
60
102
{ACAD_XDICTIONARY
360
290A
102
}
102
{ACAD_REACTORS
330
61
102
}
330
61
100
AcDbPlotSettings
  1

  2
Canon LBP-1420
  4
A4
  6

 40
5.873749733
 41
5.8737478256
 42
5.8737487793
 43
5.8737487793
 44
209.9733276367
 45
296.925994873
 46
0.0
 47
5.37
 48
0.0
 49
0.0
140
0.0
141
0.0
142
1.0
143
0.088099941
 70
 11956
 72
     1
 73
     1
 74
     1
  7
Sekkei.ctb
 75
     0
147
11.3507453947
148
-88.9740150773
149
-101.3630682339
100
AcDbLayout
  1
Model
 70
     1
 71
     0
 10
0.0
 20
0.0
 11
12.0
 21
9.0
 12
0.0
 22
0.0
 32
0.0
 14
0.0
 24
0.0
 34
0.0
 15
0.0
 25
0.0
 35
0.0
146
0.0
 13
0.0
 23
0.0
 33
0.0
 16
1.0
 26
0.0
 36
0.0
 17
0.0
 27
1.0
 37
0.0
 76
     0
330
2
331
20AB
  0
LAYOUT
  5
2902
102
{ACAD_XDICTIONARY
360
2960
102
}
102
{ACAD_REACTORS
330
61
102
}
330
61
100
AcDbPlotSettings
  1

  2
LBP8610
  4

  6

 40
0.0
 41
0.0
 42
0.0
 43
0.0
 44
0.0
 45
0.0
 46
0.0
 47
0.0
 48
0.0
 49
0.0
140
0.0
141
0.0
142
1.0
143
1.0
 70
   688
 72
     0
 73
     0
 74
     5
  7

 75
    16
147
1.0
148
0.0
149
0.0
100
AcDbLayout
  1
レイアウト1
 70
     1
 71
     1
 10
0.0
 20
0.0
 11
12.0
 21
9.0
 12
0.0
 22
0.0
 32
0.0
 14
0.0
 24
0.0
 34
0.0
 15
0.0
 25
0.0
 35
0.0
146
0.0
 13
0.0
 23
0.0
 33
0.0
 16
1.0
 26
0.0
 36
0.0
 17
0.0
 27
1.0
 37
0.0
 76
     0
330
2901
  0
MATERIAL
  5
20B6
102
{ACAD_XDICTIONARY
360
20B7
102
}
102
{ACAD_REACTORS
330
20AD
102
}
330
20AD
100
AcDbMaterial
  1
ByBlock
 72
     0
 43
0.0208333333
 43
0.0
 43
0.0
 43
0.0
 43
0.0
 43
0.0208333333
 43
0.0
 43
0.0
 43
0.0
 43
0.0
 43
1.0
 43
0.0
 43
0.0
 43
0.0
 43
0.0
 43
1.0
 77
     0
 47
0.0208333333
 47
0.0
 47
0.0
 47
0.0
 47
0.0
 47
0.0208333333
 47
0.0
 47
0.0
 47
0.0
 47
0.0
 47
1.0
 47
0.0
 47
0.0
 47
0.0
 47
0.0
 47
1.0
171
     0
 49
0.0208333333
 49
0.0
 49
0.0
 49
0.0
 49
0.0
 49
0.0208333333
 49
0.0
 49
0.0
 49
0.0
 49
0.0
 49
1.0
 49
0.0
 49
0.0
 49
0.0
 49
0.0
 49
1.0
175
     0
142
0.0208333333
142
0.0
142
0.0
142
0.0
142
0.0
142
0.0208333333
142
0.0
142
0.0
142
0.0
142
0.0
142
1.0
142
0.0
142
0.0
142
0.0
142
0.0
142
1.0
179
     0
144
0.0208333333
144
0.0
144
0.0
144
0.0
144
0.0
144
0.0208333333
144
0.0
144
0.0
144
0.0
144
0.0
144
1.0
144
0.0
144
0.0
144
0.0
144
0.0
144
1.0
147
0.0208333333
147
0.0
147
0.0
147
0.0
147
0.0
147
0.0208333333
147
0.0
147
0.0
147
0.0
147
0.0
147
1.0
147
0.0
147
0.0
147
0.0
147
0.0
147
1.0
  0
MATERIAL
  5
20AE
102
{ACAD_XDICTIONARY
360
20AF
102
}
102
{ACAD_REACTORS
330
20AD
102
}
330
20AD
100
AcDbMaterial
  1
ByLayer
 72
     0
 43
0.0208333333
 43
0.0
 43
0.0
 43
0.0
 43
0.0
 43
0.0208333333
 43
0.0
 43
0.0
 43
0.0
 43
0.0
 43
1.0
 43
0.0
 43
0.0
 43
0.0
 43
0.0
 43
1.0
 77
     0
 47
0.0208333333
 47
0.0
 47
0.0
 47
0.0
 47
0.0
 47
0.0208333333
 47
0.0
 47
0.0
 47
0.0
 47
0.0
 47
1.0
 47
0.0
 47
0.0
 47
0.0
 47
0.0
 47
1.0
171
     0
 49
0.0208333333
 49
0.0
 49
0.0
 49
0.0
 49
0.0
 49
0.0208333333
 49
0.0
 49
0.0
 49
0.0
 49
0.0
 49
1.0
 49
0.0
 49
0.0
 49
0.0
 49
0.0
 49
1.0
175
     0
142
0.0208333333
142
0.0
142
0.0
142
0.0
142
0.0
142
0.0208333333
142
0.0
142
0.0
142
0.0
142
0.0
142
1.0
142
0.0
142
0.0
142
0.0
142
0.0
142
1.0
179
     0
144
0.0208333333
144
0.0
144
0.0
144
0.0
144
0.0
144
0.0208333333
144
0.0
144
0.0
144
0.0
144
0.0
144
1.0
144
0.0
144
0.0
144
0.0
144
0.0
144
1.0
147
0.0208333333
147
0.0
147
0.0
147
0.0
147
0.0
147
0.0208333333
147
0.0
147
0.0
147
0.0
147
0.0
147
1.0
147
0.0
147
0.0
147
0.0
147
0.0
147
1.0
  0
MATERIAL
  5
20BE
102
{ACAD_XDICTIONARY
360
20BF
102
}
102
{ACAD_REACTORS
330
20AD
102
}
330
20AD
100
AcDbMaterial
  1
Global
 72
     0
 43
0.0208333333
 43
0.0
 43
0.0
 43
0.0
 43
0.0
 43
0.0208333333
 43
0.0
 43
0.0
 43
0.0
 43
0.0
 43
1.0
 43
0.0
 43
0.0
 43
0.0
 43
0.0
 43
1.0
 77
     0
 47
0.0208333333
 47
0.0
 47
0.0
 47
0.0
 47
0.0
 47
0.0208333333
 47
0.0
 47
0.0
 47
0.0
 47
0.0
 47
1.0
 47
0.0
 47
0.0
 47
0.0
 47
0.0
 47
1.0
171
     0
 49
0.0208333333
 49
0.0
 49
0.0
 49
0.0
 49
0.0
 49
0.0208333333
 49
0.0
 49
0.0
 49
0.0
 49
0.0
 49
1.0
 49
0.0
 49
0.0
 49
0.0
 49
0.0
 49
1.0
175
     0
142
0.0208333333
142
0.0
142
0.0
142
0.0
142
0.0
142
0.0208333333
142
0.0
142
0.0
142
0.0
142
0.0
142
1.0
142
0.0
142
0.0
142
0.0
142
0.0
142
1.0
179
     0
144
0.0208333333
144
0.0
144
0.0
144
0.0
144
0.0
144
0.0208333333
144
0.0
144
0.0
144
0.0
144
0.0
144
1.0
144
0.0
144
0.0
144
0.0
144
0.0
144
1.0
147
0.0208333333
147
0.0
147
0.0
147
0.0
147
0.0
147
0.0208333333
147
0.0
147
0.0
147
0.0
147
0.0
147
1.0
147
0.0
147
0.0
147
0.0
147
0.0
147
1.0
  0
MLEADERSTYLE
  5
20FD
102
{ACAD_REACTORS
330
20FC
102
}
330
20FC
100
AcDbMLeaderStyle
170
     2
171
     1
172
     0
 90
        2
 40
0.0
 41
0.0
173
     1
 91
-1056964608
340
6A
 92
       -2
290
     1
 42
0.09
291
     1
 43
0.36
  3
Standard
 44
0.18
300

342
16
174
     1
178
     6
175
     1
176
     0
 93
-1056964608
 45
0.18
292
     0
297
     0
 46
0.18
 94
-1056964608
 47
1.0
 49
1.0
140
1.0
293
     1
141
0.0
294
     1
177
     0
142
1.0
295
     0
296
     0
143
0.125
1001
ACAD_MLEADERVER
1070
     2
  0
MLINESTYLE
  5
78
102
{ACAD_REACTORS
330
76
102
}
330
76
100
AcDbMlineStyle
  2
STANDARD
 70
     0
  3

 62
     0
 51
90.0
 52
90.0
 71
     2
 49
0.5
 62
   256
  6
BYLAYER
 49
-0.5
 62
   256
  6
BYLAYER
  0
ACDBPLACEHOLDER
  5
5
102
{ACAD_REACTORS
330
6
102
}
330
6
  0
SCALE
  5
20DB
102
{ACAD_REACTORS
330
20DA
102
}
330
20DA
100
AcDbScale
 70
     0
300
1:1
140
1.0
141
1.0
290
     1
  0
SCALE
  5
20DC
102
{ACAD_REACTORS
330
20DA
102
}
330
20DA
100
AcDbScale
 70
     0
300
1:2
140
1.0
141
2.0
290
     0
  0
SCALE
  5
20DD
102
{ACAD_REACTORS
330
20DA
102
}
330
20DA
100
AcDbScale
 70
     0
300
1:4
140
1.0
141
4.0
290
     0
  0
SCALE
  5
20DE
102
{ACAD_REACTORS
330
20DA
102
}
330
20DA
100
AcDbScale
 70
     0
300
1:5
140
1.0
141
5.0
290
     0
  0
SCALE
  5
20DF
102
{ACAD_REACTORS
330
20DA
102
}
330
20DA
100
AcDbScale
 70
     0
300
1:8
140
1.0
141
8.0
290
     0
  0
SCALE
  5
20E0
102
{ACAD_REACTORS
330
20DA
102
}
330
20DA
100
AcDbScale
 70
     0
300
1:10
140
1.0
141
10.0
290
     0
  0
SCALE
  5
20E1
102
{ACAD_REACTORS
330
20DA
102
}
330
20DA
100
AcDbScale
 70
     0
300
1:16
140
1.0
141
16.0
290
     0
  0
SCALE
  5
20E2
102
{ACAD_REACTORS
330
20DA
102
}
330
20DA
100
AcDbScale
 70
     0
300
1:20
140
1.0
141
20.0
290
     0
  0
SCALE
  5
20E3
102
{ACAD_REACTORS
330
20DA
102
}
330
20DA
100
AcDbScale
 70
     0
300
1:30
140
1.0
141
30.0
290
     0
  0
SCALE
  5
20E4
102
{ACAD_REACTORS
330
20DA
102
}
330
20DA
100
AcDbScale
 70
     0
300
1:40
140
1.0
141
40.0
290
     0
  0
SCALE
  5
20E5
102
{ACAD_REACTORS
330
20DA
102
}
330
20DA
100
AcDbScale
 70
     0
300
1:50
140
1.0
141
50.0
290
     0
  0
SCALE
  5
20E6
102
{ACAD_REACTORS
330
20DA
102
}
330
20DA
100
AcDbScale
 70
     0
300
1:100
140
1.0
141
100.0
290
     0
  0
SCALE
  5
20E7
102
{ACAD_REACTORS
330
20DA
102
}
330
20DA
100
AcDbScale
 70
     0
300
2:1
140
2.0
141
1.0
290
     0
  0
SCALE
  5
20E8
102
{ACAD_REACTORS
330
20DA
102
}
330
20DA
100
AcDbScale
 70
     0
300
4:1
140
4.0
141
1.0
290
     0
  0
SCALE
  5
20E9
102
{ACAD_REACTORS
330
20DA
102
}
330
20DA
100
AcDbScale
 70
     0
300
8:1
140
8.0
141
1.0
290
     0
  0
SCALE
  5
20EA
102
{ACAD_REACTORS
330
20DA
102
}
330
20DA
100
AcDbScale
 70
     0
300
10:1
140
10.0
141
1.0
290
     0
  0
SCALE
  5
20EB
102
{ACAD_REACTORS
330
20DA
102
}
330
20DA
100
AcDbScale
 70
     0
300
100:1
140
100.0
141
1.0
290
     0
  0
SCALE
  5
20EC
102
{ACAD_REACTORS
330
20DA
102
}
330
20DA
100
AcDbScale
 70
     0
300
1/128" = 1'-0"
140
0.0078125
141
12.0
290
     0
  0
SCALE
  5
20ED
102
{ACAD_REACTORS
330
20DA
102
}
330
20DA
100
AcDbScale
 70
     0
300
1/64" = 1'-0"
140
0.015625
141
12.0
290
     0
  0
SCALE
  5
20EE
102
{ACAD_REACTORS
330
20DA
102
}
330
20DA
100
AcDbScale
 70
     0
300
1/32" = 1'-0"
140
0.03125
141
12.0
290
     0
  0
SCALE
  5
20EF
102
{ACAD_REACTORS
330
20DA
102
}
330
20DA
100
AcDbScale
 70
     0
300
1/16" = 1'-0"
140
0.0625
141
12.0
290
     0
  0
SCALE
  5
20F0
102
{ACAD_REACTORS
330
20DA
102
}
330
20DA
100
AcDbScale
 70
     0
300
3/32" = 1'-0"
140
0.09375
141
12.0
290
     0
  0
SCALE
  5
20F1
102
{ACAD_REACTORS
330
20DA
102
}
330
20DA
100
AcDbScale
 70
     0
300
1/8" = 1'-0"
140
0.125
141
12.0
290
     0
  0
SCALE
  5
20F2
102
{ACAD_REACTORS
330
20DA
102
}
330
20DA
100
AcDbScale
 70
     0
300
3/16" = 1'-0"
140
0.1875
141
12.0
290
     0
  0
SCALE
  5
20F3
102
{ACAD_REACTORS
330
20DA
102
}
330
20DA
100
AcDbScale
 70
     0
300
1/4" = 1'-0"
140
0.25
141
12.0
290
     0
  0
SCALE
  5
20F4
102
{ACAD_REACTORS
330
20DA
102
}
330
20DA
100
AcDbScale
 70
     0
300
3/8" = 1'-0"
140
0.375
141
12.0
290
     0
  0
SCALE
  5
20F5
102
{ACAD_REACTORS
330
20DA
102
}
330
20DA
100
AcDbScale
 70
     0
300
1/2" = 1'-0"
140
0.5
141
12.0
290
     0
  0
SCALE
  5
20F6
102
{ACAD_REACTORS
330
20DA
102
}
330
20DA
100
AcDbScale
 70
     0
300
3/4" = 1'-0"
140
0.75
141
12.0
290
     0
  0
SCALE
  5
20F7
102
{ACAD_REACTORS
330
20DA
102
}
330
20DA
100
AcDbScale
 70
     0
300
1" = 1'-0"
140
1.0
141
12.0
290
     0
  0
SCALE
  5
20F8
102
{ACAD_REACTORS
330
20DA
102
}
330
20DA
100
AcDbScale
 70
     0
300
1-1/2" = 1'-0"
140
1.5
141
12.0
290
     0
  0
SCALE
  5
20F9
102
{ACAD_REACTORS
330
20DA
102
}
330
20DA
100
AcDbScale
 70
     0
300
3" = 1'-0"
140
3.0
141
12.0
290
     0
  0
SCALE
  5
20FA
102
{ACAD_REACTORS
330
20DA
102
}
330
20DA
100
AcDbScale
 70
     0
300
6" = 1'-0"
140
6.0
141
12.0
290
     0
  0
SCALE
  5
20FB
102
{ACAD_REACTORS
330
20DA
102
}
330
20DA
100
AcDbScale
 70
     0
300
1'-0" = 1'-0"
140
12.0
141
12.0
290
     0
  0
ACDBSECTIONVIEWSTYLE
  5
2226
102
{ACAD_XDICTIONARY
360
295C
102
}
102
{ACAD_REACTORS
330
2225
102
}
330
2225
100
AcDbModelDocViewStyle
 70
     0
  3
Imperial24
290
     0
100
AcDbSectionViewStyle
 70
     0
 71
     0
 90
       78
 71
     1
340
16
 40
0.24
340
0
340
0
 40
0.24
300
I, O, Q, S, X, Z
 40
0.48
 90
        3
 40
0.18
 90
        1
 71
     2
340
8
 90
       25
340
8
 90
       50
 40
0.24
 40
0.0
 40
0.24
 71
     3
340
16
 40
0.24
 90
        1
 40
0.75
 90
        1
300
%<\AcVar ViewType \f "%tc1">% %<\AcVar ViewSectionStartId>%-%<\AcVar ViewSectionEndId>%\PSCALE %<\AcVar ViewScale \f "%sn">%
 71
     4
300
ANSI31
 40
1.0
 90
        0
290
     0
290
     0
 90
        6
 40
0.0
 40
1.5707963268
 40
0.2617993878
 40
1.308996939
 40
-0.2617993878
 40
1.8325957146
  0
TABLESTYLE
  5
20D9
102
{ACAD_XDICTIONARY
360
211C
102
}
102
{ACAD_REACTORS
330
20D8
102
}
330
20D8
100
AcDbTableStyle
  3
Standard
 70
     0
 71
     0
 40
0.06
 41
0.06
280
     0
281
     0
  7
STANDARD
140
0.18
170
     2
 62
     0
 63
     7
283
     0
274
    -2
284
     1
 64
     0
275
    -2
285
     1
 65
     0
276
    -2
286
     1
 66
     0
277
    -2
287
     1
 67
     0
278
    -2
288
     1
 68
     0
279
    -2
289
     1
 69
     0
  7
STANDARD
140
0.25
170
     5
 62
     0
 63
     7
283
     0
274
    -2
284
     1
 64
     0
275
    -2
285
     1
 65
     0
276
    -2
286
     1
 66
     0
277
    -2
287
     1
 67
     0
278
    -2
288
     1
 68
     0
279
    -2
289
     1
 69
     0
  7
STANDARD
140
0.18
170
     5
 62
     0
 63
     7
283
     0
274
    -2
284
     1
 64
     0
275
    -2
285
     1
 65
     0
276
    -2
286
     1
 66
     0
277
    -2
287
     1
 67
     0
278
    -2
288
     1
 68
     0
279
    -2
289
     1
 69
     0
  0
VISUALSTYLE
  5
20CC
102
{ACAD_XDICTIONARY
360
2931
102
}
102
{ACAD_REACTORS
330
20C6
102
}
330
20C6
100
AcDbVisualStyle
  2

 70
     4
 71
     0
 72
     2
 73
     0
 90
        0
 40
-0.6
 41
-30.0
 62
     5
 63
     7
 74
     1
 91
        4
 64
     7
 65
   257
 75
     1
175
     1
 42
1.0
 92
        0
 66
   257
 43
1.0
 76
     1
 77
     6
 78
     2
 67
     7
 79
     5
170
     0
171
     0
290
     0
174
     0
 93
        1
 44
0.0
173
     0
291
     0
 45
0.0
1001
ACAD
1000
AcDbSavedByObjectVersion
1070
     0
  0
VISUALSTYLE
  5
20CE
102
{ACAD_XDICTIONARY
360
2935
102
}
102
{ACAD_REACTORS
330
20C6
102
}
330
20C6
100
AcDbVisualStyle
  2

 70
     6
 71
     1
 72
     2
 73
     2
 90
        0
 40
-0.6
 41
-30.0
 62
     5
 63
     7
 74
     2
 91
        2
 64
     7
 65
   257
 75
     2
175
     1
 42
40.0
 92
        0
 66
   257
 43
1.0
 76
     1
 77
     6
 78
     2
 67
     7
 79
     3
170
     0
171
     0
290
     0
174
     0
 93
        1
 44
0.0
173
     0
291
     0
 45
0.0
1001
ACAD
1000
AcDbSavedByObjectVersion
1070
     0
  0
VISUALSTYLE
  5
20CD
102
{ACAD_XDICTIONARY
360
2933
102
}
102
{ACAD_REACTORS
330
20C6
102
}
330
20C6
100
AcDbVisualStyle
  2

 70
     5
 71
     0
 72
     2
 73
     0
 90
        0
 40
-0.6
 41
-30.0
 62
     5
 63
     7
 74
     1
 91
        4
 64
     7
 65
   257
 75
     1
175
     1
 42
1.0
 92
        0
 66
   257
 43
1.0
 76
     1
 77
     6
 78
     2
 67
     7
 79
     5
170
     0
171
     0
290
     0
174
     0
 93
        1
 44
0.0
173
     0
291
     0
 45
0.0
1001
ACAD
1000
AcDbSavedByObjectVersion
1070
     0
  0
VISUALSTYLE
  5
20CB
102
{ACAD_XDICTIONARY
360
292F
102
}
102
{ACAD_REACTORS
330
20C6
102
}
330
20C6
100
AcDbVisualStyle
  2

 70
     7
 71
     1
 72
     0
 73
     1
 90
        0
 40
-0.6
 41
-30.0
 62
     5
 63
     7
 74
     0
 91
        4
 64
     7
 65
   257
 75
     1
175
     1
 42
1.0
 92
        8
 66
     7
 43
1.0
 76
     1
 77
     6
 78
     2
 67
     7
 79
     5
170
     0
171
     0
290
     0
174
     0
 93
        1
 44
0.0
173
     0
291
     1
 45
0.0
1001
ACAD
1000
AcDbSavedByObjectVersion
1070
     0
  0
VISUALSTYLE
  5
20D2
102
{ACAD_XDICTIONARY
360
293D
102
}
102
{ACAD_REACTORS
330
20C6
102
}
330
20C6
100
AcDbVisualStyle
  2

 70
    12
 71
     2
 72
     2
 73
     0
 90
        0
 40
-0.6
 41
-30.0
 62
     5
 63
     7
 74
     1
 91
        4
 64
     7
 65
   257
 75
     1
175
     1
 42
1.0
 92
        8
 66
     7
 43
1.0
 76
     1
 77
     6
 78
     2
 67
     7
 79
     5
170
     0
171
     0
290
     0
174
     0
 93
        1
 44
50.0
173
     0
291
     1
 45
0.0
1001
ACAD
1000
AcDbSavedByObjectVersion
1070
     0
  0
VISUALSTYLE
  5
20D6
102
{ACAD_XDICTIONARY
360
2945
102
}
102
{ACAD_REACTORS
330
20C6
102
}
330
20C6
100
AcDbVisualStyle
  2

 70
    16
 71
     2
 72
     2
 73
     3
 90
        0
 40
-0.6
 41
-30.0
 62
     5
 63
     8
 74
     1
 91
        4
 64
     7
 65
   257
 75
     1
175
     1
 42
1.0
 92
        8
 66
     8
 43
1.0
 76
     1
 77
     6
 78
     2
 67
     7
 79
     5
170
     0
171
     0
290
     0
174
     0
 93
        1
 44
0.0
173
     0
291
     1
 45
0.0
1001
ACAD
1000
AcDbSavedByObjectVersion
1070
     0
  0
VISUALSTYLE
  5
20CF
102
{ACAD_XDICTIONARY
360
2937
102
}
102
{ACAD_REACTORS
330
20C6
102
}
330
20C6
100
AcDbVisualStyle
  2

 70
     9
 71
     3
 72
     2
 73
     0
 90
        0
 40
-0.6
 41
-30.0
 62
     5
 63
     7
 74
     2
 91
        2
 64
     7
 65
   257
 75
     1
175
     1
 42
40.0
 92
        8
 66
     7
 43
1.0
 76
     1
 77
     6
 78
     2
 67
     7
 79
     3
170
     0
171
     0
290
     0
174
     0
 93
        1
 44
0.0
173
     0
291
     0
 45
0.0
1001
ACAD
1000
AcDbSavedByObjectVersion
1070
     0
  0
VISUALSTYLE
  5
20D1
102
{ACAD_XDICTIONARY
360
293B
102
}
102
{ACAD_REACTORS
330
20C6
102
}
330
20C6
100
AcDbVisualStyle
  2

 70
    11
 71
     2
 72
     2
 73
     0
 90
        0
 40
-0.6
 41
-30.0
 62
     5
 63
     7
 74
     1
 91
        4
 64
     7
 65
   257
 75
     1
175
     1
 42
1.0
 92
        8
 66
     7
 43
1.0
 76
     1
 77
     6
 78
     2
 67
     7
 79
     5
170
     0
171
     0
290
     0
174
     0
 93
        1
 44
-50.0
173
     0
291
     1
 45
0.0
1001
ACAD
1000
AcDbSavedByObjectVersion
1070
     0
  0
VISUALSTYLE
  5
2224
102
{ACAD_XDICTIONARY
360
295A
102
}
102
{ACAD_REACTORS
330
20C6
102
}
330
20C6
100
AcDbVisualStyle
  2

 70
    22
 71
     2
 72
     2
 73
     0
 90
        0
 40
-0.6
 41
-30.0
 62
     5
 63
     7
 74
     1
 91
        4
 64
     7
 65
   257
 75
     1
175
     1
 42
1.0
 92
        8
 66
     7
 43
1.0
 76
     1
 77
     6
 78
     2
 67
     7
 79
     5
170
     0
171
     0
290
     0
174
     0
 93
        1
 44
0.0
173
     0
291
     1
 45
0.0
1001
ACAD
1000
AcDbSavedByObjectVersion
1070
     0
  0
VISUALSTYLE
  5
20D5
102
{ACAD_XDICTIONARY
360
2943
102
}
102
{ACAD_REACTORS
330
20C6
102
}
330
20C6
100
AcDbVisualStyle
  2

 70
    15
 71
     2
 72
     2
 73
     0
 90
        0
 40
-0.6
 41
-30.0
 62
     5
 63
     7
 74
     1
 91
        4
 64
     7
 65
   257
 75
     1
175
     1
 42
1.0
 92
        8
 66
     7
 43
1.0
 76
     1
 77
     6
 78
     2
 67
     7
 79
     5
170
     0
171
     0
290
     0
174
     0
 93
        1
 44
0.0
173
     0
291
     1
 45
0.0
1001
ACAD
1000
AcDbSavedByObjectVersion
1070
     0
  0
VISUALSTYLE
  5
20C7
102
{ACAD_XDICTIONARY
360
2927
102
}
102
{ACAD_REACTORS
330
20C6
102
}
330
20C6
100
AcDbVisualStyle
  2

 70
     0
 71
     2
 72
     1
 73
     1
 90
        2
 40
-0.6
 41
30.0
 62
     5
 63
     7
 74
     0
 91
        4
 64
     7
 65
   257
 75
     1
175
     1
 42
1.0
 92
        8
 66
     7
 43
1.0
 76
     1
 77
     6
 78
     2
 67
     7
 79
     5
170
     0
171
     0
290
     0
174
     0
 93
       13
 44
0.0
173
     0
291
     1
 45
0.0
1001
ACAD
1000
AcDbSavedByObjectVersion
1070
     0
  0
VISUALSTYLE
  5
20C8
102
{ACAD_XDICTIONARY
360
2929
102
}
102
{ACAD_REACTORS
330
20C6
102
}
330
20C6
100
AcDbVisualStyle
  2

 70
     1
 71
     2
 72
     1
 73
     1
 90
        2
 40
-0.6
 41
30.0
 62
     5
 63
     7
 74
     1
 91
        4
 64
     7
 65
   257
 75
     1
175
     1
 42
1.0
 92
        0
 66
   257
 43
1.0
 76
     1
 77
     6
 78
     2
 67
     7
 79
     5
170
     0
171
     0
290
     0
174
     0
 93
       13
 44
0.0
173
     0
291
     1
 45
0.0
1001
ACAD
1000
AcDbSavedByObjectVersion
1070
     0
  0
VISUALSTYLE
  5
20C9
102
{ACAD_XDICTIONARY
360
292B
102
}
102
{ACAD_REACTORS
330
20C6
102
}
330
20C6
100
AcDbVisualStyle
  2

 70
     2
 71
     2
 72
     2
 73
     1
 90
        2
 40
-0.6
 41
30.0
 62
     5
 63
     7
 74
     0
 91
        4
 64
     7
 65
   257
 75
     1
175
     1
 42
1.0
 92
        0
 66
     7
 43
1.0
 76
     1
 77
     6
 78
     2
 67
     7
 79
     5
170
     0
171
     0
290
     0
174
     0
 93
       13
 44
0.0
173
     0
291
     1
 45
0.0
1001
ACAD
1000
AcDbSavedByObjectVersion
1070
     0
  0
VISUALSTYLE
  5
20CA
102
{ACAD_XDICTIONARY
360
292D
102
}
102
{ACAD_REACTORS
330
20C6
102
}
330
20C6
100
AcDbVisualStyle
  2

 70
     3
 71
     2
 72
     2
 73
     1
 90
        2
 40
-0.6
 41
30.0
 62
     5
 63
     7
 74
     1
 91
        4
 64
     7
 65
   257
 75
     1
175
     1
 42
1.0
 92
        0
 66
   257
 43
1.0
 76
     1
 77
     6
 78
     2
 67
     7
 79
     5
170
     0
171
     0
290
     0
174
     0
 93
       13
 44
0.0
173
     0
291
     1
 45
0.0
1001
ACAD
1000
AcDbSavedByObjectVersion
1070
     0
  0
VISUALSTYLE
  5
221C
102
{ACAD_XDICTIONARY
360
294A
102
}
102
{ACAD_REACTORS
330
20C6
102
}
330
20C6
100
AcDbVisualStyle
  2

 70
     6
 71
     1
 72
     2
 73
     2
 90
        0
 40
-0.6
 41
-30.0
 62
     5
 63
     7
 74
     2
 91
        2
 64
     7
 65
   257
 75
     2
175
     1
 42
40.0
 92
        0
 66
   257
 43
1.0
 76
     1
 77
     6
 78
     2
 67
     7
 79
     3
170
     0
171
     0
290
     0
174
     0
 93
        1
 44
0.0
173
     0
291
     0
 45
0.0
1001
ACAD
1000
AcDbSavedByObjectVersion
1070
     0
  0
VISUALSTYLE
  5
2222
102
{ACAD_XDICTIONARY
360
2956
102
}
102
{ACAD_REACTORS
330
20C6
102
}
330
20C6
100
AcDbVisualStyle
  2

 70
    20
 71
     2
 72
     2
 73
     0
 90
        0
 40
-0.6
 41
-30.0
 62
     5
 63
     7
 74
     1
 91
        4
 64
     7
 65
   257
 75
     1
175
     1
 42
1.0
 92
       10
 66
     7
 43
1.0
 76
     1
 77
     6
 78
     2
 67
     7
 79
     5
170
     0
171
     0
290
     0
174
     0
 93
        1
 44
0.0
173
     0
291
     1
 45
0.0
1001
ACAD
1000
AcDbSavedByObjectVersion
1070
     0
  0
VISUALSTYLE
  5
20D4
102
{ACAD_XDICTIONARY
360
2941
102
}
102
{ACAD_REACTORS
330
20C6
102
}
330
20C6
100
AcDbVisualStyle
  2

 70
    14
 71
     2
 72
     2
 73
     0
 90
        0
 40
-0.6
 41
-30.0
 62
     5
 63
     7
 74
     1
 91
        4
 64
     7
 65
   257
 75
     7
175
     7
 42
1.0
 92
        8
 66
     7
 43
1.0
 76
     1
 77
     6
 78
     2
 67
     7
 79
     5
170
     0
171
     0
290
     0
174
     0
 93
        1
 44
0.0
173
     0
291
     1
 45
0.0
1001
ACAD
1000
AcDbSavedByObjectVersion
1070
     0
  0
VISUALSTYLE
  5
2223
102
{ACAD_XDICTIONARY
360
2958
102
}
102
{ACAD_REACTORS
330
20C6
102
}
330
20C6
100
AcDbVisualStyle
  2

 70
    21
 71
     2
 72
     2
 73
     0
 90
        0
 40
-0.6
 41
-30.0
 62
     5
 63
     7
 74
     1
 91
        4
 64
     7
 65
   257
 75
     1
175
     1
 42
1.0
 92
        9
 66
     7
 43
1.0
 76
     1
 77
     6
 78
     2
 67
     7
 79
     5
170
     0
171
     0
290
     0
174
     0
 93
        1
 44
0.0
173
     0
291
     1
 45
0.0
1001
ACAD
1000
AcDbSavedByObjectVersion
1070
     0
  0
VISUALSTYLE
  5
20D0
102
{ACAD_XDICTIONARY
360
2939
102
}
102
{ACAD_REACTORS
330
20C6
102
}
330
20C6
100
AcDbVisualStyle
  2

 70
     8
 71
     2
 72
     2
 73
     0
 90
        0
 40
-0.6
 41
-30.0
 62
     5
 63
     7
 74
     1
 91
        0
 64
     7
 65
   257
 75
     1
175
     1
 42
1.0
 92
        8
 66
     8
 43
1.0
 76
     1
 77
     6
 78
     2
 67
     7
 79
     5
170
     0
171
     0
290
     0
174
     0
 93
       13
 44
0.0
173
     0
291
     0
 45
0.0
1001
ACAD
1000
AcDbSavedByObjectVersion
1070
     0
  0
VISUALSTYLE
  5
2221
102
{ACAD_XDICTIONARY
360
2954
102
}
102
{ACAD_REACTORS
330
20C6
102
}
330
20C6
100
AcDbVisualStyle
  2

 70
    27
 71
     2
 72
     2
 73
     1
 90
        2
 40
-0.6
 41
30.0
 62
     5
 63
     7
 74
     0
 91
        4
 64
     7
 65
   257
 75
     1
175
     1
 42
1.0
 92
        8
 66
   257
 43
1.0
 76
     1
 77
     6
 78
     2
 67
     8
 79
     3
170
     0
171
     0
290
     0
174
     0
 93
        5
 44
0.0
173
     0
291
     0
 45
0.0
1001
ACAD
1000
AcDbSavedByObjectVersion
1070
     0
  0
VISUALSTYLE
  5
2220
102
{ACAD_XDICTIONARY
360
2952
102
}
102
{ACAD_REACTORS
330
20C6
102
}
330
20C6
100
AcDbVisualStyle
  2

 70
    26
 71
     2
 72
     2
 73
     1
 90
        2
 40
-0.6
 41
30.0
 62
     5
 63
     7
 74
     1
 91
        2
 64
     7
 65
   257
 75
     2
175
     1
 42
1.0
 92
        8
 66
   257
 43
1.0
 76
     1
 77
     6
 78
     2
 67
     7
 79
     3
170
     0
171
     0
290
     0
174
     0
 93
        5
 44
0.0
173
     0
291
     0
 45
0.0
1001
ACAD
1000
AcDbSavedByObjectVersion
1070
     0
  0
VISUALSTYLE
  5
221D
102
{ACAD_XDICTIONARY
360
294C
102
}
102
{ACAD_REACTORS
330
20C6
102
}
330
20C6
100
AcDbVisualStyle
  2

 70
    23
 71
     2
 72
     2
 73
     3
 90
        0
 40
-0.6
 41
-30.0
 62
     5
 63
     7
 74
     2
 91
        2
 64
     7
 65
     7
 75
     1
175
     1
 42
40.0
 92
        8
 66
     7
 43
1.0
 76
     1
 77
     6
 78
     2
 67
     7
 79
     3
170
     0
171
     0
290
     0
174
     0
 93
        1
 44
0.0
173
     0
291
     0
 45
0.0
1001
ACAD
1000
AcDbSavedByObjectVersion
1070
     0
  0
VISUALSTYLE
  5
221E
102
{ACAD_XDICTIONARY
360
294E
102
}
102
{ACAD_REACTORS
330
20C6
102
}
330
20C6
100
AcDbVisualStyle
  2

 70
    24
 71
     1
 72
     2
 73
     2
 90
        0
 40
-0.6
 41
-30.0
 62
     5
 63
     7
 74
     2
 91
        2
 64
     7
 65
     7
 75
     1
175
     1
 42
40.0
 92
       11
 66
     7
 43
1.0
 76
     1
 77
     6
 78
     2
 67
     7
 79
     6
170
     0
171
     0
290
     0
174
     0
 93
        1
 44
0.0
173
     0
291
     0
 45
0.0
1001
ACAD
1000
AcDbSavedByObjectVersion
1070
     0
  0
VISUALSTYLE
  5
20D3
102
{ACAD_XDICTIONARY
360
293F
102
}
102
{ACAD_REACTORS
330
20C6
102
}
330
20C6
100
AcDbVisualStyle
  2

 70
    13
 71
     2
 72
     2
 73
     0
 90
        0
 40
-0.6
 41
-30.0
 62
     5
 63
     7
 74
     1
 91
        4
 64
     7
 65
   257
 75
     1
175
     1
 42
1.0
 92
       12
 66
     7
 43
1.0
 76
     1
 77
     6
 78
     2
 67
     7
 79
     5
170
     0
171
     0
290
     0
174
     0
 93
        1
 44
0.0
173
     0
291
     1
 45
0.0
1001
ACAD
1000
AcDbSavedByObjectVersion
1070
     0
  0
VISUALSTYLE
  5
221B
102
{ACAD_XDICTIONARY
360
2948
102
}
102
{ACAD_REACTORS
330
20C6
102
}
330
20C6
100
AcDbVisualStyle
  2

 70
     5
 71
     0
 72
     2
 73
     0
 90
        0
 40
-0.6
 41
-30.0
 62
     5
 63
     7
 74
     1
 91
        4
 64
     7
 65
   257
 75
     1
175
     1
 42
1.0
 92
        0
 66
   257
 43
1.0
 76
     1
 77
     6
 78
     2
 67
     7
 79
     3
170
     0
171
     0
290
     0
174
     0
 93
        1
 44
0.0
173
     0
291
     0
 45
0.0
1001
ACAD
1000
AcDbSavedByObjectVersion
1070
     0
  0
VISUALSTYLE
  5
221F
102
{ACAD_XDICTIONARY
360
2950
102
}
102
{ACAD_REACTORS
330
20C6
102
}
330
20C6
100
AcDbVisualStyle
  2

 70
    25
 71
     2
 72
     2
 73
     1
 90
        1
 40
0.5
 41
-30.0
 62
     5
 63
     7
 74
     1
 91
        0
 64
     7
 65
   257
 75
     1
175
     1
 42
1.0
 92
        8
 66
     7
 43
1.0
 76
     1
 77
     6
 78
     2
 67
     7
 79
     3
170
     0
171
     0
290
     0
174
     0
 93
       13
 44
0.0
173
     0
291
     0
 45
0.0
1001
ACAD
1000
AcDbSavedByObjectVersion
1070
     0
  0
DICTIONARYVAR
  5
2155
102
{ACAD_REACTORS
330
102
102
}
330
102
100
DictionaryVariables
280
     0
  1
1:1
  0
DICTIONARYVAR
  5
2154
102
{ACAD_REACTORS
330
102
102
}
330
102
100
DictionaryVariables
280
     0
  1
STANDARD
  0
DICTIONARYVAR
  5
2153
102
{ACAD_REACTORS
330
102
102
}
330
102
100
DictionaryVariables
280
     0
  1
STANDARD
  0
DICTIONARYVAR
  5
22D1
102
{ACAD_REACTORS
330
102
102
}
330
102
100
DictionaryVariables
280
     0
  1
Imperial24
  0
DICTIONARYVAR
  5
22D2
102
{ACAD_REACTORS
330
102
102
}
330
102
100
DictionaryVariables
280
     0
  1
Imperial24
  0
DICTIONARYVAR
  5
103
102
{ACAD_REACTORS
330
102
102
}
330
102
100
DictionaryVariables
280
     0
  1
1
  0
DICTIONARYVAR
  5
2157
102
{ACAD_REACTORS
330
102
102
}
330
102
100
DictionaryVariables
280
     0
  1
0
  0
DICTIONARYVAR
  5
21F3
102
{ACAD_REACTORS
330
102
102
}
330
102
100
DictionaryVariables
280
     0
  1
0
  0
DICTIONARYVAR
  5
21F2
102
{ACAD_REACTORS
330
102
102
}
330
102
100
DictionaryVariables
280
     0
  1
0
  0
DICTIONARYVAR
  5
22D4
102
{ACAD_REACTORS
330
102
102
}
330
102
100
DictionaryVariables
280
     0
  1
1
  0
DICTIONARYVAR
  5
2156
102
{ACAD_REACTORS
330
102
102
}
330
102
100
DictionaryVariables
280
     0
  1
127
  0
DICTIONARYVAR
  5
2906
102
{ACAD_REACTORS
330
102
102
}
330
102
100
DictionaryVariables
280
     0
  1
2
  0
DICTIONARY
  5
295E
330
2228
100
AcDbDictionary
280
     1
281
     1
  3
ACAD_XREC_ROUNDTRIP
360
295F
  0
DICTIONARY
  5
290A
330
60
100
AcDbDictionary
280
     1
281
     1
  3
ACAD_XREC_ROUNDTRIP
360
290B
  0
DICTIONARY
  5
2960
330
2902
100
AcDbDictionary
280
     1
281
     1
  3
ACAD_XREC_ROUNDTRIP
360
2961
  0
DICTIONARY
  5
20B7
330
20B6
100
AcDbDictionary
280
     1
281
     1
  3
ACAD_XREC_ROUNDTRIP
360
2925
  3
BUMPTILE
360
20B9
  3
DIFFUSETILE
360
20B8
  3
OPACITYTILE
360
20BC
  3
REFLECTIONTILE
360
20BB
  3
REFRACTIONTILE
360
20BD
  3
SPECULARTILE
360
20BA
  0
DICTIONARY
  5
20AF
330
20AE
100
AcDbDictionary
280
     1
281
     1
  3
ACAD_XREC_ROUNDTRIP
360
2924
  3
BUMPTILE
360
20B1
  3
DIFFUSETILE
360
20B0
  3
OPACITYTILE
360
20B4
  3
REFLECTIONTILE
360
20B3
  3
REFRACTIONTILE
360
20B5
  3
SPECULARTILE
360
20B2
  0
DICTIONARY
  5
20BF
330
20BE
100
AcDbDictionary
280
     1
281
     1
  3
ACAD_XREC_ROUNDTRIP
360
2926
  3
BUMPTILE
360
20C1
  3
DIFFUSETILE
360
20C0
  3
OPACITYTILE
360
20C4
  3
REFLECTIONTILE
360
20C3
  3
REFRACTIONTILE
360
20C5
  3
SPECULARTILE
360
20C2
  0
DICTIONARY
  5
295C
330
2226
100
AcDbDictionary
280
     1
281
     1
  3
ACAD_XREC_ROUNDTRIP
360
295D
  0
DICTIONARY
  5
211C
330
20D9
100
AcDbDictionary
280
     1
281
     1
  3
ACAD_ROUNDTRIP_2008_TABLESTYLE_CELLSTYLEMAP
360
2907
  3
ACAD_XREC_ROUNDTRIP
360
2947
  0
DICTIONARY
  5
2931
330
20CC
100
AcDbDictionary
280
     1
281
     1
  3
ACAD_XREC_ROUNDTRIP
360
2932
  0
DICTIONARY
  5
2935
330
20CE
100
AcDbDictionary
280
     1
281
     1
  3
ACAD_XREC_ROUNDTRIP
360
2936
  0
DICTIONARY
  5
2933
330
20CD
100
AcDbDictionary
280
     1
281
     1
  3
ACAD_XREC_ROUNDTRIP
360
2934
  0
DICTIONARY
  5
292F
330
20CB
100
AcDbDictionary
280
     1
281
     1
  3
ACAD_XREC_ROUNDTRIP
360
2930
  0
DICTIONARY
  5
293D
330
20D2
100
AcDbDictionary
280
     1
281
     1
  3
ACAD_XREC_ROUNDTRIP
360
293E
  0
DICTIONARY
  5
2945
330
20D6
100
AcDbDictionary
280
     1
281
     1
  3
ACAD_XREC_ROUNDTRIP
360
2946
  0
DICTIONARY
  5
2937
330
20CF
100
AcDbDictionary
280
     1
281
     1
  3
ACAD_XREC_ROUNDTRIP
360
2938
  0
DICTIONARY
  5
293B
330
20D1
100
AcDbDictionary
280
     1
281
     1
  3
ACAD_XREC_ROUNDTRIP
360
293C
  0
DICTIONARY
  5
295A
330
2224
100
AcDbDictionary
280
     1
281
     1
  3
ACAD_XREC_ROUNDTRIP
360
295B
  0
DICTIONARY
  5
2943
330
20D5
100
AcDbDictionary
280
     1
281
     1
  3
ACAD_XREC_ROUNDTRIP
360
2944
  0
DICTIONARY
  5
2927
330
20C7
100
AcDbDictionary
280
     1
281
     1
  3
ACAD_XREC_ROUNDTRIP
360
2928
  0
DICTIONARY
  5
2929
330
20C8
100
AcDbDictionary
280
     1
281
     1
  3
ACAD_XREC_ROUNDTRIP
360
292A
  0
DICTIONARY
  5
292B
330
20C9
100
AcDbDictionary
280
     1
281
     1
  3
ACAD_XREC_ROUNDTRIP
360
292C
  0
DICTIONARY
  5
292D
330
20CA
100
AcDbDictionary
280
     1
281
     1
  3
ACAD_XREC_ROUNDTRIP
360
292E
  0
DICTIONARY
  5
294A
330
221C
100
AcDbDictionary
280
     1
281
     1
  3
ACAD_XREC_ROUNDTRIP
360
294B
  0
DICTIONARY
  5
2956
330
2222
100
AcDbDictionary
280
     1
281
     1
  3
ACAD_XREC_ROUNDTRIP
360
2957
  0
DICTIONARY
  5
2941
330
20D4
100
AcDbDictionary
280
     1
281
     1
  3
ACAD_XREC_ROUNDTRIP
360
2942
  0
DICTIONARY
  5
2958
330
2223
100
AcDbDictionary
280
     1
281
     1
  3
ACAD_XREC_ROUNDTRIP
360
2959
  0
DICTIONARY
  5
2939
330
20D0
100
AcDbDictionary
280
     1
281
     1
  3
ACAD_XREC_ROUNDTRIP
360
293A
  0
DICTIONARY
  5
2954
330
2221
100
AcDbDictionary
280
     1
281
     1
  3
ACAD_XREC_ROUNDTRIP
360
2955
  0
DICTIONARY
  5
2952
330
2220
100
AcDbDictionary
280
     1
281
     1
  3
ACAD_XREC_ROUNDTRIP
360
2953
  0
DICTIONARY
  5
294C
330
221D
100
AcDbDictionary
280
     1
281
     1
  3
ACAD_XREC_ROUNDTRIP
360
294D
  0
DICTIONARY
  5
294E
330
221E
100
AcDbDictionary
280
     1
281
     1
  3
ACAD_XREC_ROUNDTRIP
360
294F
  0
DICTIONARY
  5
293F
330
20D3
100
AcDbDictionary
280
     1
281
     1
  3
ACAD_XREC_ROUNDTRIP
360
2940
  0
DICTIONARY
  5
2948
330
221B
100
AcDbDictionary
280
     1
281
     1
  3
ACAD_XREC_ROUNDTRIP
360
2949
  0
DICTIONARY
  5
2950
330
221F
100
AcDbDictionary
280
     1
281
     1
  3
ACAD_XREC_ROUNDTRIP
360
2951
  0
XRECORD
  5
295F
102
{ACAD_REACTORS
330
295E
102
}
330
295E
100
AcDbXrecord
280
     1
102
DISPLAYNAME
  1
Imperial24
102
FLAGS
 90
        0
  0
XRECORD
  5
290B
102
{ACAD_REACTORS
330
290A
102
}
330
290A
100
AcDbXrecord
280
     1
102
SHADEPLOT
 70
     0
102
SHADEPLOTRESLEVEL
 70
     2
102
SHADEPLOTCUSTOMDPI
 70
   300
  0
XRECORD
  5
2961
102
{ACAD_REACTORS
330
2960
102
}
330
2960
100
AcDbXrecord
280
     1
102
SHADEPLOT
 70
     0
102
SHADEPLOTRESLEVEL
 70
     2
102
SHADEPLOTCUSTOMDPI
 70
   300
  0
XRECORD
  5
2925
102
{ACAD_REACTORS
330
20B7
102
}
330
20B7
100
AcDbXrecord
280
     1
102
MATERIAL
148
0.0
149
0.0
149
0.0
 93
        0
 94
      127
282
     0
 72
     0
 77
     0
171
     0
175
     0
179
     0
273
     0
  0
XRECORD
  5
20B9
102
{ACAD_REACTORS
330
20B7
102
}
330
20B7
100
AcDbXrecord
280
     1
270
     1
271
     1
  0
XRECORD
  5
20B8
102
{ACAD_REACTORS
330
20B7
102
}
330
20B7
100
AcDbXrecord
280
     1
270
     1
271
     1
  0
XRECORD
  5
20BC
102
{ACAD_REACTORS
330
20B7
102
}
330
20B7
100
AcDbXrecord
280
     1
270
     1
271
     1
  0
XRECORD
  5
20BB
102
{ACAD_REACTORS
330
20B7
102
}
330
20B7
100
AcDbXrecord
280
     1
270
     1
271
     1
  0
XRECORD
  5
20BD
102
{ACAD_REACTORS
330
20B7
102
}
330
20B7
100
AcDbXrecord
280
     1
270
     1
271
     1
  0
XRECORD
  5
20BA
102
{ACAD_REACTORS
330
20B7
102
}
330
20B7
100
AcDbXrecord
280
     1
270
     1
271
     1
  0
XRECORD
  5
2924
102
{ACAD_REACTORS
330
20AF
102
}
330
20AF
100
AcDbXrecord
280
     1
102
MATERIAL
148
0.0
149
0.0
149
0.0
 93
        0
 94
      127
282
     0
 72
     0
 77
     0
171
     0
175
     0
179
     0
273
     0
  0
XRECORD
  5
20B1
102
{ACAD_REACTORS
330
20AF
102
}
330
20AF
100
AcDbXrecord
280
     1
270
     1
271
     1
  0
XRECORD
  5
20B0
102
{ACAD_REACTORS
330
20AF
102
}
330
20AF
100
AcDbXrecord
280
     1
270
     1
271
     1
  0
XRECORD
  5
20B4
102
{ACAD_REACTORS
330
20AF
102
}
330
20AF
100
AcDbXrecord
280
     1
270
     1
271
     1
  0
XRECORD
  5
20B3
102
{ACAD_REACTORS
330
20AF
102
}
330
20AF
100
AcDbXrecord
280
     1
270
     1
271
     1
  0
XRECORD
  5
20B5
102
{ACAD_REACTORS
330
20AF
102
}
330
20AF
100
AcDbXrecord
280
     1
270
     1
271
     1
  0
XRECORD
  5
20B2
102
{ACAD_REACTORS
330
20AF
102
}
330
20AF
100
AcDbXrecord
280
     1
270
     1
271
     1
  0
XRECORD
  5
2926
102
{ACAD_REACTORS
330
20BF
102
}
330
20BF
100
AcDbXrecord
280
     1
102
MATERIAL
148
0.0
149
0.0
149
0.0
 93
        0
 94
      127
282
     0
 72
     0
 77
     0
171
     0
175
     0
179
     0
273
     0
  0
XRECORD
  5
20C1
102
{ACAD_REACTORS
330
20BF
102
}
330
20BF
100
AcDbXrecord
280
     1
270
     1
271
     1
  0
XRECORD
  5
20C0
102
{ACAD_REACTORS
330
20BF
102
}
330
20BF
100
AcDbXrecord
280
     1
270
     1
271
     1
  0
XRECORD
  5
20C4
102
{ACAD_REACTORS
330
20BF
102
}
330
20BF
100
AcDbXrecord
280
     1
270
     1
271
     1
  0
XRECORD
  5
20C3
102
{ACAD_REACTORS
330
20BF
102
}
330
20BF
100
AcDbXrecord
280
     1
270
     1
271
     1
  0
XRECORD
  5
20C5
102
{ACAD_REACTORS
330
20BF
102
}
330
20BF
100
AcDbXrecord
280
     1
270
     1
271
     1
  0
XRECORD
  5
20C2
102
{ACAD_REACTORS
330
20BF
102
}
330
20BF
100
AcDbXrecord
280
     1
270
     1
271
     1
  0
XRECORD
  5
295D
102
{ACAD_REACTORS
330
295C
102
}
330
295C
100
AcDbXrecord
280
     1
102
DISPLAYNAME
  1
Imperial24
102
FLAGS
 90
        0
  0
CELLSTYLEMAP
  5
2907
102
{ACAD_REACTORS
330
211C
102
}
330
211C
100
AcDbCellStyleMap
 90
        3
300
CELLSTYLE
  1
TABLEFORMAT_BEGIN
 90
        5
170
     1
 91
        0
 92
    32768
 62
   257
 93
        1
300
CONTENTFORMAT
  1
CONTENTFORMAT_BEGIN
 90
        0
 91
        0
 92
      512
 93
        0
300

 40
0.0
140
1.0
 94
        5
 62
     0
340
16
144
0.25
309
CONTENTFORMAT_END
171
     1
301
MARGIN
  1
CELLMARGIN_BEGIN
 40
0.06
 40
0.06
 40
0.06
 40
0.06
 40
0.18
 40
0.18
309
CELLMARGIN_END
 94
        6
 95
        1
302
GRIDFORMAT
  1
GRIDFORMAT_BEGIN
 90
        0
 91
        1
 62
     0
 92
       -2
340
0
 93
        0
 40
0.045
309
GRIDFORMAT_END
 95
        2
302
GRIDFORMAT
  1
GRIDFORMAT_BEGIN
 90
        0
 91
        1
 62
     0
 92
       -2
340
0
 93
        0
 40
0.045
309
GRIDFORMAT_END
 95
        4
302
GRIDFORMAT
  1
GRIDFORMAT_BEGIN
 90
        0
 91
        1
 62
     0
 92
       -2
340
0
 93
        0
 40
0.045
309
GRIDFORMAT_END
 95
        8
302
GRIDFORMAT
  1
GRIDFORMAT_BEGIN
 90
        0
 91
        1
 62
     0
 92
       -2
340
0
 93
        0
 40
0.045
309
GRIDFORMAT_END
 95
       16
302
GRIDFORMAT
  1
GRIDFORMAT_BEGIN
 90
        0
 91
        1
 62
     0
 92
       -2
340
0
 93
        0
 40
0.045
309
GRIDFORMAT_END
 95
       32
302
GRIDFORMAT
  1
GRIDFORMAT_BEGIN
 90
        0
 91
        1
 62
     0
 92
       -2
340
0
 93
        0
 40
0.045
309
GRIDFORMAT_END
309
TABLEFORMAT_END
  1
CELLSTYLE_BEGIN
 90
        1
 91
        1
300
_TITLE
309
CELLSTYLE_END
300
CELLSTYLE
  1
TABLEFORMAT_BEGIN
 90
        5
170
     1
 91
        0
 92
        0
 62
   257
 93
        1
300
CONTENTFORMAT
  1
CONTENTFORMAT_BEGIN
 90
        0
 91
        0
 92
      512
 93
        0
300

 40
0.0
140
1.0
 94
        5
 62
     0
340
16
144
0.18
309
CONTENTFORMAT_END
171
     1
301
MARGIN
  1
CELLMARGIN_BEGIN
 40
0.06
 40
0.06
 40
0.06
 40
0.06
 40
0.18
 40
0.18
309
CELLMARGIN_END
 94
        6
 95
        1
302
GRIDFORMAT
  1
GRIDFORMAT_BEGIN
 90
        0
 91
        1
 62
     0
 92
       -2
340
0
 93
        0
 40
0.045
309
GRIDFORMAT_END
 95
        2
302
GRIDFORMAT
  1
GRIDFORMAT_BEGIN
 90
        0
 91
        1
 62
     0
 92
       -2
340
0
 93
        0
 40
0.045
309
GRIDFORMAT_END
 95
        4
302
GRIDFORMAT
  1
GRIDFORMAT_BEGIN
 90
        0
 91
        1
 62
     0
 92
       -2
340
0
 93
        0
 40
0.045
309
GRIDFORMAT_END
 95
        8
302
GRIDFORMAT
  1
GRIDFORMAT_BEGIN
 90
        0
 91
        1
 62
     0
 92
       -2
340
0
 93
        0
 40
0.045
309
GRIDFORMAT_END
 95
       16
302
GRIDFORMAT
  1
GRIDFORMAT_BEGIN
 90
        0
 91
        1
 62
     0
 92
       -2
340
0
 93
        0
 40
0.045
309
GRIDFORMAT_END
 95
       32
302
GRIDFORMAT
  1
GRIDFORMAT_BEGIN
 90
        0
 91
        1
 62
     0
 92
       -2
340
0
 93
        0
 40
0.045
309
GRIDFORMAT_END
309
TABLEFORMAT_END
  1
CELLSTYLE_BEGIN
 90
        2
 91
        1
300
_HEADER
309
CELLSTYLE_END
300
CELLSTYLE
  1
TABLEFORMAT_BEGIN
 90
        5
170
     1
 91
        0
 92
        0
 62
   257
 93
        1
300
CONTENTFORMAT
  1
CONTENTFORMAT_BEGIN
 90
        0
 91
        0
 92
      512
 93
        0
300

 40
0.0
140
1.0
 94
        2
 62
     0
340
16
144
0.18
309
CONTENTFORMAT_END
171
     1
301
MARGIN
  1
CELLMARGIN_BEGIN
 40
0.06
 40
0.06
 40
0.06
 40
0.06
 40
0.18
 40
0.18
309
CELLMARGIN_END
 94
        6
 95
        1
302
GRIDFORMAT
  1
GRIDFORMAT_BEGIN
 90
        0
 91
        1
 62
     0
 92
       -2
340
0
 93
        0
 40
0.045
309
GRIDFORMAT_END
 95
        2
302
GRIDFORMAT
  1
GRIDFORMAT_BEGIN
 90
        0
 91
        1
 62
     0
 92
       -2
340
0
 93
        0
 40
0.045
309
GRIDFORMAT_END
 95
        4
302
GRIDFORMAT
  1
GRIDFORMAT_BEGIN
 90
        0
 91
        1
 62
     0
 92
       -2
340
0
 93
        0
 40
0.045
309
GRIDFORMAT_END
 95
        8
302
GRIDFORMAT
  1
GRIDFORMAT_BEGIN
 90
        0
 91
        1
 62
     0
 92
       -2
340
0
 93
        0
 40
0.045
309
GRIDFORMAT_END
 95
       16
302
GRIDFORMAT
  1
GRIDFORMAT_BEGIN
 90
        0
 91
        1
 62
     0
 92
       -2
340
0
 93
        0
 40
0.045
309
GRIDFORMAT_END
 95
       32
302
GRIDFORMAT
  1
GRIDFORMAT_BEGIN
 90
        0
 91
        1
 62
     0
 92
       -2
340
0
 93
        0
 40
0.045
309
GRIDFORMAT_END
309
TABLEFORMAT_END
  1
CELLSTYLE_BEGIN
 90
        3
 91
        2
300
_DATA
309
CELLSTYLE_END
  0
XRECORD
  5
2947
102
{ACAD_REACTORS
330
211C
102
}
330
211C
100
AcDbXrecord
280
     1
102
ACAD_ROUNDTRIP_PRE2007_TABLESTYLE
 90
      512
 91
        0
  1

 92
      512
 93
        0
  2

 94
      512
 95
        0
  3

  0
XRECORD
  5
2932
102
{ACAD_REACTORS
330
2931
102
}
330
2931
100
AcDbXrecord
280
     1
102
RTVSPost2010Prop28
280
     1
102
RTVSPost2010PropOp28
 70
     1
102
RTVSPost2010Prop29
280
     1
102
RTVSPost2010PropOp29
 70
     1
102
RTVSPost2010Prop30
280
     0
102
RTVSPost2010PropOp30
 70
     1
102
RTVSPost2010Prop31
280
     0
102
RTVSPost2010PropOp31
 70
     1
102
RTVSPost2010Prop32
280
     0
102
RTVSPost2010PropOp32
 70
     1
102
RTVSPost2010Prop33
280
     0
102
RTVSPost2010PropOp33
 70
     1
102
RTVSPost2010Prop34
280
     0
102
RTVSPost2010PropOp34
 70
     1
102
RTVSPost2010Prop35
280
     0
102
RTVSPost2010PropOp35
 70
     1
102
RTVSPost2010Prop36
280
     0
102
RTVSPost2010PropOp36
 70
     1
102
RTVSPost2010Prop37
 90
       50
102
RTVSPost2010PropOp37
 70
     1
102
RTVSPost2010Prop38
140
0.0
102
RTVSPost2010PropOp38
 70
     1
102
RTVSPost2010Prop39
140
1.0
102
RTVSPost2010PropOp39
 70
     1
102
RTVSPost2010Prop40
 90
        0
102
RTVSPost2010PropOp40
 70
     1
102
RTVSPost2010Prop41ColorIndex
 90
       18
102
RTVSPost2010Prop41ColorRGB
 90
        0
102
RTVSPost2010PropOp41
 70
     1
102
RTVSPost2010Prop42
 90
       50
102
RTVSPost2010PropOp42
 70
     1
102
RTVSPost2010Prop43
 90
        3
102
RTVSPost2010PropOp43
 70
     1
102
RTVSPost2010Prop44ColorIndex
 90
        5
102
RTVSPost2010Prop44ColorRGB
 90
      255
102
RTVSPost2010PropOp44
 70
     1
102
RTVSPost2010Prop45
280
     0
102
RTVSPost2010PropOp45
 70
     1
102
RTVSPost2010Prop46
 90
       50
102
RTVSPost2010PropOp46
 70
     1
102
RTVSPost2010Prop47
 90
       50
102
RTVSPost2010PropOp47
 70
     1
102
RTVSPost2010Prop48
 90
       50
102
RTVSPost2010PropOp48
 70
     1
102
RTVSPost2010Prop49
280
     0
102
RTVSPost2010PropOp49
 70
     1
102
RTVSPost2010Prop50
 90
       50
102
RTVSPost2010PropOp50
 70
     1
102
RTVSPost2010Prop51ColorIndex
 90
      256
102
RTVSPost2010Prop51ColorRGB
 90
-16777216
102
RTVSPost2010PropOp51
 70
     0
102
RTVSPost2010Prop52
140
1.0
102
RTVSPost2010PropOp52
 70
     0
102
RTVSPost2010Prop53
 90
        2
102
RTVSPost2010PropOp53
 70
     1
102
RTVSPost2010Prop54
  1
strokes_ogs.tif
102
RTVSPost2010PropOp54
 70
     1
102
RTVSPost2010Prop55
280
     0
102
RTVSPost2010PropOp55
 70
     1
102
RTVSPost2010Prop56
140
1.0
102
RTVSPost2010PropOp56
 70
     1
102
RTVSPost2010Prop57
140
1.0
102
RTVSPost2010PropOp57
 70
     1
102
RTVSPropertyOp0
 70
     1
102
RTVSPropertyOp1
 70
     1
102
RTVSPropertyOp2
 70
     1
102
RTVSPropertyOp3
 70
     1
102
RTVSPropertyOp4
 70
     1
102
RTVSPropertyOp5
 70
     1
102
RTVSPropertyOp6
 70
     1
102
RTVSPropertyOp7
 70
     1
102
RTVSPropertyOp8
 70
     1
102
RTVSPropertyOp9
 70
     1
102
RTVSPropertyOp10
 70
     1
102
RTVSPropertyOp11
 70
     1
102
RTVSPropertyOp12
 70
     1
102
RTVSPropertyOp13
 70
     1
102
RTVSPropertyOp14
 70
     1
102
RTVSPropertyOp15
 70
     1
102
RTVSPropertyOp16
 70
     1
102
RTVSPropertyOp17
 70
     1
102
RTVSPropertyOp18
 70
     1
102
RTVSPropertyOp19
 70
     1
102
RTVSPropertyOp20
 70
     1
102
RTVSPropertyOp21
 70
     1
102
RTVSPropertyOp22
 70
     1
102
RTVSPropertyOp23
 70
     1
102
RTVSPropertyOp24
 70
     1
102
RTVSPropertyOp25
 70
     1
102
RTVSPropertyOp26
 70
     1
102
RTVSPropertyOp27
 70
     1
102
RTVSPropertyOp28
 70
     1
102
RTVSPropertyOp29
 70
     1
102
RTVSPropertyOp30
 70
     1
102
RTVSPropertyOp31
 70
     1
102
RTVSPropertyOp32
 70
     1
102
RTVSPropertyOp33
 70
     1
102
RTVSPropertyOp34
 70
     1
102
RTVSPropertyOp35
 70
     1
102
RTVSPropertyOp36
 70
     1
102
RTVSPropertyOp37
 70
     1
102
RTVSPropertyOp38
 70
     1
102
RTVSPropertyOp39
 70
     1
102
RTVSPropertyOp40
 70
     1
102
RTVSPropertyOp41
 70
     1
102
RTVSPropertyOp42
 70
     1
102
RTVSPropertyOp43
 70
     1
102
RTVSPropertyOp44
 70
     1
102
RTVSPropertyOp45
 70
     1
102
RTVSPropertyOp46
 70
     1
102
RTVSPropertyOp47
 70
     1
102
RTVSPropertyOp48
 70
     1
102
RTVSPropertyOp49
 70
     1
102
RTVSPropertyOp50
 70
     1
102
RTVSPropertyOp51
 70
     0
102
RTVSPropertyOp52
 70
     0
102
RTVSPropertyOp53
 70
     1
102
RTVSPropertyOp54
 70
     1
102
RTVSPropertyOp55
 70
     1
102
RTVSPropertyOp56
 70
     1
102
RTVSPropertyOp57
 70
     1
102
RTVSPropertyOp58
 70
     1
102
RTVSPropertyOp59
 70
     1
102
RTVSPropertyOp60
 70
     1
102
RTVSPropertyOp61
 70
     1
102
RTVSPropertyOp62
 70
     1
  0
XRECORD
  5
2936
102
{ACAD_REACTORS
330
2935
102
}
330
2935
100
AcDbXrecord
280
     1
102
RTVSPost2010Prop28
280
     0
102
RTVSPost2010PropOp28
 70
     1
102
RTVSPost2010Prop29
280
     1
102
RTVSPost2010PropOp29
 70
     1
102
RTVSPost2010Prop30
280
     1
102
RTVSPost2010PropOp30
 70
     1
102
RTVSPost2010Prop31
280
     0
102
RTVSPost2010PropOp31
 70
     1
102
RTVSPost2010Prop32
280
     0
102
RTVSPost2010PropOp32
 70
     1
102
RTVSPost2010Prop33
280
     0
102
RTVSPost2010PropOp33
 70
     1
102
RTVSPost2010Prop34
280
     0
102
RTVSPost2010PropOp34
 70
     1
102
RTVSPost2010Prop35
280
     0
102
RTVSPost2010PropOp35
 70
     1
102
RTVSPost2010Prop36
280
     0
102
RTVSPost2010PropOp36
 70
     1
102
RTVSPost2010Prop37
 90
       50
102
RTVSPost2010PropOp37
 70
     1
102
RTVSPost2010Prop38
140
0.0
102
RTVSPost2010PropOp38
 70
     1
102
RTVSPost2010Prop39
140
1.0
102
RTVSPost2010PropOp39
 70
     1
102
RTVSPost2010Prop40
 90
        0
102
RTVSPost2010PropOp40
 70
     1
102
RTVSPost2010Prop41ColorIndex
 90
       18
102
RTVSPost2010Prop41ColorRGB
 90
        0
102
RTVSPost2010PropOp41
 70
     1
102
RTVSPost2010Prop42
 90
       50
102
RTVSPost2010PropOp42
 70
     1
102
RTVSPost2010Prop43
 90
        3
102
RTVSPost2010PropOp43
 70
     1
102
RTVSPost2010Prop44ColorIndex
 90
        5
102
RTVSPost2010Prop44ColorRGB
 90
      255
102
RTVSPost2010PropOp44
 70
     1
102
RTVSPost2010Prop45
280
     0
102
RTVSPost2010PropOp45
 70
     1
102
RTVSPost2010Prop46
 90
       50
102
RTVSPost2010PropOp46
 70
     1
102
RTVSPost2010Prop47
 90
       50
102
RTVSPost2010PropOp47
 70
     1
102
RTVSPost2010Prop48
 90
       50
102
RTVSPost2010PropOp48
 70
     1
102
RTVSPost2010Prop49
280
     0
102
RTVSPost2010PropOp49
 70
     1
102
RTVSPost2010Prop50
 90
       50
102
RTVSPost2010PropOp50
 70
     1
102
RTVSPost2010Prop51ColorIndex
 90
      256
102
RTVSPost2010Prop51ColorRGB
 90
-16777216
102
RTVSPost2010PropOp51
 70
     0
102
RTVSPost2010Prop52
140
1.0
102
RTVSPost2010PropOp52
 70
     0
102
RTVSPost2010Prop53
 90
        2
102
RTVSPost2010PropOp53
 70
     1
102
RTVSPost2010Prop54
  1
strokes_ogs.tif
102
RTVSPost2010PropOp54
 70
     1
102
RTVSPost2010Prop55
280
     0
102
RTVSPost2010PropOp55
 70
     1
102
RTVSPost2010Prop56
140
1.0
102
RTVSPost2010PropOp56
 70
     1
102
RTVSPost2010Prop57
140
1.0
102
RTVSPost2010PropOp57
 70
     1
102
RTVSPropertyOp0
 70
     1
102
RTVSPropertyOp1
 70
     1
102
RTVSPropertyOp2
 70
     1
102
RTVSPropertyOp3
 70
     1
102
RTVSPropertyOp4
 70
     1
102
RTVSPropertyOp5
 70
     1
102
RTVSPropertyOp6
 70
     1
102
RTVSPropertyOp7
 70
     1
102
RTVSPropertyOp8
 70
     1
102
RTVSPropertyOp9
 70
     1
102
RTVSPropertyOp10
 70
     1
102
RTVSPropertyOp11
 70
     1
102
RTVSPropertyOp12
 70
     1
102
RTVSPropertyOp13
 70
     1
102
RTVSPropertyOp14
 70
     1
102
RTVSPropertyOp15
 70
     1
102
RTVSPropertyOp16
 70
     1
102
RTVSPropertyOp17
 70
     1
102
RTVSPropertyOp18
 70
     1
102
RTVSPropertyOp19
 70
     1
102
RTVSPropertyOp20
 70
     1
102
RTVSPropertyOp21
 70
     1
102
RTVSPropertyOp22
 70
     1
102
RTVSPropertyOp23
 70
     1
102
RTVSPropertyOp24
 70
     1
102
RTVSPropertyOp25
 70
     1
102
RTVSPropertyOp26
 70
     1
102
RTVSPropertyOp27
 70
     1
102
RTVSPropertyOp28
 70
     1
102
RTVSPropertyOp29
 70
     1
102
RTVSPropertyOp30
 70
     1
102
RTVSPropertyOp31
 70
     1
102
RTVSPropertyOp32
 70
     1
102
RTVSPropertyOp33
 70
     1
102
RTVSPropertyOp34
 70
     1
102
RTVSPropertyOp35
 70
     1
102
RTVSPropertyOp36
 70
     1
102
RTVSPropertyOp37
 70
     1
102
RTVSPropertyOp38
 70
     1
102
RTVSPropertyOp39
 70
     1
102
RTVSPropertyOp40
 70
     1
102
RTVSPropertyOp41
 70
     1
102
RTVSPropertyOp42
 70
     1
102
RTVSPropertyOp43
 70
     1
102
RTVSPropertyOp44
 70
     1
102
RTVSPropertyOp45
 70
     1
102
RTVSPropertyOp46
 70
     1
102
RTVSPropertyOp47
 70
     1
102
RTVSPropertyOp48
 70
     1
102
RTVSPropertyOp49
 70
     1
102
RTVSPropertyOp50
 70
     1
102
RTVSPropertyOp51
 70
     0
102
RTVSPropertyOp52
 70
     0
102
RTVSPropertyOp53
 70
     1
102
RTVSPropertyOp54
 70
     1
102
RTVSPropertyOp55
 70
     1
102
RTVSPropertyOp56
 70
     1
102
RTVSPropertyOp57
 70
     1
102
RTVSPropertyOp58
 70
     1
102
RTVSPropertyOp59
 70
     1
102
RTVSPropertyOp60
 70
     1
102
RTVSPropertyOp61
 70
     1
102
RTVSPropertyOp62
 70
     1
  0
XRECORD
  5
2934
102
{ACAD_REACTORS
330
2933
102
}
330
2933
100
AcDbXrecord
280
     1
102
RTVSPost2010Prop28
280
     0
102
RTVSPost2010PropOp28
 70
     1
102
RTVSPost2010Prop29
280
     1
102
RTVSPost2010PropOp29
 70
     1
102
RTVSPost2010Prop30
280
     1
102
RTVSPost2010PropOp30
 70
     1
102
RTVSPost2010Prop31
280
     0
102
RTVSPost2010PropOp31
 70
     1
102
RTVSPost2010Prop32
280
     0
102
RTVSPost2010PropOp32
 70
     1
102
RTVSPost2010Prop33
280
     0
102
RTVSPost2010PropOp33
 70
     1
102
RTVSPost2010Prop34
280
     0
102
RTVSPost2010PropOp34
 70
     1
102
RTVSPost2010Prop35
280
     0
102
RTVSPost2010PropOp35
 70
     1
102
RTVSPost2010Prop36
280
     0
102
RTVSPost2010PropOp36
 70
     1
102
RTVSPost2010Prop37
 90
       50
102
RTVSPost2010PropOp37
 70
     1
102
RTVSPost2010Prop38
140
0.0
102
RTVSPost2010PropOp38
 70
     1
102
RTVSPost2010Prop39
140
1.0
102
RTVSPost2010PropOp39
 70
     1
102
RTVSPost2010Prop40
 90
        0
102
RTVSPost2010PropOp40
 70
     1
102
RTVSPost2010Prop41ColorIndex
 90
       18
102
RTVSPost2010Prop41ColorRGB
 90
        0
102
RTVSPost2010PropOp41
 70
     1
102
RTVSPost2010Prop42
 90
       50
102
RTVSPost2010PropOp42
 70
     1
102
RTVSPost2010Prop43
 90
        3
102
RTVSPost2010PropOp43
 70
     1
102
RTVSPost2010Prop44ColorIndex
 90
        5
102
RTVSPost2010Prop44ColorRGB
 90
      255
102
RTVSPost2010PropOp44
 70
     1
102
RTVSPost2010Prop45
280
     0
102
RTVSPost2010PropOp45
 70
     1
102
RTVSPost2010Prop46
 90
       50
102
RTVSPost2010PropOp46
 70
     1
102
RTVSPost2010Prop47
 90
       50
102
RTVSPost2010PropOp47
 70
     1
102
RTVSPost2010Prop48
 90
       50
102
RTVSPost2010PropOp48
 70
     1
102
RTVSPost2010Prop49
280
     0
102
RTVSPost2010PropOp49
 70
     1
102
RTVSPost2010Prop50
 90
       50
102
RTVSPost2010PropOp50
 70
     1
102
RTVSPost2010Prop51ColorIndex
 90
      256
102
RTVSPost2010Prop51ColorRGB
 90
-16777216
102
RTVSPost2010PropOp51
 70
     0
102
RTVSPost2010Prop52
140
1.0
102
RTVSPost2010PropOp52
 70
     0
102
RTVSPost2010Prop53
 90
        2
102
RTVSPost2010PropOp53
 70
     1
102
RTVSPost2010Prop54
  1
strokes_ogs.tif
102
RTVSPost2010PropOp54
 70
     1
102
RTVSPost2010Prop55
280
     0
102
RTVSPost2010PropOp55
 70
     1
102
RTVSPost2010Prop56
140
1.0
102
RTVSPost2010PropOp56
 70
     1
102
RTVSPost2010Prop57
140
1.0
102
RTVSPost2010PropOp57
 70
     1
102
RTVSPropertyOp0
 70
     1
102
RTVSPropertyOp1
 70
     1
102
RTVSPropertyOp2
 70
     1
102
RTVSPropertyOp3
 70
     1
102
RTVSPropertyOp4
 70
     1
102
RTVSPropertyOp5
 70
     1
102
RTVSPropertyOp6
 70
     1
102
RTVSPropertyOp7
 70
     1
102
RTVSPropertyOp8
 70
     1
102
RTVSPropertyOp9
 70
     1
102
RTVSPropertyOp10
 70
     1
102
RTVSPropertyOp11
 70
     1
102
RTVSPropertyOp12
 70
     1
102
RTVSPropertyOp13
 70
     1
102
RTVSPropertyOp14
 70
     1
102
RTVSPropertyOp15
 70
     1
102
RTVSPropertyOp16
 70
     1
102
RTVSPropertyOp17
 70
     1
102
RTVSPropertyOp18
 70
     1
102
RTVSPropertyOp19
 70
     1
102
RTVSPropertyOp20
 70
     1
102
RTVSPropertyOp21
 70
     1
102
RTVSPropertyOp22
 70
     1
102
RTVSPropertyOp23
 70
     1
102
RTVSPropertyOp24
 70
     1
102
RTVSPropertyOp25
 70
     1
102
RTVSPropertyOp26
 70
     1
102
RTVSPropertyOp27
 70
     1
102
RTVSPropertyOp28
 70
     1
102
RTVSPropertyOp29
 70
     1
102
RTVSPropertyOp30
 70
     1
102
RTVSPropertyOp31
 70
     1
102
RTVSPropertyOp32
 70
     1
102
RTVSPropertyOp33
 70
     1
102
RTVSPropertyOp34
 70
     1
102
RTVSPropertyOp35
 70
     1
102
RTVSPropertyOp36
 70
     1
102
RTVSPropertyOp37
 70
     1
102
RTVSPropertyOp38
 70
     1
102
RTVSPropertyOp39
 70
     1
102
RTVSPropertyOp40
 70
     1
102
RTVSPropertyOp41
 70
     1
102
RTVSPropertyOp42
 70
     1
102
RTVSPropertyOp43
 70
     1
102
RTVSPropertyOp44
 70
     1
102
RTVSPropertyOp45
 70
     1
102
RTVSPropertyOp46
 70
     1
102
RTVSPropertyOp47
 70
     1
102
RTVSPropertyOp48
 70
     1
102
RTVSPropertyOp49
 70
     1
102
RTVSPropertyOp50
 70
     1
102
RTVSPropertyOp51
 70
     0
102
RTVSPropertyOp52
 70
     0
102
RTVSPropertyOp53
 70
     1
102
RTVSPropertyOp54
 70
     1
102
RTVSPropertyOp55
 70
     1
102
RTVSPropertyOp56
 70
     1
102
RTVSPropertyOp57
 70
     1
102
RTVSPropertyOp58
 70
     1
102
RTVSPropertyOp59
 70
     1
102
RTVSPropertyOp60
 70
     1
102
RTVSPropertyOp61
 70
     1
102
RTVSPropertyOp62
 70
     1
  0
XRECORD
  5
2930
102
{ACAD_REACTORS
330
292F
102
}
330
292F
100
AcDbXrecord
280
     1
102
RTVSPost2010Prop28
280
     0
102
RTVSPost2010PropOp28
 70
     1
102
RTVSPost2010Prop29
280
     1
102
RTVSPost2010PropOp29
 70
     1
102
RTVSPost2010Prop30
280
     1
102
RTVSPost2010PropOp30
 70
     1
102
RTVSPost2010Prop31
280
     0
102
RTVSPost2010PropOp31
 70
     1
102
RTVSPost2010Prop32
280
     0
102
RTVSPost2010PropOp32
 70
     1
102
RTVSPost2010Prop33
280
     0
102
RTVSPost2010PropOp33
 70
     1
102
RTVSPost2010Prop34
280
     0
102
RTVSPost2010PropOp34
 70
     1
102
RTVSPost2010Prop35
280
     0
102
RTVSPost2010PropOp35
 70
     1
102
RTVSPost2010Prop36
280
     0
102
RTVSPost2010PropOp36
 70
     1
102
RTVSPost2010Prop37
 90
       50
102
RTVSPost2010PropOp37
 70
     1
102
RTVSPost2010Prop38
140
0.0
102
RTVSPost2010PropOp38
 70
     1
102
RTVSPost2010Prop39
140
1.0
102
RTVSPost2010PropOp39
 70
     1
102
RTVSPost2010Prop40
 90
        0
102
RTVSPost2010PropOp40
 70
     1
102
RTVSPost2010Prop41ColorIndex
 90
       18
102
RTVSPost2010Prop41ColorRGB
 90
        0
102
RTVSPost2010PropOp41
 70
     1
102
RTVSPost2010Prop42
 90
       50
102
RTVSPost2010PropOp42
 70
     1
102
RTVSPost2010Prop43
 90
        3
102
RTVSPost2010PropOp43
 70
     1
102
RTVSPost2010Prop44ColorIndex
 90
        5
102
RTVSPost2010Prop44ColorRGB
 90
      255
102
RTVSPost2010PropOp44
 70
     1
102
RTVSPost2010Prop45
280
     0
102
RTVSPost2010PropOp45
 70
     1
102
RTVSPost2010Prop46
 90
       50
102
RTVSPost2010PropOp46
 70
     1
102
RTVSPost2010Prop47
 90
       50
102
RTVSPost2010PropOp47
 70
     1
102
RTVSPost2010Prop48
 90
       50
102
RTVSPost2010PropOp48
 70
     1
102
RTVSPost2010Prop49
280
     0
102
RTVSPost2010PropOp49
 70
     1
102
RTVSPost2010Prop50
 90
       50
102
RTVSPost2010PropOp50
 70
     1
102
RTVSPost2010Prop51ColorIndex
 90
      256
102
RTVSPost2010Prop51ColorRGB
 90
-16777216
102
RTVSPost2010PropOp51
 70
     0
102
RTVSPost2010Prop52
140
1.0
102
RTVSPost2010PropOp52
 70
     0
102
RTVSPost2010Prop53
 90
        2
102
RTVSPost2010PropOp53
 70
     1
102
RTVSPost2010Prop54
  1
strokes_ogs.tif
102
RTVSPost2010PropOp54
 70
     1
102
RTVSPost2010Prop55
280
     0
102
RTVSPost2010PropOp55
 70
     1
102
RTVSPost2010Prop56
140
1.0
102
RTVSPost2010PropOp56
 70
     1
102
RTVSPost2010Prop57
140
1.0
102
RTVSPost2010PropOp57
 70
     1
102
RTVSPropertyOp0
 70
     1
102
RTVSPropertyOp1
 70
     1
102
RTVSPropertyOp2
 70
     1
102
RTVSPropertyOp3
 70
     1
102
RTVSPropertyOp4
 70
     1
102
RTVSPropertyOp5
 70
     1
102
RTVSPropertyOp6
 70
     1
102
RTVSPropertyOp7
 70
     1
102
RTVSPropertyOp8
 70
     1
102
RTVSPropertyOp9
 70
     1
102
RTVSPropertyOp10
 70
     1
102
RTVSPropertyOp11
 70
     1
102
RTVSPropertyOp12
 70
     1
102
RTVSPropertyOp13
 70
     1
102
RTVSPropertyOp14
 70
     1
102
RTVSPropertyOp15
 70
     1
102
RTVSPropertyOp16
 70
     1
102
RTVSPropertyOp17
 70
     1
102
RTVSPropertyOp18
 70
     1
102
RTVSPropertyOp19
 70
     1
102
RTVSPropertyOp20
 70
     1
102
RTVSPropertyOp21
 70
     1
102
RTVSPropertyOp22
 70
     1
102
RTVSPropertyOp23
 70
     1
102
RTVSPropertyOp24
 70
     1
102
RTVSPropertyOp25
 70
     1
102
RTVSPropertyOp26
 70
     1
102
RTVSPropertyOp27
 70
     1
102
RTVSPropertyOp28
 70
     1
102
RTVSPropertyOp29
 70
     1
102
RTVSPropertyOp30
 70
     1
102
RTVSPropertyOp31
 70
     1
102
RTVSPropertyOp32
 70
     1
102
RTVSPropertyOp33
 70
     1
102
RTVSPropertyOp34
 70
     1
102
RTVSPropertyOp35
 70
     1
102
RTVSPropertyOp36
 70
     1
102
RTVSPropertyOp37
 70
     1
102
RTVSPropertyOp38
 70
     1
102
RTVSPropertyOp39
 70
     1
102
RTVSPropertyOp40
 70
     1
102
RTVSPropertyOp41
 70
     1
102
RTVSPropertyOp42
 70
     1
102
RTVSPropertyOp43
 70
     1
102
RTVSPropertyOp44
 70
     1
102
RTVSPropertyOp45
 70
     1
102
RTVSPropertyOp46
 70
     1
102
RTVSPropertyOp47
 70
     1
102
RTVSPropertyOp48
 70
     1
102
RTVSPropertyOp49
 70
     1
102
RTVSPropertyOp50
 70
     1
102
RTVSPropertyOp51
 70
     0
102
RTVSPropertyOp52
 70
     0
102
RTVSPropertyOp53
 70
     1
102
RTVSPropertyOp54
 70
     1
102
RTVSPropertyOp55
 70
     1
102
RTVSPropertyOp56
 70
     1
102
RTVSPropertyOp57
 70
     1
102
RTVSPropertyOp58
 70
     1
102
RTVSPropertyOp59
 70
     1
102
RTVSPropertyOp60
 70
     1
102
RTVSPropertyOp61
 70
     1
102
RTVSPropertyOp62
 70
     1
  0
XRECORD
  5
293E
102
{ACAD_REACTORS
330
293D
102
}
330
293D
100
AcDbXrecord
280
     1
102
RTVSPost2010Prop28
280
     0
102
RTVSPost2010PropOp28
 70
     1
102
RTVSPost2010Prop29
280
     1
102
RTVSPost2010PropOp29
 70
     1
102
RTVSPost2010Prop30
280
     1
102
RTVSPost2010PropOp30
 70
     1
102
RTVSPost2010Prop31
280
     0
102
RTVSPost2010PropOp31
 70
     1
102
RTVSPost2010Prop32
280
     0
102
RTVSPost2010PropOp32
 70
     1
102
RTVSPost2010Prop33
280
     0
102
RTVSPost2010PropOp33
 70
     1
102
RTVSPost2010Prop34
280
     0
102
RTVSPost2010PropOp34
 70
     1
102
RTVSPost2010Prop35
280
     0
102
RTVSPost2010PropOp35
 70
     1
102
RTVSPost2010Prop36
280
     0
102
RTVSPost2010PropOp36
 70
     1
102
RTVSPost2010Prop37
 90
       50
102
RTVSPost2010PropOp37
 70
     1
102
RTVSPost2010Prop38
140
0.0
102
RTVSPost2010PropOp38
 70
     1
102
RTVSPost2010Prop39
140
1.0
102
RTVSPost2010PropOp39
 70
     1
102
RTVSPost2010Prop40
 90
        0
102
RTVSPost2010PropOp40
 70
     1
102
RTVSPost2010Prop41ColorIndex
 90
       18
102
RTVSPost2010Prop41ColorRGB
 90
        0
102
RTVSPost2010PropOp41
 70
     1
102
RTVSPost2010Prop42
 90
       50
102
RTVSPost2010PropOp42
 70
     1
102
RTVSPost2010Prop43
 90
        3
102
RTVSPost2010PropOp43
 70
     1
102
RTVSPost2010Prop44ColorIndex
 90
        5
102
RTVSPost2010Prop44ColorRGB
 90
      255
102
RTVSPost2010PropOp44
 70
     1
102
RTVSPost2010Prop45
280
     0
102
RTVSPost2010PropOp45
 70
     1
102
RTVSPost2010Prop46
 90
       50
102
RTVSPost2010PropOp46
 70
     1
102
RTVSPost2010Prop47
 90
       50
102
RTVSPost2010PropOp47
 70
     1
102
RTVSPost2010Prop48
 90
       50
102
RTVSPost2010PropOp48
 70
     1
102
RTVSPost2010Prop49
280
     0
102
RTVSPost2010PropOp49
 70
     1
102
RTVSPost2010Prop50
 90
       50
102
RTVSPost2010PropOp50
 70
     1
102
RTVSPost2010Prop51ColorIndex
 90
      256
102
RTVSPost2010Prop51ColorRGB
 90
-16777216
102
RTVSPost2010PropOp51
 70
     0
102
RTVSPost2010Prop52
140
1.0
102
RTVSPost2010PropOp52
 70
     0
102
RTVSPost2010Prop53
 90
        2
102
RTVSPost2010PropOp53
 70
     1
102
RTVSPost2010Prop54
  1
strokes_ogs.tif
102
RTVSPost2010PropOp54
 70
     1
102
RTVSPost2010Prop55
280
     0
102
RTVSPost2010PropOp55
 70
     1
102
RTVSPost2010Prop56
140
1.0
102
RTVSPost2010PropOp56
 70
     1
102
RTVSPost2010Prop57
140
1.0
102
RTVSPost2010PropOp57
 70
     1
102
RTVSPropertyOp0
 70
     1
102
RTVSPropertyOp1
 70
     1
102
RTVSPropertyOp2
 70
     1
102
RTVSPropertyOp3
 70
     1
102
RTVSPropertyOp4
 70
     1
102
RTVSPropertyOp5
 70
     1
102
RTVSPropertyOp6
 70
     1
102
RTVSPropertyOp7
 70
     1
102
RTVSPropertyOp8
 70
     1
102
RTVSPropertyOp9
 70
     1
102
RTVSPropertyOp10
 70
     1
102
RTVSPropertyOp11
 70
     1
102
RTVSPropertyOp12
 70
     1
102
RTVSPropertyOp13
 70
     1
102
RTVSPropertyOp14
 70
     1
102
RTVSPropertyOp15
 70
     1
102
RTVSPropertyOp16
 70
     1
102
RTVSPropertyOp17
 70
     1
102
RTVSPropertyOp18
 70
     1
102
RTVSPropertyOp19
 70
     1
102
RTVSPropertyOp20
 70
     1
102
RTVSPropertyOp21
 70
     1
102
RTVSPropertyOp22
 70
     1
102
RTVSPropertyOp23
 70
     1
102
RTVSPropertyOp24
 70
     1
102
RTVSPropertyOp25
 70
     1
102
RTVSPropertyOp26
 70
     1
102
RTVSPropertyOp27
 70
     1
102
RTVSPropertyOp28
 70
     1
102
RTVSPropertyOp29
 70
     1
102
RTVSPropertyOp30
 70
     1
102
RTVSPropertyOp31
 70
     1
102
RTVSPropertyOp32
 70
     1
102
RTVSPropertyOp33
 70
     1
102
RTVSPropertyOp34
 70
     1
102
RTVSPropertyOp35
 70
     1
102
RTVSPropertyOp36
 70
     1
102
RTVSPropertyOp37
 70
     1
102
RTVSPropertyOp38
 70
     1
102
RTVSPropertyOp39
 70
     1
102
RTVSPropertyOp40
 70
     1
102
RTVSPropertyOp41
 70
     1
102
RTVSPropertyOp42
 70
     1
102
RTVSPropertyOp43
 70
     1
102
RTVSPropertyOp44
 70
     1
102
RTVSPropertyOp45
 70
     1
102
RTVSPropertyOp46
 70
     1
102
RTVSPropertyOp47
 70
     1
102
RTVSPropertyOp48
 70
     1
102
RTVSPropertyOp49
 70
     1
102
RTVSPropertyOp50
 70
     1
102
RTVSPropertyOp51
 70
     0
102
RTVSPropertyOp52
 70
     0
102
RTVSPropertyOp53
 70
     1
102
RTVSPropertyOp54
 70
     1
102
RTVSPropertyOp55
 70
     1
102
RTVSPropertyOp56
 70
     1
102
RTVSPropertyOp57
 70
     1
102
RTVSPropertyOp58
 70
     1
102
RTVSPropertyOp59
 70
     1
102
RTVSPropertyOp60
 70
     1
102
RTVSPropertyOp61
 70
     1
102
RTVSPropertyOp62
 70
     1
  0
XRECORD
  5
2946
102
{ACAD_REACTORS
330
2945
102
}
330
2945
100
AcDbXrecord
280
     1
102
RTVSPost2010Prop28
280
     0
102
RTVSPost2010PropOp28
 70
     1
102
RTVSPost2010Prop29
280
     1
102
RTVSPost2010PropOp29
 70
     1
102
RTVSPost2010Prop30
280
     1
102
RTVSPost2010PropOp30
 70
     1
102
RTVSPost2010Prop31
280
     0
102
RTVSPost2010PropOp31
 70
     1
102
RTVSPost2010Prop32
280
     0
102
RTVSPost2010PropOp32
 70
     1
102
RTVSPost2010Prop33
280
     0
102
RTVSPost2010PropOp33
 70
     1
102
RTVSPost2010Prop34
280
     0
102
RTVSPost2010PropOp34
 70
     1
102
RTVSPost2010Prop35
280
     0
102
RTVSPost2010PropOp35
 70
     1
102
RTVSPost2010Prop36
280
     0
102
RTVSPost2010PropOp36
 70
     1
102
RTVSPost2010Prop37
 90
       50
102
RTVSPost2010PropOp37
 70
     1
102
RTVSPost2010Prop38
140
0.0
102
RTVSPost2010PropOp38
 70
     1
102
RTVSPost2010Prop39
140
1.0
102
RTVSPost2010PropOp39
 70
     1
102
RTVSPost2010Prop40
 90
        0
102
RTVSPost2010PropOp40
 70
     1
102
RTVSPost2010Prop41ColorIndex
 90
       18
102
RTVSPost2010Prop41ColorRGB
 90
        0
102
RTVSPost2010PropOp41
 70
     1
102
RTVSPost2010Prop42
 90
       50
102
RTVSPost2010PropOp42
 70
     1
102
RTVSPost2010Prop43
 90
        3
102
RTVSPost2010PropOp43
 70
     1
102
RTVSPost2010Prop44ColorIndex
 90
        5
102
RTVSPost2010Prop44ColorRGB
 90
      255
102
RTVSPost2010PropOp44
 70
     1
102
RTVSPost2010Prop45
280
     0
102
RTVSPost2010PropOp45
 70
     1
102
RTVSPost2010Prop46
 90
       50
102
RTVSPost2010PropOp46
 70
     1
102
RTVSPost2010Prop47
 90
       50
102
RTVSPost2010PropOp47
 70
     1
102
RTVSPost2010Prop48
 90
       50
102
RTVSPost2010PropOp48
 70
     1
102
RTVSPost2010Prop49
280
     0
102
RTVSPost2010PropOp49
 70
     1
102
RTVSPost2010Prop50
 90
       50
102
RTVSPost2010PropOp50
 70
     1
102
RTVSPost2010Prop51ColorIndex
 90
      256
102
RTVSPost2010Prop51ColorRGB
 90
-16777216
102
RTVSPost2010PropOp51
 70
     0
102
RTVSPost2010Prop52
140
1.0
102
RTVSPost2010PropOp52
 70
     0
102
RTVSPost2010Prop53
 90
        2
102
RTVSPost2010PropOp53
 70
     1
102
RTVSPost2010Prop54
  1
strokes_ogs.tif
102
RTVSPost2010PropOp54
 70
     1
102
RTVSPost2010Prop55
280
     0
102
RTVSPost2010PropOp55
 70
     1
102
RTVSPost2010Prop56
140
1.0
102
RTVSPost2010PropOp56
 70
     1
102
RTVSPost2010Prop57
140
1.0
102
RTVSPost2010PropOp57
 70
     1
102
RTVSPropertyOp0
 70
     1
102
RTVSPropertyOp1
 70
     1
102
RTVSPropertyOp2
 70
     1
102
RTVSPropertyOp3
 70
     1
102
RTVSPropertyOp4
 70
     1
102
RTVSPropertyOp5
 70
     1
102
RTVSPropertyOp6
 70
     1
102
RTVSPropertyOp7
 70
     1
102
RTVSPropertyOp8
 70
     1
102
RTVSPropertyOp9
 70
     1
102
RTVSPropertyOp10
 70
     1
102
RTVSPropertyOp11
 70
     1
102
RTVSPropertyOp12
 70
     1
102
RTVSPropertyOp13
 70
     1
102
RTVSPropertyOp14
 70
     1
102
RTVSPropertyOp15
 70
     1
102
RTVSPropertyOp16
 70
     1
102
RTVSPropertyOp17
 70
     1
102
RTVSPropertyOp18
 70
     1
102
RTVSPropertyOp19
 70
     1
102
RTVSPropertyOp20
 70
     1
102
RTVSPropertyOp21
 70
     1
102
RTVSPropertyOp22
 70
     1
102
RTVSPropertyOp23
 70
     1
102
RTVSPropertyOp24
 70
     1
102
RTVSPropertyOp25
 70
     1
102
RTVSPropertyOp26
 70
     1
102
RTVSPropertyOp27
 70
     1
102
RTVSPropertyOp28
 70
     1
102
RTVSPropertyOp29
 70
     1
102
RTVSPropertyOp30
 70
     1
102
RTVSPropertyOp31
 70
     1
102
RTVSPropertyOp32
 70
     1
102
RTVSPropertyOp33
 70
     1
102
RTVSPropertyOp34
 70
     1
102
RTVSPropertyOp35
 70
     1
102
RTVSPropertyOp36
 70
     1
102
RTVSPropertyOp37
 70
     1
102
RTVSPropertyOp38
 70
     1
102
RTVSPropertyOp39
 70
     1
102
RTVSPropertyOp40
 70
     1
102
RTVSPropertyOp41
 70
     1
102
RTVSPropertyOp42
 70
     1
102
RTVSPropertyOp43
 70
     1
102
RTVSPropertyOp44
 70
     1
102
RTVSPropertyOp45
 70
     1
102
RTVSPropertyOp46
 70
     1
102
RTVSPropertyOp47
 70
     1
102
RTVSPropertyOp48
 70
     1
102
RTVSPropertyOp49
 70
     1
102
RTVSPropertyOp50
 70
     1
102
RTVSPropertyOp51
 70
     0
102
RTVSPropertyOp52
 70
     0
102
RTVSPropertyOp53
 70
     1
102
RTVSPropertyOp54
 70
     1
102
RTVSPropertyOp55
 70
     1
102
RTVSPropertyOp56
 70
     1
102
RTVSPropertyOp57
 70
     1
102
RTVSPropertyOp58
 70
     1
102
RTVSPropertyOp59
 70
     1
102
RTVSPropertyOp60
 70
     1
102
RTVSPropertyOp61
 70
     1
102
RTVSPropertyOp62
 70
     1
  0
XRECORD
  5
2938
102
{ACAD_REACTORS
330
2937
102
}
330
2937
100
AcDbXrecord
280
     1
102
RTVSPost2010Prop28
280
     0
102
RTVSPost2010PropOp28
 70
     1
102
RTVSPost2010Prop29
280
     1
102
RTVSPost2010PropOp29
 70
     1
102
RTVSPost2010Prop30
280
     1
102
RTVSPost2010PropOp30
 70
     1
102
RTVSPost2010Prop31
280
     0
102
RTVSPost2010PropOp31
 70
     1
102
RTVSPost2010Prop32
280
     0
102
RTVSPost2010PropOp32
 70
     1
102
RTVSPost2010Prop33
280
     0
102
RTVSPost2010PropOp33
 70
     1
102
RTVSPost2010Prop34
280
     0
102
RTVSPost2010PropOp34
 70
     1
102
RTVSPost2010Prop35
280
     0
102
RTVSPost2010PropOp35
 70
     1
102
RTVSPost2010Prop36
280
     0
102
RTVSPost2010PropOp36
 70
     1
102
RTVSPost2010Prop37
 90
       50
102
RTVSPost2010PropOp37
 70
     1
102
RTVSPost2010Prop38
140
0.0
102
RTVSPost2010PropOp38
 70
     1
102
RTVSPost2010Prop39
140
1.0
102
RTVSPost2010PropOp39
 70
     1
102
RTVSPost2010Prop40
 90
        0
102
RTVSPost2010PropOp40
 70
     1
102
RTVSPost2010Prop41ColorIndex
 90
       18
102
RTVSPost2010Prop41ColorRGB
 90
        0
102
RTVSPost2010PropOp41
 70
     1
102
RTVSPost2010Prop42
 90
       50
102
RTVSPost2010PropOp42
 70
     1
102
RTVSPost2010Prop43
 90
        3
102
RTVSPost2010PropOp43
 70
     1
102
RTVSPost2010Prop44ColorIndex
 90
        5
102
RTVSPost2010Prop44ColorRGB
 90
      255
102
RTVSPost2010PropOp44
 70
     1
102
RTVSPost2010Prop45
280
     0
102
RTVSPost2010PropOp45
 70
     1
102
RTVSPost2010Prop46
 90
       50
102
RTVSPost2010PropOp46
 70
     1
102
RTVSPost2010Prop47
 90
       50
102
RTVSPost2010PropOp47
 70
     1
102
RTVSPost2010Prop48
 90
       50
102
RTVSPost2010PropOp48
 70
     1
102
RTVSPost2010Prop49
280
     0
102
RTVSPost2010PropOp49
 70
     1
102
RTVSPost2010Prop50
 90
       50
102
RTVSPost2010PropOp50
 70
     1
102
RTVSPost2010Prop51ColorIndex
 90
      256
102
RTVSPost2010Prop51ColorRGB
 90
-16777216
102
RTVSPost2010PropOp51
 70
     0
102
RTVSPost2010Prop52
140
1.0
102
RTVSPost2010PropOp52
 70
     0
102
RTVSPost2010Prop53
 90
        2
102
RTVSPost2010PropOp53
 70
     1
102
RTVSPost2010Prop54
  1
strokes_ogs.tif
102
RTVSPost2010PropOp54
 70
     1
102
RTVSPost2010Prop55
280
     0
102
RTVSPost2010PropOp55
 70
     1
102
RTVSPost2010Prop56
140
1.0
102
RTVSPost2010PropOp56
 70
     1
102
RTVSPost2010Prop57
140
1.0
102
RTVSPost2010PropOp57
 70
     1
102
RTVSPropertyOp0
 70
     1
102
RTVSPropertyOp1
 70
     1
102
RTVSPropertyOp2
 70
     1
102
RTVSPropertyOp3
 70
     1
102
RTVSPropertyOp4
 70
     1
102
RTVSPropertyOp5
 70
     1
102
RTVSPropertyOp6
 70
     1
102
RTVSPropertyOp7
 70
     1
102
RTVSPropertyOp8
 70
     1
102
RTVSPropertyOp9
 70
     1
102
RTVSPropertyOp10
 70
     1
102
RTVSPropertyOp11
 70
     1
102
RTVSPropertyOp12
 70
     1
102
RTVSPropertyOp13
 70
     1
102
RTVSPropertyOp14
 70
     1
102
RTVSPropertyOp15
 70
     1
102
RTVSPropertyOp16
 70
     1
102
RTVSPropertyOp17
 70
     1
102
RTVSPropertyOp18
 70
     1
102
RTVSPropertyOp19
 70
     1
102
RTVSPropertyOp20
 70
     1
102
RTVSPropertyOp21
 70
     1
102
RTVSPropertyOp22
 70
     1
102
RTVSPropertyOp23
 70
     1
102
RTVSPropertyOp24
 70
     1
102
RTVSPropertyOp25
 70
     1
102
RTVSPropertyOp26
 70
     1
102
RTVSPropertyOp27
 70
     1
102
RTVSPropertyOp28
 70
     1
102
RTVSPropertyOp29
 70
     1
102
RTVSPropertyOp30
 70
     1
102
RTVSPropertyOp31
 70
     1
102
RTVSPropertyOp32
 70
     1
102
RTVSPropertyOp33
 70
     1
102
RTVSPropertyOp34
 70
     1
102
RTVSPropertyOp35
 70
     1
102
RTVSPropertyOp36
 70
     1
102
RTVSPropertyOp37
 70
     1
102
RTVSPropertyOp38
 70
     1
102
RTVSPropertyOp39
 70
     1
102
RTVSPropertyOp40
 70
     1
102
RTVSPropertyOp41
 70
     1
102
RTVSPropertyOp42
 70
     1
102
RTVSPropertyOp43
 70
     1
102
RTVSPropertyOp44
 70
     1
102
RTVSPropertyOp45
 70
     1
102
RTVSPropertyOp46
 70
     1
102
RTVSPropertyOp47
 70
     1
102
RTVSPropertyOp48
 70
     1
102
RTVSPropertyOp49
 70
     1
102
RTVSPropertyOp50
 70
     1
102
RTVSPropertyOp51
 70
     0
102
RTVSPropertyOp52
 70
     0
102
RTVSPropertyOp53
 70
     1
102
RTVSPropertyOp54
 70
     1
102
RTVSPropertyOp55
 70
     1
102
RTVSPropertyOp56
 70
     1
102
RTVSPropertyOp57
 70
     1
102
RTVSPropertyOp58
 70
     1
102
RTVSPropertyOp59
 70
     1
102
RTVSPropertyOp60
 70
     1
102
RTVSPropertyOp61
 70
     1
102
RTVSPropertyOp62
 70
     1
  0
XRECORD
  5
293C
102
{ACAD_REACTORS
330
293B
102
}
330
293B
100
AcDbXrecord
280
     1
102
RTVSPost2010Prop28
280
     0
102
RTVSPost2010PropOp28
 70
     1
102
RTVSPost2010Prop29
280
     1
102
RTVSPost2010PropOp29
 70
     1
102
RTVSPost2010Prop30
280
     1
102
RTVSPost2010PropOp30
 70
     1
102
RTVSPost2010Prop31
280
     0
102
RTVSPost2010PropOp31
 70
     1
102
RTVSPost2010Prop32
280
     0
102
RTVSPost2010PropOp32
 70
     1
102
RTVSPost2010Prop33
280
     0
102
RTVSPost2010PropOp33
 70
     1
102
RTVSPost2010Prop34
280
     0
102
RTVSPost2010PropOp34
 70
     1
102
RTVSPost2010Prop35
280
     0
102
RTVSPost2010PropOp35
 70
     1
102
RTVSPost2010Prop36
280
     0
102
RTVSPost2010PropOp36
 70
     1
102
RTVSPost2010Prop37
 90
       50
102
RTVSPost2010PropOp37
 70
     1
102
RTVSPost2010Prop38
140
0.0
102
RTVSPost2010PropOp38
 70
     1
102
RTVSPost2010Prop39
140
1.0
102
RTVSPost2010PropOp39
 70
     1
102
RTVSPost2010Prop40
 90
        0
102
RTVSPost2010PropOp40
 70
     1
102
RTVSPost2010Prop41ColorIndex
 90
       18
102
RTVSPost2010Prop41ColorRGB
 90
        0
102
RTVSPost2010PropOp41
 70
     1
102
RTVSPost2010Prop42
 90
       50
102
RTVSPost2010PropOp42
 70
     1
102
RTVSPost2010Prop43
 90
        3
102
RTVSPost2010PropOp43
 70
     1
102
RTVSPost2010Prop44ColorIndex
 90
        5
102
RTVSPost2010Prop44ColorRGB
 90
      255
102
RTVSPost2010PropOp44
 70
     1
102
RTVSPost2010Prop45
280
     0
102
RTVSPost2010PropOp45
 70
     1
102
RTVSPost2010Prop46
 90
       50
102
RTVSPost2010PropOp46
 70
     1
102
RTVSPost2010Prop47
 90
       50
102
RTVSPost2010PropOp47
 70
     1
102
RTVSPost2010Prop48
 90
       50
102
RTVSPost2010PropOp48
 70
     1
102
RTVSPost2010Prop49
280
     0
102
RTVSPost2010PropOp49
 70
     1
102
RTVSPost2010Prop50
 90
       50
102
RTVSPost2010PropOp50
 70
     1
102
RTVSPost2010Prop51ColorIndex
 90
      256
102
RTVSPost2010Prop51ColorRGB
 90
-16777216
102
RTVSPost2010PropOp51
 70
     0
102
RTVSPost2010Prop52
140
1.0
102
RTVSPost2010PropOp52
 70
     0
102
RTVSPost2010Prop53
 90
        2
102
RTVSPost2010PropOp53
 70
     1
102
RTVSPost2010Prop54
  1
strokes_ogs.tif
102
RTVSPost2010PropOp54
 70
     1
102
RTVSPost2010Prop55
280
     0
102
RTVSPost2010PropOp55
 70
     1
102
RTVSPost2010Prop56
140
1.0
102
RTVSPost2010PropOp56
 70
     1
102
RTVSPost2010Prop57
140
1.0
102
RTVSPost2010PropOp57
 70
     1
102
RTVSPropertyOp0
 70
     1
102
RTVSPropertyOp1
 70
     1
102
RTVSPropertyOp2
 70
     1
102
RTVSPropertyOp3
 70
     1
102
RTVSPropertyOp4
 70
     1
102
RTVSPropertyOp5
 70
     1
102
RTVSPropertyOp6
 70
     1
102
RTVSPropertyOp7
 70
     1
102
RTVSPropertyOp8
 70
     1
102
RTVSPropertyOp9
 70
     1
102
RTVSPropertyOp10
 70
     1
102
RTVSPropertyOp11
 70
     1
102
RTVSPropertyOp12
 70
     1
102
RTVSPropertyOp13
 70
     1
102
RTVSPropertyOp14
 70
     1
102
RTVSPropertyOp15
 70
     1
102
RTVSPropertyOp16
 70
     1
102
RTVSPropertyOp17
 70
     1
102
RTVSPropertyOp18
 70
     1
102
RTVSPropertyOp19
 70
     1
102
RTVSPropertyOp20
 70
     1
102
RTVSPropertyOp21
 70
     1
102
RTVSPropertyOp22
 70
     1
102
RTVSPropertyOp23
 70
     1
102
RTVSPropertyOp24
 70
     1
102
RTVSPropertyOp25
 70
     1
102
RTVSPropertyOp26
 70
     1
102
RTVSPropertyOp27
 70
     1
102
RTVSPropertyOp28
 70
     1
102
RTVSPropertyOp29
 70
     1
102
RTVSPropertyOp30
 70
     1
102
RTVSPropertyOp31
 70
     1
102
RTVSPropertyOp32
 70
     1
102
RTVSPropertyOp33
 70
     1
102
RTVSPropertyOp34
 70
     1
102
RTVSPropertyOp35
 70
     1
102
RTVSPropertyOp36
 70
     1
102
RTVSPropertyOp37
 70
     1
102
RTVSPropertyOp38
 70
     1
102
RTVSPropertyOp39
 70
     1
102
RTVSPropertyOp40
 70
     1
102
RTVSPropertyOp41
 70
     1
102
RTVSPropertyOp42
 70
     1
102
RTVSPropertyOp43
 70
     1
102
RTVSPropertyOp44
 70
     1
102
RTVSPropertyOp45
 70
     1
102
RTVSPropertyOp46
 70
     1
102
RTVSPropertyOp47
 70
     1
102
RTVSPropertyOp48
 70
     1
102
RTVSPropertyOp49
 70
     1
102
RTVSPropertyOp50
 70
     1
102
RTVSPropertyOp51
 70
     0
102
RTVSPropertyOp52
 70
     0
102
RTVSPropertyOp53
 70
     1
102
RTVSPropertyOp54
 70
     1
102
RTVSPropertyOp55
 70
     1
102
RTVSPropertyOp56
 70
     1
102
RTVSPropertyOp57
 70
     1
102
RTVSPropertyOp58
 70
     1
102
RTVSPropertyOp59
 70
     1
102
RTVSPropertyOp60
 70
     1
102
RTVSPropertyOp61
 70
     1
102
RTVSPropertyOp62
 70
     1
  0
XRECORD
  5
295B
102
{ACAD_REACTORS
330
295A
102
}
330
295A
100
AcDbXrecord
280
     1
102
RTVSPost2010Prop28
280
     0
102
RTVSPost2010PropOp28
 70
     0
102
RTVSPost2010Prop29
280
     1
102
RTVSPost2010PropOp29
 70
     0
102
RTVSPost2010Prop30
280
     1
102
RTVSPost2010PropOp30
 70
     0
102
RTVSPost2010Prop31
280
     0
102
RTVSPost2010PropOp31
 70
     0
102
RTVSPost2010Prop32
280
     0
102
RTVSPost2010PropOp32
 70
     0
102
RTVSPost2010Prop33
280
     0
102
RTVSPost2010PropOp33
 70
     0
102
RTVSPost2010Prop34
280
     0
102
RTVSPost2010PropOp34
 70
     0
102
RTVSPost2010Prop35
280
     0
102
RTVSPost2010PropOp35
 70
     0
102
RTVSPost2010Prop36
280
     0
102
RTVSPost2010PropOp36
 70
     0
102
RTVSPost2010Prop37
 90
       50
102
RTVSPost2010PropOp37
 70
     0
102
RTVSPost2010Prop38
140
0.0
102
RTVSPost2010PropOp38
 70
     0
102
RTVSPost2010Prop39
140
1.0
102
RTVSPost2010PropOp39
 70
     0
102
RTVSPost2010Prop40
 90
        0
102
RTVSPost2010PropOp40
 70
     0
102
RTVSPost2010Prop41ColorIndex
 90
       18
102
RTVSPost2010Prop41ColorRGB
 90
        0
102
RTVSPost2010PropOp41
 70
     0
102
RTVSPost2010Prop42
 90
       50
102
RTVSPost2010PropOp42
 70
     0
102
RTVSPost2010Prop43
 90
        3
102
RTVSPost2010PropOp43
 70
     0
102
RTVSPost2010Prop44ColorIndex
 90
        5
102
RTVSPost2010Prop44ColorRGB
 90
      255
102
RTVSPost2010PropOp44
 70
     0
102
RTVSPost2010Prop45
280
     0
102
RTVSPost2010PropOp45
 70
     0
102
RTVSPost2010Prop46
 90
       50
102
RTVSPost2010PropOp46
 70
     0
102
RTVSPost2010Prop47
 90
       50
102
RTVSPost2010PropOp47
 70
     0
102
RTVSPost2010Prop48
 90
       50
102
RTVSPost2010PropOp48
 70
     0
102
RTVSPost2010Prop49
280
     0
102
RTVSPost2010PropOp49
 70
     0
102
RTVSPost2010Prop50
 90
       50
102
RTVSPost2010PropOp50
 70
     0
102
RTVSPost2010Prop51ColorIndex
 90
      256
102
RTVSPost2010Prop51ColorRGB
 90
-16777216
102
RTVSPost2010PropOp51
 70
     0
102
RTVSPost2010Prop52
140
1.0
102
RTVSPost2010PropOp52
 70
     0
102
RTVSPost2010Prop53
 90
        2
102
RTVSPost2010PropOp53
 70
     0
102
RTVSPost2010Prop54
  1
strokes_ogs.tif
102
RTVSPost2010PropOp54
 70
     0
102
RTVSPost2010Prop55
280
     0
102
RTVSPost2010PropOp55
 70
     0
102
RTVSPost2010Prop56
140
1.0
102
RTVSPost2010PropOp56
 70
     0
102
RTVSPost2010Prop57
140
1.0
102
RTVSPost2010PropOp57
 70
     0
102
RTVSPropertyOp0
 70
     0
102
RTVSPropertyOp1
 70
     0
102
RTVSPropertyOp2
 70
     0
102
RTVSPropertyOp3
 70
     0
102
RTVSPropertyOp4
 70
     0
102
RTVSPropertyOp5
 70
     0
102
RTVSPropertyOp6
 70
     0
102
RTVSPropertyOp7
 70
     0
102
RTVSPropertyOp8
 70
     0
102
RTVSPropertyOp9
 70
     0
102
RTVSPropertyOp10
 70
     0
102
RTVSPropertyOp11
 70
     0
102
RTVSPropertyOp12
 70
     0
102
RTVSPropertyOp13
 70
     0
102
RTVSPropertyOp14
 70
     2
102
RTVSPropertyOp15
 70
     0
102
RTVSPropertyOp16
 70
     0
102
RTVSPropertyOp17
 70
     0
102
RTVSPropertyOp18
 70
     0
102
RTVSPropertyOp19
 70
     0
102
RTVSPropertyOp20
 70
     0
102
RTVSPropertyOp21
 70
     0
102
RTVSPropertyOp22
 70
     0
102
RTVSPropertyOp23
 70
     0
102
RTVSPropertyOp24
 70
     0
102
RTVSPropertyOp25
 70
     0
102
RTVSPropertyOp26
 70
     0
102
RTVSPropertyOp27
 70
     0
102
RTVSPropertyOp28
 70
     0
102
RTVSPropertyOp29
 70
     0
102
RTVSPropertyOp30
 70
     0
102
RTVSPropertyOp31
 70
     0
102
RTVSPropertyOp32
 70
     0
102
RTVSPropertyOp33
 70
     0
102
RTVSPropertyOp34
 70
     0
102
RTVSPropertyOp35
 70
     0
102
RTVSPropertyOp36
 70
     0
102
RTVSPropertyOp37
 70
     0
102
RTVSPropertyOp38
 70
     0
102
RTVSPropertyOp39
 70
     0
102
RTVSPropertyOp40
 70
     0
102
RTVSPropertyOp41
 70
     0
102
RTVSPropertyOp42
 70
     0
102
RTVSPropertyOp43
 70
     0
102
RTVSPropertyOp44
 70
     0
102
RTVSPropertyOp45
 70
     0
102
RTVSPropertyOp46
 70
     0
102
RTVSPropertyOp47
 70
     0
102
RTVSPropertyOp48
 70
     0
102
RTVSPropertyOp49
 70
     0
102
RTVSPropertyOp50
 70
     0
102
RTVSPropertyOp51
 70
     0
102
RTVSPropertyOp52
 70
     0
102
RTVSPropertyOp53
 70
     0
102
RTVSPropertyOp54
 70
     0
102
RTVSPropertyOp55
 70
     0
102
RTVSPropertyOp56
 70
     0
102
RTVSPropertyOp57
 70
     0
102
RTVSPropertyOp58
 70
     0
102
RTVSPropertyOp59
 70
     0
102
RTVSPropertyOp60
 70
     0
102
RTVSPropertyOp61
 70
     0
102
RTVSPropertyOp62
 70
     0
  0
XRECORD
  5
2944
102
{ACAD_REACTORS
330
2943
102
}
330
2943
100
AcDbXrecord
280
     1
102
RTVSPost2010Prop28
280
     0
102
RTVSPost2010PropOp28
 70
     1
102
RTVSPost2010Prop29
280
     1
102
RTVSPost2010PropOp29
 70
     1
102
RTVSPost2010Prop30
280
     1
102
RTVSPost2010PropOp30
 70
     1
102
RTVSPost2010Prop31
280
     0
102
RTVSPost2010PropOp31
 70
     1
102
RTVSPost2010Prop32
280
     0
102
RTVSPost2010PropOp32
 70
     1
102
RTVSPost2010Prop33
280
     0
102
RTVSPost2010PropOp33
 70
     1
102
RTVSPost2010Prop34
280
     0
102
RTVSPost2010PropOp34
 70
     1
102
RTVSPost2010Prop35
280
     0
102
RTVSPost2010PropOp35
 70
     1
102
RTVSPost2010Prop36
280
     0
102
RTVSPost2010PropOp36
 70
     1
102
RTVSPost2010Prop37
 90
       50
102
RTVSPost2010PropOp37
 70
     1
102
RTVSPost2010Prop38
140
0.0
102
RTVSPost2010PropOp38
 70
     1
102
RTVSPost2010Prop39
140
1.0
102
RTVSPost2010PropOp39
 70
     1
102
RTVSPost2010Prop40
 90
        0
102
RTVSPost2010PropOp40
 70
     1
102
RTVSPost2010Prop41ColorIndex
 90
       18
102
RTVSPost2010Prop41ColorRGB
 90
        0
102
RTVSPost2010PropOp41
 70
     1
102
RTVSPost2010Prop42
 90
       50
102
RTVSPost2010PropOp42
 70
     1
102
RTVSPost2010Prop43
 90
        3
102
RTVSPost2010PropOp43
 70
     1
102
RTVSPost2010Prop44ColorIndex
 90
        5
102
RTVSPost2010Prop44ColorRGB
 90
      255
102
RTVSPost2010PropOp44
 70
     1
102
RTVSPost2010Prop45
280
     0
102
RTVSPost2010PropOp45
 70
     1
102
RTVSPost2010Prop46
 90
       50
102
RTVSPost2010PropOp46
 70
     1
102
RTVSPost2010Prop47
 90
       50
102
RTVSPost2010PropOp47
 70
     1
102
RTVSPost2010Prop48
 90
       50
102
RTVSPost2010PropOp48
 70
     1
102
RTVSPost2010Prop49
280
     0
102
RTVSPost2010PropOp49
 70
     1
102
RTVSPost2010Prop50
 90
       50
102
RTVSPost2010PropOp50
 70
     1
102
RTVSPost2010Prop51ColorIndex
 90
      256
102
RTVSPost2010Prop51ColorRGB
 90
-16777216
102
RTVSPost2010PropOp51
 70
     0
102
RTVSPost2010Prop52
140
1.0
102
RTVSPost2010PropOp52
 70
     0
102
RTVSPost2010Prop53
 90
        2
102
RTVSPost2010PropOp53
 70
     1
102
RTVSPost2010Prop54
  1
strokes_ogs.tif
102
RTVSPost2010PropOp54
 70
     1
102
RTVSPost2010Prop55
280
     0
102
RTVSPost2010PropOp55
 70
     1
102
RTVSPost2010Prop56
140
1.0
102
RTVSPost2010PropOp56
 70
     1
102
RTVSPost2010Prop57
140
1.0
102
RTVSPost2010PropOp57
 70
     1
102
RTVSPropertyOp0
 70
     1
102
RTVSPropertyOp1
 70
     1
102
RTVSPropertyOp2
 70
     1
102
RTVSPropertyOp3
 70
     1
102
RTVSPropertyOp4
 70
     1
102
RTVSPropertyOp5
 70
     1
102
RTVSPropertyOp6
 70
     1
102
RTVSPropertyOp7
 70
     1
102
RTVSPropertyOp8
 70
     1
102
RTVSPropertyOp9
 70
     1
102
RTVSPropertyOp10
 70
     1
102
RTVSPropertyOp11
 70
     1
102
RTVSPropertyOp12
 70
     1
102
RTVSPropertyOp13
 70
     1
102
RTVSPropertyOp14
 70
     1
102
RTVSPropertyOp15
 70
     1
102
RTVSPropertyOp16
 70
     1
102
RTVSPropertyOp17
 70
     1
102
RTVSPropertyOp18
 70
     1
102
RTVSPropertyOp19
 70
     1
102
RTVSPropertyOp20
 70
     1
102
RTVSPropertyOp21
 70
     1
102
RTVSPropertyOp22
 70
     1
102
RTVSPropertyOp23
 70
     1
102
RTVSPropertyOp24
 70
     1
102
RTVSPropertyOp25
 70
     1
102
RTVSPropertyOp26
 70
     1
102
RTVSPropertyOp27
 70
     1
102
RTVSPropertyOp28
 70
     1
102
RTVSPropertyOp29
 70
     1
102
RTVSPropertyOp30
 70
     1
102
RTVSPropertyOp31
 70
     1
102
RTVSPropertyOp32
 70
     1
102
RTVSPropertyOp33
 70
     1
102
RTVSPropertyOp34
 70
     1
102
RTVSPropertyOp35
 70
     1
102
RTVSPropertyOp36
 70
     1
102
RTVSPropertyOp37
 70
     1
102
RTVSPropertyOp38
 70
     1
102
RTVSPropertyOp39
 70
     1
102
RTVSPropertyOp40
 70
     1
102
RTVSPropertyOp41
 70
     1
102
RTVSPropertyOp42
 70
     1
102
RTVSPropertyOp43
 70
     1
102
RTVSPropertyOp44
 70
     1
102
RTVSPropertyOp45
 70
     1
102
RTVSPropertyOp46
 70
     1
102
RTVSPropertyOp47
 70
     1
102
RTVSPropertyOp48
 70
     1
102
RTVSPropertyOp49
 70
     1
102
RTVSPropertyOp50
 70
     1
102
RTVSPropertyOp51
 70
     0
102
RTVSPropertyOp52
 70
     0
102
RTVSPropertyOp53
 70
     1
102
RTVSPropertyOp54
 70
     1
102
RTVSPropertyOp55
 70
     1
102
RTVSPropertyOp56
 70
     1
102
RTVSPropertyOp57
 70
     1
102
RTVSPropertyOp58
 70
     1
102
RTVSPropertyOp59
 70
     1
102
RTVSPropertyOp60
 70
     1
102
RTVSPropertyOp61
 70
     1
102
RTVSPropertyOp62
 70
     1
  0
XRECORD
  5
2928
102
{ACAD_REACTORS
330
2927
102
}
330
2927
100
AcDbXrecord
280
     1
102
RTVSPost2010Prop28
280
     0
102
RTVSPost2010PropOp28
 70
     1
102
RTVSPost2010Prop29
280
     1
102
RTVSPost2010PropOp29
 70
     1
102
RTVSPost2010Prop30
280
     1
102
RTVSPost2010PropOp30
 70
     1
102
RTVSPost2010Prop31
280
     0
102
RTVSPost2010PropOp31
 70
     1
102
RTVSPost2010Prop32
280
     0
102
RTVSPost2010PropOp32
 70
     1
102
RTVSPost2010Prop33
280
     0
102
RTVSPost2010PropOp33
 70
     1
102
RTVSPost2010Prop34
280
     0
102
RTVSPost2010PropOp34
 70
     1
102
RTVSPost2010Prop35
280
     0
102
RTVSPost2010PropOp35
 70
     1
102
RTVSPost2010Prop36
280
     0
102
RTVSPost2010PropOp36
 70
     1
102
RTVSPost2010Prop37
 90
       50
102
RTVSPost2010PropOp37
 70
     1
102
RTVSPost2010Prop38
140
0.0
102
RTVSPost2010PropOp38
 70
     1
102
RTVSPost2010Prop39
140
1.0
102
RTVSPost2010PropOp39
 70
     1
102
RTVSPost2010Prop40
 90
        0
102
RTVSPost2010PropOp40
 70
     1
102
RTVSPost2010Prop41ColorIndex
 90
       18
102
RTVSPost2010Prop41ColorRGB
 90
        0
102
RTVSPost2010PropOp41
 70
     1
102
RTVSPost2010Prop42
 90
       50
102
RTVSPost2010PropOp42
 70
     1
102
RTVSPost2010Prop43
 90
        3
102
RTVSPost2010PropOp43
 70
     1
102
RTVSPost2010Prop44ColorIndex
 90
        5
102
RTVSPost2010Prop44ColorRGB
 90
      255
102
RTVSPost2010PropOp44
 70
     1
102
RTVSPost2010Prop45
280
     0
102
RTVSPost2010PropOp45
 70
     1
102
RTVSPost2010Prop46
 90
       50
102
RTVSPost2010PropOp46
 70
     1
102
RTVSPost2010Prop47
 90
       50
102
RTVSPost2010PropOp47
 70
     1
102
RTVSPost2010Prop48
 90
       50
102
RTVSPost2010PropOp48
 70
     1
102
RTVSPost2010Prop49
280
     0
102
RTVSPost2010PropOp49
 70
     1
102
RTVSPost2010Prop50
 90
       50
102
RTVSPost2010PropOp50
 70
     1
102
RTVSPost2010Prop51ColorIndex
 90
      256
102
RTVSPost2010Prop51ColorRGB
 90
-16777216
102
RTVSPost2010PropOp51
 70
     0
102
RTVSPost2010Prop52
140
1.0
102
RTVSPost2010PropOp52
 70
     0
102
RTVSPost2010Prop53
 90
        2
102
RTVSPost2010PropOp53
 70
     1
102
RTVSPost2010Prop54
  1
strokes_ogs.tif
102
RTVSPost2010PropOp54
 70
     1
102
RTVSPost2010Prop55
280
     0
102
RTVSPost2010PropOp55
 70
     1
102
RTVSPost2010Prop56
140
1.0
102
RTVSPost2010PropOp56
 70
     1
102
RTVSPost2010Prop57
140
1.0
102
RTVSPost2010PropOp57
 70
     1
102
RTVSPropertyOp0
 70
     1
102
RTVSPropertyOp1
 70
     1
102
RTVSPropertyOp2
 70
     1
102
RTVSPropertyOp3
 70
     1
102
RTVSPropertyOp4
 70
     1
102
RTVSPropertyOp5
 70
     1
102
RTVSPropertyOp6
 70
     1
102
RTVSPropertyOp7
 70
     1
102
RTVSPropertyOp8
 70
     1
102
RTVSPropertyOp9
 70
     1
102
RTVSPropertyOp10
 70
     1
102
RTVSPropertyOp11
 70
     1
102
RTVSPropertyOp12
 70
     1
102
RTVSPropertyOp13
 70
     1
102
RTVSPropertyOp14
 70
     1
102
RTVSPropertyOp15
 70
     1
102
RTVSPropertyOp16
 70
     1
102
RTVSPropertyOp17
 70
     1
102
RTVSPropertyOp18
 70
     1
102
RTVSPropertyOp19
 70
     1
102
RTVSPropertyOp20
 70
     1
102
RTVSPropertyOp21
 70
     1
102
RTVSPropertyOp22
 70
     1
102
RTVSPropertyOp23
 70
     1
102
RTVSPropertyOp24
 70
     1
102
RTVSPropertyOp25
 70
     1
102
RTVSPropertyOp26
 70
     1
102
RTVSPropertyOp27
 70
     1
102
RTVSPropertyOp28
 70
     1
102
RTVSPropertyOp29
 70
     1
102
RTVSPropertyOp30
 70
     1
102
RTVSPropertyOp31
 70
     1
102
RTVSPropertyOp32
 70
     1
102
RTVSPropertyOp33
 70
     1
102
RTVSPropertyOp34
 70
     1
102
RTVSPropertyOp35
 70
     1
102
RTVSPropertyOp36
 70
     1
102
RTVSPropertyOp37
 70
     1
102
RTVSPropertyOp38
 70
     1
102
RTVSPropertyOp39
 70
     1
102
RTVSPropertyOp40
 70
     1
102
RTVSPropertyOp41
 70
     1
102
RTVSPropertyOp42
 70
     1
102
RTVSPropertyOp43
 70
     1
102
RTVSPropertyOp44
 70
     1
102
RTVSPropertyOp45
 70
     1
102
RTVSPropertyOp46
 70
     1
102
RTVSPropertyOp47
 70
     1
102
RTVSPropertyOp48
 70
     1
102
RTVSPropertyOp49
 70
     1
102
RTVSPropertyOp50
 70
     1
102
RTVSPropertyOp51
 70
     0
102
RTVSPropertyOp52
 70
     0
102
RTVSPropertyOp53
 70
     1
102
RTVSPropertyOp54
 70
     1
102
RTVSPropertyOp55
 70
     1
102
RTVSPropertyOp56
 70
     1
102
RTVSPropertyOp57
 70
     1
102
RTVSPropertyOp58
 70
     1
102
RTVSPropertyOp59
 70
     1
102
RTVSPropertyOp60
 70
     1
102
RTVSPropertyOp61
 70
     1
102
RTVSPropertyOp62
 70
     1
  0
XRECORD
  5
292A
102
{ACAD_REACTORS
330
2929
102
}
330
2929
100
AcDbXrecord
280
     1
102
RTVSPost2010Prop28
280
     0
102
RTVSPost2010PropOp28
 70
     1
102
RTVSPost2010Prop29
280
     1
102
RTVSPost2010PropOp29
 70
     1
102
RTVSPost2010Prop30
280
     1
102
RTVSPost2010PropOp30
 70
     1
102
RTVSPost2010Prop31
280
     0
102
RTVSPost2010PropOp31
 70
     1
102
RTVSPost2010Prop32
280
     0
102
RTVSPost2010PropOp32
 70
     1
102
RTVSPost2010Prop33
280
     0
102
RTVSPost2010PropOp33
 70
     1
102
RTVSPost2010Prop34
280
     0
102
RTVSPost2010PropOp34
 70
     1
102
RTVSPost2010Prop35
280
     0
102
RTVSPost2010PropOp35
 70
     1
102
RTVSPost2010Prop36
280
     0
102
RTVSPost2010PropOp36
 70
     1
102
RTVSPost2010Prop37
 90
       50
102
RTVSPost2010PropOp37
 70
     1
102
RTVSPost2010Prop38
140
0.0
102
RTVSPost2010PropOp38
 70
     1
102
RTVSPost2010Prop39
140
1.0
102
RTVSPost2010PropOp39
 70
     1
102
RTVSPost2010Prop40
 90
        0
102
RTVSPost2010PropOp40
 70
     1
102
RTVSPost2010Prop41ColorIndex
 90
       18
102
RTVSPost2010Prop41ColorRGB
 90
        0
102
RTVSPost2010PropOp41
 70
     1
102
RTVSPost2010Prop42
 90
       50
102
RTVSPost2010PropOp42
 70
     1
102
RTVSPost2010Prop43
 90
        3
102
RTVSPost2010PropOp43
 70
     1
102
RTVSPost2010Prop44ColorIndex
 90
        5
102
RTVSPost2010Prop44ColorRGB
 90
      255
102
RTVSPost2010PropOp44
 70
     1
102
RTVSPost2010Prop45
280
     0
102
RTVSPost2010PropOp45
 70
     1
102
RTVSPost2010Prop46
 90
       50
102
RTVSPost2010PropOp46
 70
     1
102
RTVSPost2010Prop47
 90
       50
102
RTVSPost2010PropOp47
 70
     1
102
RTVSPost2010Prop48
 90
       50
102
RTVSPost2010PropOp48
 70
     1
102
RTVSPost2010Prop49
280
     0
102
RTVSPost2010PropOp49
 70
     1
102
RTVSPost2010Prop50
 90
       50
102
RTVSPost2010PropOp50
 70
     1
102
RTVSPost2010Prop51ColorIndex
 90
      256
102
RTVSPost2010Prop51ColorRGB
 90
-16777216
102
RTVSPost2010PropOp51
 70
     0
102
RTVSPost2010Prop52
140
1.0
102
RTVSPost2010PropOp52
 70
     0
102
RTVSPost2010Prop53
 90
        2
102
RTVSPost2010PropOp53
 70
     1
102
RTVSPost2010Prop54
  1
strokes_ogs.tif
102
RTVSPost2010PropOp54
 70
     1
102
RTVSPost2010Prop55
280
     0
102
RTVSPost2010PropOp55
 70
     1
102
RTVSPost2010Prop56
140
1.0
102
RTVSPost2010PropOp56
 70
     1
102
RTVSPost2010Prop57
140
1.0
102
RTVSPost2010PropOp57
 70
     1
102
RTVSPropertyOp0
 70
     1
102
RTVSPropertyOp1
 70
     1
102
RTVSPropertyOp2
 70
     1
102
RTVSPropertyOp3
 70
     1
102
RTVSPropertyOp4
 70
     1
102
RTVSPropertyOp5
 70
     1
102
RTVSPropertyOp6
 70
     1
102
RTVSPropertyOp7
 70
     1
102
RTVSPropertyOp8
 70
     1
102
RTVSPropertyOp9
 70
     1
102
RTVSPropertyOp10
 70
     1
102
RTVSPropertyOp11
 70
     1
102
RTVSPropertyOp12
 70
     1
102
RTVSPropertyOp13
 70
     1
102
RTVSPropertyOp14
 70
     1
102
RTVSPropertyOp15
 70
     1
102
RTVSPropertyOp16
 70
     1
102
RTVSPropertyOp17
 70
     1
102
RTVSPropertyOp18
 70
     1
102
RTVSPropertyOp19
 70
     1
102
RTVSPropertyOp20
 70
     1
102
RTVSPropertyOp21
 70
     1
102
RTVSPropertyOp22
 70
     1
102
RTVSPropertyOp23
 70
     1
102
RTVSPropertyOp24
 70
     1
102
RTVSPropertyOp25
 70
     1
102
RTVSPropertyOp26
 70
     1
102
RTVSPropertyOp27
 70
     1
102
RTVSPropertyOp28
 70
     1
102
RTVSPropertyOp29
 70
     1
102
RTVSPropertyOp30
 70
     1
102
RTVSPropertyOp31
 70
     1
102
RTVSPropertyOp32
 70
     1
102
RTVSPropertyOp33
 70
     1
102
RTVSPropertyOp34
 70
     1
102
RTVSPropertyOp35
 70
     1
102
RTVSPropertyOp36
 70
     1
102
RTVSPropertyOp37
 70
     1
102
RTVSPropertyOp38
 70
     1
102
RTVSPropertyOp39
 70
     1
102
RTVSPropertyOp40
 70
     1
102
RTVSPropertyOp41
 70
     1
102
RTVSPropertyOp42
 70
     1
102
RTVSPropertyOp43
 70
     1
102
RTVSPropertyOp44
 70
     1
102
RTVSPropertyOp45
 70
     1
102
RTVSPropertyOp46
 70
     1
102
RTVSPropertyOp47
 70
     1
102
RTVSPropertyOp48
 70
     1
102
RTVSPropertyOp49
 70
     1
102
RTVSPropertyOp50
 70
     1
102
RTVSPropertyOp51
 70
     0
102
RTVSPropertyOp52
 70
     0
102
RTVSPropertyOp53
 70
     1
102
RTVSPropertyOp54
 70
     1
102
RTVSPropertyOp55
 70
     1
102
RTVSPropertyOp56
 70
     1
102
RTVSPropertyOp57
 70
     1
102
RTVSPropertyOp58
 70
     1
102
RTVSPropertyOp59
 70
     1
102
RTVSPropertyOp60
 70
     1
102
RTVSPropertyOp61
 70
     1
102
RTVSPropertyOp62
 70
     1
  0
XRECORD
  5
292C
102
{ACAD_REACTORS
330
292B
102
}
330
292B
100
AcDbXrecord
280
     1
102
RTVSPost2010Prop28
280
     0
102
RTVSPost2010PropOp28
 70
     1
102
RTVSPost2010Prop29
280
     1
102
RTVSPost2010PropOp29
 70
     1
102
RTVSPost2010Prop30
280
     1
102
RTVSPost2010PropOp30
 70
     1
102
RTVSPost2010Prop31
280
     0
102
RTVSPost2010PropOp31
 70
     1
102
RTVSPost2010Prop32
280
     0
102
RTVSPost2010PropOp32
 70
     1
102
RTVSPost2010Prop33
280
     0
102
RTVSPost2010PropOp33
 70
     1
102
RTVSPost2010Prop34
280
     0
102
RTVSPost2010PropOp34
 70
     1
102
RTVSPost2010Prop35
280
     0
102
RTVSPost2010PropOp35
 70
     1
102
RTVSPost2010Prop36
280
     0
102
RTVSPost2010PropOp36
 70
     1
102
RTVSPost2010Prop37
 90
       50
102
RTVSPost2010PropOp37
 70
     1
102
RTVSPost2010Prop38
140
0.0
102
RTVSPost2010PropOp38
 70
     1
102
RTVSPost2010Prop39
140
1.0
102
RTVSPost2010PropOp39
 70
     1
102
RTVSPost2010Prop40
 90
        0
102
RTVSPost2010PropOp40
 70
     1
102
RTVSPost2010Prop41ColorIndex
 90
       18
102
RTVSPost2010Prop41ColorRGB
 90
        0
102
RTVSPost2010PropOp41
 70
     1
102
RTVSPost2010Prop42
 90
       50
102
RTVSPost2010PropOp42
 70
     1
102
RTVSPost2010Prop43
 90
        3
102
RTVSPost2010PropOp43
 70
     1
102
RTVSPost2010Prop44ColorIndex
 90
        5
102
RTVSPost2010Prop44ColorRGB
 90
      255
102
RTVSPost2010PropOp44
 70
     1
102
RTVSPost2010Prop45
280
     0
102
RTVSPost2010PropOp45
 70
     1
102
RTVSPost2010Prop46
 90
       50
102
RTVSPost2010PropOp46
 70
     1
102
RTVSPost2010Prop47
 90
       50
102
RTVSPost2010PropOp47
 70
     1
102
RTVSPost2010Prop48
 90
       50
102
RTVSPost2010PropOp48
 70
     1
102
RTVSPost2010Prop49
280
     0
102
RTVSPost2010PropOp49
 70
     1
102
RTVSPost2010Prop50
 90
       50
102
RTVSPost2010PropOp50
 70
     1
102
RTVSPost2010Prop51ColorIndex
 90
      256
102
RTVSPost2010Prop51ColorRGB
 90
-16777216
102
RTVSPost2010PropOp51
 70
     0
102
RTVSPost2010Prop52
140
1.0
102
RTVSPost2010PropOp52
 70
     0
102
RTVSPost2010Prop53
 90
        2
102
RTVSPost2010PropOp53
 70
     1
102
RTVSPost2010Prop54
  1
strokes_ogs.tif
102
RTVSPost2010PropOp54
 70
     1
102
RTVSPost2010Prop55
280
     0
102
RTVSPost2010PropOp55
 70
     1
102
RTVSPost2010Prop56
140
1.0
102
RTVSPost2010PropOp56
 70
     1
102
RTVSPost2010Prop57
140
1.0
102
RTVSPost2010PropOp57
 70
     1
102
RTVSPropertyOp0
 70
     1
102
RTVSPropertyOp1
 70
     1
102
RTVSPropertyOp2
 70
     1
102
RTVSPropertyOp3
 70
     1
102
RTVSPropertyOp4
 70
     1
102
RTVSPropertyOp5
 70
     1
102
RTVSPropertyOp6
 70
     1
102
RTVSPropertyOp7
 70
     1
102
RTVSPropertyOp8
 70
     1
102
RTVSPropertyOp9
 70
     1
102
RTVSPropertyOp10
 70
     1
102
RTVSPropertyOp11
 70
     1
102
RTVSPropertyOp12
 70
     1
102
RTVSPropertyOp13
 70
     1
102
RTVSPropertyOp14
 70
     1
102
RTVSPropertyOp15
 70
     1
102
RTVSPropertyOp16
 70
     1
102
RTVSPropertyOp17
 70
     1
102
RTVSPropertyOp18
 70
     1
102
RTVSPropertyOp19
 70
     1
102
RTVSPropertyOp20
 70
     1
102
RTVSPropertyOp21
 70
     1
102
RTVSPropertyOp22
 70
     1
102
RTVSPropertyOp23
 70
     1
102
RTVSPropertyOp24
 70
     1
102
RTVSPropertyOp25
 70
     1
102
RTVSPropertyOp26
 70
     1
102
RTVSPropertyOp27
 70
     1
102
RTVSPropertyOp28
 70
     1
102
RTVSPropertyOp29
 70
     1
102
RTVSPropertyOp30
 70
     1
102
RTVSPropertyOp31
 70
     1
102
RTVSPropertyOp32
 70
     1
102
RTVSPropertyOp33
 70
     1
102
RTVSPropertyOp34
 70
     1
102
RTVSPropertyOp35
 70
     1
102
RTVSPropertyOp36
 70
     1
102
RTVSPropertyOp37
 70
     1
102
RTVSPropertyOp38
 70
     1
102
RTVSPropertyOp39
 70
     1
102
RTVSPropertyOp40
 70
     1
102
RTVSPropertyOp41
 70
     1
102
RTVSPropertyOp42
 70
     1
102
RTVSPropertyOp43
 70
     1
102
RTVSPropertyOp44
 70
     1
102
RTVSPropertyOp45
 70
     1
102
RTVSPropertyOp46
 70
     1
102
RTVSPropertyOp47
 70
     1
102
RTVSPropertyOp48
 70
     1
102
RTVSPropertyOp49
 70
     1
102
RTVSPropertyOp50
 70
     1
102
RTVSPropertyOp51
 70
     0
102
RTVSPropertyOp52
 70
     0
102
RTVSPropertyOp53
 70
     1
102
RTVSPropertyOp54
 70
     1
102
RTVSPropertyOp55
 70
     1
102
RTVSPropertyOp56
 70
     1
102
RTVSPropertyOp57
 70
     1
102
RTVSPropertyOp58
 70
     1
102
RTVSPropertyOp59
 70
     1
102
RTVSPropertyOp60
 70
     1
102
RTVSPropertyOp61
 70
     1
102
RTVSPropertyOp62
 70
     1
  0
XRECORD
  5
292E
102
{ACAD_REACTORS
330
292D
102
}
330
292D
100
AcDbXrecord
280
     1
102
RTVSPost2010Prop28
280
     0
102
RTVSPost2010PropOp28
 70
     1
102
RTVSPost2010Prop29
280
     1
102
RTVSPost2010PropOp29
 70
     1
102
RTVSPost2010Prop30
280
     1
102
RTVSPost2010PropOp30
 70
     1
102
RTVSPost2010Prop31
280
     0
102
RTVSPost2010PropOp31
 70
     1
102
RTVSPost2010Prop32
280
     0
102
RTVSPost2010PropOp32
 70
     1
102
RTVSPost2010Prop33
280
     0
102
RTVSPost2010PropOp33
 70
     1
102
RTVSPost2010Prop34
280
     0
102
RTVSPost2010PropOp34
 70
     1
102
RTVSPost2010Prop35
280
     0
102
RTVSPost2010PropOp35
 70
     1
102
RTVSPost2010Prop36
280
     0
102
RTVSPost2010PropOp36
 70
     1
102
RTVSPost2010Prop37
 90
       50
102
RTVSPost2010PropOp37
 70
     1
102
RTVSPost2010Prop38
140
0.0
102
RTVSPost2010PropOp38
 70
     1
102
RTVSPost2010Prop39
140
1.0
102
RTVSPost2010PropOp39
 70
     1
102
RTVSPost2010Prop40
 90
        0
102
RTVSPost2010PropOp40
 70
     1
102
RTVSPost2010Prop41ColorIndex
 90
       18
102
RTVSPost2010Prop41ColorRGB
 90
        0
102
RTVSPost2010PropOp41
 70
     1
102
RTVSPost2010Prop42
 90
       50
102
RTVSPost2010PropOp42
 70
     1
102
RTVSPost2010Prop43
 90
        3
102
RTVSPost2010PropOp43
 70
     1
102
RTVSPost2010Prop44ColorIndex
 90
        5
102
RTVSPost2010Prop44ColorRGB
 90
      255
102
RTVSPost2010PropOp44
 70
     1
102
RTVSPost2010Prop45
280
     0
102
RTVSPost2010PropOp45
 70
     1
102
RTVSPost2010Prop46
 90
       50
102
RTVSPost2010PropOp46
 70
     1
102
RTVSPost2010Prop47
 90
       50
102
RTVSPost2010PropOp47
 70
     1
102
RTVSPost2010Prop48
 90
       50
102
RTVSPost2010PropOp48
 70
     1
102
RTVSPost2010Prop49
280
     0
102
RTVSPost2010PropOp49
 70
     1
102
RTVSPost2010Prop50
 90
       50
102
RTVSPost2010PropOp50
 70
     1
102
RTVSPost2010Prop51ColorIndex
 90
      256
102
RTVSPost2010Prop51ColorRGB
 90
-16777216
102
RTVSPost2010PropOp51
 70
     0
102
RTVSPost2010Prop52
140
1.0
102
RTVSPost2010PropOp52
 70
     0
102
RTVSPost2010Prop53
 90
        2
102
RTVSPost2010PropOp53
 70
     1
102
RTVSPost2010Prop54
  1
strokes_ogs.tif
102
RTVSPost2010PropOp54
 70
     1
102
RTVSPost2010Prop55
280
     0
102
RTVSPost2010PropOp55
 70
     1
102
RTVSPost2010Prop56
140
1.0
102
RTVSPost2010PropOp56
 70
     1
102
RTVSPost2010Prop57
140
1.0
102
RTVSPost2010PropOp57
 70
     1
102
RTVSPropertyOp0
 70
     1
102
RTVSPropertyOp1
 70
     1
102
RTVSPropertyOp2
 70
     1
102
RTVSPropertyOp3
 70
     1
102
RTVSPropertyOp4
 70
     1
102
RTVSPropertyOp5
 70
     1
102
RTVSPropertyOp6
 70
     1
102
RTVSPropertyOp7
 70
     1
102
RTVSPropertyOp8
 70
     1
102
RTVSPropertyOp9
 70
     1
102
RTVSPropertyOp10
 70
     1
102
RTVSPropertyOp11
 70
     1
102
RTVSPropertyOp12
 70
     1
102
RTVSPropertyOp13
 70
     1
102
RTVSPropertyOp14
 70
     1
102
RTVSPropertyOp15
 70
     1
102
RTVSPropertyOp16
 70
     1
102
RTVSPropertyOp17
 70
     1
102
RTVSPropertyOp18
 70
     1
102
RTVSPropertyOp19
 70
     1
102
RTVSPropertyOp20
 70
     1
102
RTVSPropertyOp21
 70
     1
102
RTVSPropertyOp22
 70
     1
102
RTVSPropertyOp23
 70
     1
102
RTVSPropertyOp24
 70
     1
102
RTVSPropertyOp25
 70
     1
102
RTVSPropertyOp26
 70
     1
102
RTVSPropertyOp27
 70
     1
102
RTVSPropertyOp28
 70
     1
102
RTVSPropertyOp29
 70
     1
102
RTVSPropertyOp30
 70
     1
102
RTVSPropertyOp31
 70
     1
102
RTVSPropertyOp32
 70
     1
102
RTVSPropertyOp33
 70
     1
102
RTVSPropertyOp34
 70
     1
102
RTVSPropertyOp35
 70
     1
102
RTVSPropertyOp36
 70
     1
102
RTVSPropertyOp37
 70
     1
102
RTVSPropertyOp38
 70
     1
102
RTVSPropertyOp39
 70
     1
102
RTVSPropertyOp40
 70
     1
102
RTVSPropertyOp41
 70
     1
102
RTVSPropertyOp42
 70
     1
102
RTVSPropertyOp43
 70
     1
102
RTVSPropertyOp44
 70
     1
102
RTVSPropertyOp45
 70
     1
102
RTVSPropertyOp46
 70
     1
102
RTVSPropertyOp47
 70
     1
102
RTVSPropertyOp48
 70
     1
102
RTVSPropertyOp49
 70
     1
102
RTVSPropertyOp50
 70
     1
102
RTVSPropertyOp51
 70
     0
102
RTVSPropertyOp52
 70
     0
102
RTVSPropertyOp53
 70
     1
102
RTVSPropertyOp54
 70
     1
102
RTVSPropertyOp55
 70
     1
102
RTVSPropertyOp56
 70
     1
102
RTVSPropertyOp57
 70
     1
102
RTVSPropertyOp58
 70
     1
102
RTVSPropertyOp59
 70
     1
102
RTVSPropertyOp60
 70
     1
102
RTVSPropertyOp61
 70
     1
102
RTVSPropertyOp62
 70
     1
  0
XRECORD
  5
294B
102
{ACAD_REACTORS
330
294A
102
}
330
294A
100
AcDbXrecord
280
     1
102
RTVSPost2010Prop28
280
     0
102
RTVSPost2010PropOp28
 70
     1
102
RTVSPost2010Prop29
280
     1
102
RTVSPost2010PropOp29
 70
     1
102
RTVSPost2010Prop30
280
     1
102
RTVSPost2010PropOp30
 70
     1
102
RTVSPost2010Prop31
280
     0
102
RTVSPost2010PropOp31
 70
     1
102
RTVSPost2010Prop32
280
     0
102
RTVSPost2010PropOp32
 70
     1
102
RTVSPost2010Prop33
280
     0
102
RTVSPost2010PropOp33
 70
     1
102
RTVSPost2010Prop34
280
     0
102
RTVSPost2010PropOp34
 70
     1
102
RTVSPost2010Prop35
280
     0
102
RTVSPost2010PropOp35
 70
     1
102
RTVSPost2010Prop36
280
     0
102
RTVSPost2010PropOp36
 70
     1
102
RTVSPost2010Prop37
 90
       50
102
RTVSPost2010PropOp37
 70
     1
102
RTVSPost2010Prop38
140
0.0
102
RTVSPost2010PropOp38
 70
     1
102
RTVSPost2010Prop39
140
1.0
102
RTVSPost2010PropOp39
 70
     1
102
RTVSPost2010Prop40
 90
        0
102
RTVSPost2010PropOp40
 70
     1
102
RTVSPost2010Prop41ColorIndex
 90
       18
102
RTVSPost2010Prop41ColorRGB
 90
        0
102
RTVSPost2010PropOp41
 70
     1
102
RTVSPost2010Prop42
 90
       50
102
RTVSPost2010PropOp42
 70
     1
102
RTVSPost2010Prop43
 90
        3
102
RTVSPost2010PropOp43
 70
     1
102
RTVSPost2010Prop44ColorIndex
 90
        5
102
RTVSPost2010Prop44ColorRGB
 90
      255
102
RTVSPost2010PropOp44
 70
     1
102
RTVSPost2010Prop45
280
     0
102
RTVSPost2010PropOp45
 70
     1
102
RTVSPost2010Prop46
 90
       50
102
RTVSPost2010PropOp46
 70
     1
102
RTVSPost2010Prop47
 90
       50
102
RTVSPost2010PropOp47
 70
     1
102
RTVSPost2010Prop48
 90
       50
102
RTVSPost2010PropOp48
 70
     1
102
RTVSPost2010Prop49
280
     0
102
RTVSPost2010PropOp49
 70
     1
102
RTVSPost2010Prop50
 90
       50
102
RTVSPost2010PropOp50
 70
     1
102
RTVSPost2010Prop51ColorIndex
 90
      256
102
RTVSPost2010Prop51ColorRGB
 90
-16777216
102
RTVSPost2010PropOp51
 70
     0
102
RTVSPost2010Prop52
140
1.0
102
RTVSPost2010PropOp52
 70
     0
102
RTVSPost2010Prop53
 90
        2
102
RTVSPost2010PropOp53
 70
     1
102
RTVSPost2010Prop54
  1
strokes_ogs.tif
102
RTVSPost2010PropOp54
 70
     1
102
RTVSPost2010Prop55
280
     0
102
RTVSPost2010PropOp55
 70
     1
102
RTVSPost2010Prop56
140
1.0
102
RTVSPost2010PropOp56
 70
     1
102
RTVSPost2010Prop57
140
1.0
102
RTVSPost2010PropOp57
 70
     1
102
RTVSPropertyOp0
 70
     1
102
RTVSPropertyOp1
 70
     1
102
RTVSPropertyOp2
 70
     1
102
RTVSPropertyOp3
 70
     1
102
RTVSPropertyOp4
 70
     1
102
RTVSPropertyOp5
 70
     1
102
RTVSPropertyOp6
 70
     1
102
RTVSPropertyOp7
 70
     1
102
RTVSPropertyOp8
 70
     1
102
RTVSPropertyOp9
 70
     1
102
RTVSPropertyOp10
 70
     1
102
RTVSPropertyOp11
 70
     1
102
RTVSPropertyOp12
 70
     1
102
RTVSPropertyOp13
 70
     1
102
RTVSPropertyOp14
 70
     1
102
RTVSPropertyOp15
 70
     1
102
RTVSPropertyOp16
 70
     1
102
RTVSPropertyOp17
 70
     1
102
RTVSPropertyOp18
 70
     1
102
RTVSPropertyOp19
 70
     1
102
RTVSPropertyOp20
 70
     1
102
RTVSPropertyOp21
 70
     1
102
RTVSPropertyOp22
 70
     1
102
RTVSPropertyOp23
 70
     1
102
RTVSPropertyOp24
 70
     1
102
RTVSPropertyOp25
 70
     1
102
RTVSPropertyOp26
 70
     1
102
RTVSPropertyOp27
 70
     1
102
RTVSPropertyOp28
 70
     1
102
RTVSPropertyOp29
 70
     1
102
RTVSPropertyOp30
 70
     1
102
RTVSPropertyOp31
 70
     1
102
RTVSPropertyOp32
 70
     1
102
RTVSPropertyOp33
 70
     1
102
RTVSPropertyOp34
 70
     1
102
RTVSPropertyOp35
 70
     1
102
RTVSPropertyOp36
 70
     1
102
RTVSPropertyOp37
 70
     1
102
RTVSPropertyOp38
 70
     1
102
RTVSPropertyOp39
 70
     1
102
RTVSPropertyOp40
 70
     1
102
RTVSPropertyOp41
 70
     1
102
RTVSPropertyOp42
 70
     1
102
RTVSPropertyOp43
 70
     1
102
RTVSPropertyOp44
 70
     1
102
RTVSPropertyOp45
 70
     1
102
RTVSPropertyOp46
 70
     1
102
RTVSPropertyOp47
 70
     1
102
RTVSPropertyOp48
 70
     1
102
RTVSPropertyOp49
 70
     1
102
RTVSPropertyOp50
 70
     1
102
RTVSPropertyOp51
 70
     0
102
RTVSPropertyOp52
 70
     0
102
RTVSPropertyOp53
 70
     1
102
RTVSPropertyOp54
 70
     1
102
RTVSPropertyOp55
 70
     1
102
RTVSPropertyOp56
 70
     1
102
RTVSPropertyOp57
 70
     1
102
RTVSPropertyOp58
 70
     1
102
RTVSPropertyOp59
 70
     1
102
RTVSPropertyOp60
 70
     1
102
RTVSPropertyOp61
 70
     1
102
RTVSPropertyOp62
 70
     1
  0
XRECORD
  5
2957
102
{ACAD_REACTORS
330
2956
102
}
330
2956
100
AcDbXrecord
280
     1
102
RTVSPost2010Prop28
280
     0
102
RTVSPost2010PropOp28
 70
     0
102
RTVSPost2010Prop29
280
     1
102
RTVSPost2010PropOp29
 70
     0
102
RTVSPost2010Prop30
280
     1
102
RTVSPost2010PropOp30
 70
     0
102
RTVSPost2010Prop31
280
     0
102
RTVSPost2010PropOp31
 70
     0
102
RTVSPost2010Prop32
280
     0
102
RTVSPost2010PropOp32
 70
     0
102
RTVSPost2010Prop33
280
     0
102
RTVSPost2010PropOp33
 70
     0
102
RTVSPost2010Prop34
280
     0
102
RTVSPost2010PropOp34
 70
     0
102
RTVSPost2010Prop35
280
     0
102
RTVSPost2010PropOp35
 70
     0
102
RTVSPost2010Prop36
280
     0
102
RTVSPost2010PropOp36
 70
     0
102
RTVSPost2010Prop37
 90
       50
102
RTVSPost2010PropOp37
 70
     0
102
RTVSPost2010Prop38
140
0.0
102
RTVSPost2010PropOp38
 70
     0
102
RTVSPost2010Prop39
140
1.0
102
RTVSPost2010PropOp39
 70
     0
102
RTVSPost2010Prop40
 90
        0
102
RTVSPost2010PropOp40
 70
     0
102
RTVSPost2010Prop41ColorIndex
 90
       18
102
RTVSPost2010Prop41ColorRGB
 90
        0
102
RTVSPost2010PropOp41
 70
     0
102
RTVSPost2010Prop42
 90
       50
102
RTVSPost2010PropOp42
 70
     0
102
RTVSPost2010Prop43
 90
        3
102
RTVSPost2010PropOp43
 70
     0
102
RTVSPost2010Prop44ColorIndex
 90
        5
102
RTVSPost2010Prop44ColorRGB
 90
      255
102
RTVSPost2010PropOp44
 70
     0
102
RTVSPost2010Prop45
280
     0
102
RTVSPost2010PropOp45
 70
     0
102
RTVSPost2010Prop46
 90
       50
102
RTVSPost2010PropOp46
 70
     0
102
RTVSPost2010Prop47
 90
       50
102
RTVSPost2010PropOp47
 70
     0
102
RTVSPost2010Prop48
 90
       50
102
RTVSPost2010PropOp48
 70
     0
102
RTVSPost2010Prop49
280
     0
102
RTVSPost2010PropOp49
 70
     0
102
RTVSPost2010Prop50
 90
       50
102
RTVSPost2010PropOp50
 70
     0
102
RTVSPost2010Prop51ColorIndex
 90
      256
102
RTVSPost2010Prop51ColorRGB
 90
-16777216
102
RTVSPost2010PropOp51
 70
     0
102
RTVSPost2010Prop52
140
1.0
102
RTVSPost2010PropOp52
 70
     0
102
RTVSPost2010Prop53
 90
        2
102
RTVSPost2010PropOp53
 70
     0
102
RTVSPost2010Prop54
  1
strokes_ogs.tif
102
RTVSPost2010PropOp54
 70
     0
102
RTVSPost2010Prop55
280
     0
102
RTVSPost2010PropOp55
 70
     0
102
RTVSPost2010Prop56
140
1.0
102
RTVSPost2010PropOp56
 70
     0
102
RTVSPost2010Prop57
140
1.0
102
RTVSPost2010PropOp57
 70
     0
102
RTVSPropertyOp0
 70
     0
102
RTVSPropertyOp1
 70
     0
102
RTVSPropertyOp2
 70
     0
102
RTVSPropertyOp3
 70
     0
102
RTVSPropertyOp4
 70
     0
102
RTVSPropertyOp5
 70
     0
102
RTVSPropertyOp6
 70
     0
102
RTVSPropertyOp7
 70
     0
102
RTVSPropertyOp8
 70
     0
102
RTVSPropertyOp9
 70
     0
102
RTVSPropertyOp10
 70
     0
102
RTVSPropertyOp11
 70
     0
102
RTVSPropertyOp12
 70
     0
102
RTVSPropertyOp13
 70
     0
102
RTVSPropertyOp14
 70
     2
102
RTVSPropertyOp15
 70
     0
102
RTVSPropertyOp16
 70
     0
102
RTVSPropertyOp17
 70
     0
102
RTVSPropertyOp18
 70
     0
102
RTVSPropertyOp19
 70
     0
102
RTVSPropertyOp20
 70
     0
102
RTVSPropertyOp21
 70
     0
102
RTVSPropertyOp22
 70
     0
102
RTVSPropertyOp23
 70
     0
102
RTVSPropertyOp24
 70
     0
102
RTVSPropertyOp25
 70
     0
102
RTVSPropertyOp26
 70
     0
102
RTVSPropertyOp27
 70
     0
102
RTVSPropertyOp28
 70
     0
102
RTVSPropertyOp29
 70
     0
102
RTVSPropertyOp30
 70
     0
102
RTVSPropertyOp31
 70
     0
102
RTVSPropertyOp32
 70
     0
102
RTVSPropertyOp33
 70
     0
102
RTVSPropertyOp34
 70
     0
102
RTVSPropertyOp35
 70
     0
102
RTVSPropertyOp36
 70
     0
102
RTVSPropertyOp37
 70
     0
102
RTVSPropertyOp38
 70
     0
102
RTVSPropertyOp39
 70
     0
102
RTVSPropertyOp40
 70
     0
102
RTVSPropertyOp41
 70
     0
102
RTVSPropertyOp42
 70
     0
102
RTVSPropertyOp43
 70
     0
102
RTVSPropertyOp44
 70
     0
102
RTVSPropertyOp45
 70
     0
102
RTVSPropertyOp46
 70
     0
102
RTVSPropertyOp47
 70
     0
102
RTVSPropertyOp48
 70
     0
102
RTVSPropertyOp49
 70
     0
102
RTVSPropertyOp50
 70
     0
102
RTVSPropertyOp51
 70
     0
102
RTVSPropertyOp52
 70
     0
102
RTVSPropertyOp53
 70
     0
102
RTVSPropertyOp54
 70
     0
102
RTVSPropertyOp55
 70
     0
102
RTVSPropertyOp56
 70
     0
102
RTVSPropertyOp57
 70
     0
102
RTVSPropertyOp58
 70
     0
102
RTVSPropertyOp59
 70
     0
102
RTVSPropertyOp60
 70
     0
102
RTVSPropertyOp61
 70
     0
102
RTVSPropertyOp62
 70
     0
  0
XRECORD
  5
2942
102
{ACAD_REACTORS
330
2941
102
}
330
2941
100
AcDbXrecord
280
     1
102
RTVSPost2010Prop28
280
     0
102
RTVSPost2010PropOp28
 70
     1
102
RTVSPost2010Prop29
280
     1
102
RTVSPost2010PropOp29
 70
     1
102
RTVSPost2010Prop30
280
     1
102
RTVSPost2010PropOp30
 70
     1
102
RTVSPost2010Prop31
280
     0
102
RTVSPost2010PropOp31
 70
     1
102
RTVSPost2010Prop32
280
     0
102
RTVSPost2010PropOp32
 70
     1
102
RTVSPost2010Prop33
280
     0
102
RTVSPost2010PropOp33
 70
     1
102
RTVSPost2010Prop34
280
     0
102
RTVSPost2010PropOp34
 70
     1
102
RTVSPost2010Prop35
280
     0
102
RTVSPost2010PropOp35
 70
     1
102
RTVSPost2010Prop36
280
     0
102
RTVSPost2010PropOp36
 70
     1
102
RTVSPost2010Prop37
 90
       50
102
RTVSPost2010PropOp37
 70
     1
102
RTVSPost2010Prop38
140
0.0
102
RTVSPost2010PropOp38
 70
     1
102
RTVSPost2010Prop39
140
1.0
102
RTVSPost2010PropOp39
 70
     1
102
RTVSPost2010Prop40
 90
        0
102
RTVSPost2010PropOp40
 70
     1
102
RTVSPost2010Prop41ColorIndex
 90
       18
102
RTVSPost2010Prop41ColorRGB
 90
        0
102
RTVSPost2010PropOp41
 70
     1
102
RTVSPost2010Prop42
 90
       50
102
RTVSPost2010PropOp42
 70
     1
102
RTVSPost2010Prop43
 90
        3
102
RTVSPost2010PropOp43
 70
     1
102
RTVSPost2010Prop44ColorIndex
 90
        5
102
RTVSPost2010Prop44ColorRGB
 90
      255
102
RTVSPost2010PropOp44
 70
     1
102
RTVSPost2010Prop45
280
     0
102
RTVSPost2010PropOp45
 70
     1
102
RTVSPost2010Prop46
 90
       50
102
RTVSPost2010PropOp46
 70
     1
102
RTVSPost2010Prop47
 90
       50
102
RTVSPost2010PropOp47
 70
     1
102
RTVSPost2010Prop48
 90
       50
102
RTVSPost2010PropOp48
 70
     1
102
RTVSPost2010Prop49
280
     0
102
RTVSPost2010PropOp49
 70
     1
102
RTVSPost2010Prop50
 90
       50
102
RTVSPost2010PropOp50
 70
     1
102
RTVSPost2010Prop51ColorIndex
 90
      256
102
RTVSPost2010Prop51ColorRGB
 90
-16777216
102
RTVSPost2010PropOp51
 70
     0
102
RTVSPost2010Prop52
140
1.0
102
RTVSPost2010PropOp52
 70
     0
102
RTVSPost2010Prop53
 90
        2
102
RTVSPost2010PropOp53
 70
     1
102
RTVSPost2010Prop54
  1
strokes_ogs.tif
102
RTVSPost2010PropOp54
 70
     1
102
RTVSPost2010Prop55
280
     0
102
RTVSPost2010PropOp55
 70
     1
102
RTVSPost2010Prop56
140
1.0
102
RTVSPost2010PropOp56
 70
     1
102
RTVSPost2010Prop57
140
1.0
102
RTVSPost2010PropOp57
 70
     1
102
RTVSPropertyOp0
 70
     1
102
RTVSPropertyOp1
 70
     1
102
RTVSPropertyOp2
 70
     1
102
RTVSPropertyOp3
 70
     1
102
RTVSPropertyOp4
 70
     1
102
RTVSPropertyOp5
 70
     1
102
RTVSPropertyOp6
 70
     1
102
RTVSPropertyOp7
 70
     1
102
RTVSPropertyOp8
 70
     1
102
RTVSPropertyOp9
 70
     1
102
RTVSPropertyOp10
 70
     1
102
RTVSPropertyOp11
 70
     1
102
RTVSPropertyOp12
 70
     1
102
RTVSPropertyOp13
 70
     1
102
RTVSPropertyOp14
 70
     1
102
RTVSPropertyOp15
 70
     1
102
RTVSPropertyOp16
 70
     1
102
RTVSPropertyOp17
 70
     1
102
RTVSPropertyOp18
 70
     1
102
RTVSPropertyOp19
 70
     1
102
RTVSPropertyOp20
 70
     1
102
RTVSPropertyOp21
 70
     1
102
RTVSPropertyOp22
 70
     1
102
RTVSPropertyOp23
 70
     1
102
RTVSPropertyOp24
 70
     1
102
RTVSPropertyOp25
 70
     1
102
RTVSPropertyOp26
 70
     1
102
RTVSPropertyOp27
 70
     1
102
RTVSPropertyOp28
 70
     1
102
RTVSPropertyOp29
 70
     1
102
RTVSPropertyOp30
 70
     1
102
RTVSPropertyOp31
 70
     1
102
RTVSPropertyOp32
 70
     1
102
RTVSPropertyOp33
 70
     1
102
RTVSPropertyOp34
 70
     1
102
RTVSPropertyOp35
 70
     1
102
RTVSPropertyOp36
 70
     1
102
RTVSPropertyOp37
 70
     1
102
RTVSPropertyOp38
 70
     1
102
RTVSPropertyOp39
 70
     1
102
RTVSPropertyOp40
 70
     1
102
RTVSPropertyOp41
 70
     1
102
RTVSPropertyOp42
 70
     1
102
RTVSPropertyOp43
 70
     1
102
RTVSPropertyOp44
 70
     1
102
RTVSPropertyOp45
 70
     1
102
RTVSPropertyOp46
 70
     1
102
RTVSPropertyOp47
 70
     1
102
RTVSPropertyOp48
 70
     1
102
RTVSPropertyOp49
 70
     1
102
RTVSPropertyOp50
 70
     1
102
RTVSPropertyOp51
 70
     0
102
RTVSPropertyOp52
 70
     0
102
RTVSPropertyOp53
 70
     1
102
RTVSPropertyOp54
 70
     1
102
RTVSPropertyOp55
 70
     1
102
RTVSPropertyOp56
 70
     1
102
RTVSPropertyOp57
 70
     1
102
RTVSPropertyOp58
 70
     1
102
RTVSPropertyOp59
 70
     1
102
RTVSPropertyOp60
 70
     1
102
RTVSPropertyOp61
 70
     1
102
RTVSPropertyOp62
 70
     1
  0
XRECORD
  5
2959
102
{ACAD_REACTORS
330
2958
102
}
330
2958
100
AcDbXrecord
280
     1
102
RTVSPost2010Prop28
280
     0
102
RTVSPost2010PropOp28
 70
     0
102
RTVSPost2010Prop29
280
     1
102
RTVSPost2010PropOp29
 70
     0
102
RTVSPost2010Prop30
280
     1
102
RTVSPost2010PropOp30
 70
     0
102
RTVSPost2010Prop31
280
     0
102
RTVSPost2010PropOp31
 70
     0
102
RTVSPost2010Prop32
280
     0
102
RTVSPost2010PropOp32
 70
     0
102
RTVSPost2010Prop33
280
     0
102
RTVSPost2010PropOp33
 70
     0
102
RTVSPost2010Prop34
280
     0
102
RTVSPost2010PropOp34
 70
     0
102
RTVSPost2010Prop35
280
     0
102
RTVSPost2010PropOp35
 70
     0
102
RTVSPost2010Prop36
280
     0
102
RTVSPost2010PropOp36
 70
     0
102
RTVSPost2010Prop37
 90
       50
102
RTVSPost2010PropOp37
 70
     0
102
RTVSPost2010Prop38
140
0.0
102
RTVSPost2010PropOp38
 70
     0
102
RTVSPost2010Prop39
140
1.0
102
RTVSPost2010PropOp39
 70
     0
102
RTVSPost2010Prop40
 90
        0
102
RTVSPost2010PropOp40
 70
     0
102
RTVSPost2010Prop41ColorIndex
 90
       18
102
RTVSPost2010Prop41ColorRGB
 90
        0
102
RTVSPost2010PropOp41
 70
     0
102
RTVSPost2010Prop42
 90
       50
102
RTVSPost2010PropOp42
 70
     0
102
RTVSPost2010Prop43
 90
        3
102
RTVSPost2010PropOp43
 70
     0
102
RTVSPost2010Prop44ColorIndex
 90
        5
102
RTVSPost2010Prop44ColorRGB
 90
      255
102
RTVSPost2010PropOp44
 70
     0
102
RTVSPost2010Prop45
280
     0
102
RTVSPost2010PropOp45
 70
     0
102
RTVSPost2010Prop46
 90
       50
102
RTVSPost2010PropOp46
 70
     0
102
RTVSPost2010Prop47
 90
       50
102
RTVSPost2010PropOp47
 70
     0
102
RTVSPost2010Prop48
 90
       50
102
RTVSPost2010PropOp48
 70
     0
102
RTVSPost2010Prop49
280
     0
102
RTVSPost2010PropOp49
 70
     0
102
RTVSPost2010Prop50
 90
       50
102
RTVSPost2010PropOp50
 70
     0
102
RTVSPost2010Prop51ColorIndex
 90
      256
102
RTVSPost2010Prop51ColorRGB
 90
-16777216
102
RTVSPost2010PropOp51
 70
     0
102
RTVSPost2010Prop52
140
1.0
102
RTVSPost2010PropOp52
 70
     0
102
RTVSPost2010Prop53
 90
        2
102
RTVSPost2010PropOp53
 70
     0
102
RTVSPost2010Prop54
  1
strokes_ogs.tif
102
RTVSPost2010PropOp54
 70
     0
102
RTVSPost2010Prop55
280
     0
102
RTVSPost2010PropOp55
 70
     0
102
RTVSPost2010Prop56
140
1.0
102
RTVSPost2010PropOp56
 70
     0
102
RTVSPost2010Prop57
140
1.0
102
RTVSPost2010PropOp57
 70
     0
102
RTVSPropertyOp0
 70
     0
102
RTVSPropertyOp1
 70
     0
102
RTVSPropertyOp2
 70
     0
102
RTVSPropertyOp3
 70
     0
102
RTVSPropertyOp4
 70
     0
102
RTVSPropertyOp5
 70
     0
102
RTVSPropertyOp6
 70
     0
102
RTVSPropertyOp7
 70
     0
102
RTVSPropertyOp8
 70
     0
102
RTVSPropertyOp9
 70
     0
102
RTVSPropertyOp10
 70
     0
102
RTVSPropertyOp11
 70
     0
102
RTVSPropertyOp12
 70
     0
102
RTVSPropertyOp13
 70
     0
102
RTVSPropertyOp14
 70
     2
102
RTVSPropertyOp15
 70
     0
102
RTVSPropertyOp16
 70
     0
102
RTVSPropertyOp17
 70
     0
102
RTVSPropertyOp18
 70
     0
102
RTVSPropertyOp19
 70
     0
102
RTVSPropertyOp20
 70
     0
102
RTVSPropertyOp21
 70
     0
102
RTVSPropertyOp22
 70
     0
102
RTVSPropertyOp23
 70
     0
102
RTVSPropertyOp24
 70
     0
102
RTVSPropertyOp25
 70
     0
102
RTVSPropertyOp26
 70
     0
102
RTVSPropertyOp27
 70
     0
102
RTVSPropertyOp28
 70
     0
102
RTVSPropertyOp29
 70
     0
102
RTVSPropertyOp30
 70
     0
102
RTVSPropertyOp31
 70
     0
102
RTVSPropertyOp32
 70
     0
102
RTVSPropertyOp33
 70
     0
102
RTVSPropertyOp34
 70
     0
102
RTVSPropertyOp35
 70
     0
102
RTVSPropertyOp36
 70
     0
102
RTVSPropertyOp37
 70
     0
102
RTVSPropertyOp38
 70
     0
102
RTVSPropertyOp39
 70
     0
102
RTVSPropertyOp40
 70
     0
102
RTVSPropertyOp41
 70
     0
102
RTVSPropertyOp42
 70
     0
102
RTVSPropertyOp43
 70
     0
102
RTVSPropertyOp44
 70
     0
102
RTVSPropertyOp45
 70
     0
102
RTVSPropertyOp46
 70
     0
102
RTVSPropertyOp47
 70
     0
102
RTVSPropertyOp48
 70
     0
102
RTVSPropertyOp49
 70
     0
102
RTVSPropertyOp50
 70
     0
102
RTVSPropertyOp51
 70
     0
102
RTVSPropertyOp52
 70
     0
102
RTVSPropertyOp53
 70
     0
102
RTVSPropertyOp54
 70
     0
102
RTVSPropertyOp55
 70
     0
102
RTVSPropertyOp56
 70
     0
102
RTVSPropertyOp57
 70
     0
102
RTVSPropertyOp58
 70
     0
102
RTVSPropertyOp59
 70
     0
102
RTVSPropertyOp60
 70
     0
102
RTVSPropertyOp61
 70
     0
102
RTVSPropertyOp62
 70
     0
  0
XRECORD
  5
293A
102
{ACAD_REACTORS
330
2939
102
}
330
2939
100
AcDbXrecord
280
     1
102
RTVSPost2010Prop28
280
     0
102
RTVSPost2010PropOp28
 70
     1
102
RTVSPost2010Prop29
280
     1
102
RTVSPost2010PropOp29
 70
     1
102
RTVSPost2010Prop30
280
     1
102
RTVSPost2010PropOp30
 70
     1
102
RTVSPost2010Prop31
280
     0
102
RTVSPost2010PropOp31
 70
     1
102
RTVSPost2010Prop32
280
     0
102
RTVSPost2010PropOp32
 70
     1
102
RTVSPost2010Prop33
280
     0
102
RTVSPost2010PropOp33
 70
     1
102
RTVSPost2010Prop34
280
     0
102
RTVSPost2010PropOp34
 70
     1
102
RTVSPost2010Prop35
280
     0
102
RTVSPost2010PropOp35
 70
     1
102
RTVSPost2010Prop36
280
     0
102
RTVSPost2010PropOp36
 70
     1
102
RTVSPost2010Prop37
 90
       50
102
RTVSPost2010PropOp37
 70
     1
102
RTVSPost2010Prop38
140
0.0
102
RTVSPost2010PropOp38
 70
     1
102
RTVSPost2010Prop39
140
1.0
102
RTVSPost2010PropOp39
 70
     1
102
RTVSPost2010Prop40
 90
        0
102
RTVSPost2010PropOp40
 70
     1
102
RTVSPost2010Prop41ColorIndex
 90
       18
102
RTVSPost2010Prop41ColorRGB
 90
        0
102
RTVSPost2010PropOp41
 70
     1
102
RTVSPost2010Prop42
 90
       50
102
RTVSPost2010PropOp42
 70
     1
102
RTVSPost2010Prop43
 90
        3
102
RTVSPost2010PropOp43
 70
     1
102
RTVSPost2010Prop44ColorIndex
 90
        5
102
RTVSPost2010Prop44ColorRGB
 90
      255
102
RTVSPost2010PropOp44
 70
     1
102
RTVSPost2010Prop45
280
     0
102
RTVSPost2010PropOp45
 70
     1
102
RTVSPost2010Prop46
 90
       50
102
RTVSPost2010PropOp46
 70
     1
102
RTVSPost2010Prop47
 90
       50
102
RTVSPost2010PropOp47
 70
     1
102
RTVSPost2010Prop48
 90
       50
102
RTVSPost2010PropOp48
 70
     1
102
RTVSPost2010Prop49
280
     0
102
RTVSPost2010PropOp49
 70
     1
102
RTVSPost2010Prop50
 90
       50
102
RTVSPost2010PropOp50
 70
     1
102
RTVSPost2010Prop51ColorIndex
 90
      256
102
RTVSPost2010Prop51ColorRGB
 90
-16777216
102
RTVSPost2010PropOp51
 70
     0
102
RTVSPost2010Prop52
140
1.0
102
RTVSPost2010PropOp52
 70
     0
102
RTVSPost2010Prop53
 90
        2
102
RTVSPost2010PropOp53
 70
     1
102
RTVSPost2010Prop54
  1
strokes_ogs.tif
102
RTVSPost2010PropOp54
 70
     1
102
RTVSPost2010Prop55
280
     0
102
RTVSPost2010PropOp55
 70
     1
102
RTVSPost2010Prop56
140
1.0
102
RTVSPost2010PropOp56
 70
     1
102
RTVSPost2010Prop57
140
1.0
102
RTVSPost2010PropOp57
 70
     1
102
RTVSPropertyOp0
 70
     1
102
RTVSPropertyOp1
 70
     1
102
RTVSPropertyOp2
 70
     1
102
RTVSPropertyOp3
 70
     1
102
RTVSPropertyOp4
 70
     1
102
RTVSPropertyOp5
 70
     1
102
RTVSPropertyOp6
 70
     1
102
RTVSPropertyOp7
 70
     1
102
RTVSPropertyOp8
 70
     1
102
RTVSPropertyOp9
 70
     1
102
RTVSPropertyOp10
 70
     1
102
RTVSPropertyOp11
 70
     1
102
RTVSPropertyOp12
 70
     1
102
RTVSPropertyOp13
 70
     1
102
RTVSPropertyOp14
 70
     1
102
RTVSPropertyOp15
 70
     1
102
RTVSPropertyOp16
 70
     1
102
RTVSPropertyOp17
 70
     1
102
RTVSPropertyOp18
 70
     1
102
RTVSPropertyOp19
 70
     1
102
RTVSPropertyOp20
 70
     1
102
RTVSPropertyOp21
 70
     1
102
RTVSPropertyOp22
 70
     1
102
RTVSPropertyOp23
 70
     1
102
RTVSPropertyOp24
 70
     1
102
RTVSPropertyOp25
 70
     1
102
RTVSPropertyOp26
 70
     1
102
RTVSPropertyOp27
 70
     1
102
RTVSPropertyOp28
 70
     1
102
RTVSPropertyOp29
 70
     1
102
RTVSPropertyOp30
 70
     1
102
RTVSPropertyOp31
 70
     1
102
RTVSPropertyOp32
 70
     1
102
RTVSPropertyOp33
 70
     1
102
RTVSPropertyOp34
 70
     1
102
RTVSPropertyOp35
 70
     1
102
RTVSPropertyOp36
 70
     1
102
RTVSPropertyOp37
 70
     1
102
RTVSPropertyOp38
 70
     1
102
RTVSPropertyOp39
 70
     1
102
RTVSPropertyOp40
 70
     1
102
RTVSPropertyOp41
 70
     1
102
RTVSPropertyOp42
 70
     1
102
RTVSPropertyOp43
 70
     1
102
RTVSPropertyOp44
 70
     1
102
RTVSPropertyOp45
 70
     1
102
RTVSPropertyOp46
 70
     1
102
RTVSPropertyOp47
 70
     1
102
RTVSPropertyOp48
 70
     1
102
RTVSPropertyOp49
 70
     1
102
RTVSPropertyOp50
 70
     1
102
RTVSPropertyOp51
 70
     0
102
RTVSPropertyOp52
 70
     0
102
RTVSPropertyOp53
 70
     1
102
RTVSPropertyOp54
 70
     1
102
RTVSPropertyOp55
 70
     1
102
RTVSPropertyOp56
 70
     1
102
RTVSPropertyOp57
 70
     1
102
RTVSPropertyOp58
 70
     1
102
RTVSPropertyOp59
 70
     1
102
RTVSPropertyOp60
 70
     1
102
RTVSPropertyOp61
 70
     1
102
RTVSPropertyOp62
 70
     1
  0
XRECORD
  5
2955
102
{ACAD_REACTORS
330
2954
102
}
330
2954
100
AcDbXrecord
280
     1
102
RTVSPost2010Prop28
280
     0
102
RTVSPost2010PropOp28
 70
     1
102
RTVSPost2010Prop29
280
     1
102
RTVSPost2010PropOp29
 70
     1
102
RTVSPost2010Prop30
280
     1
102
RTVSPost2010PropOp30
 70
     1
102
RTVSPost2010Prop31
280
     0
102
RTVSPost2010PropOp31
 70
     1
102
RTVSPost2010Prop32
280
     0
102
RTVSPost2010PropOp32
 70
     1
102
RTVSPost2010Prop33
280
     0
102
RTVSPost2010PropOp33
 70
     1
102
RTVSPost2010Prop34
280
     0
102
RTVSPost2010PropOp34
 70
     1
102
RTVSPost2010Prop35
280
     0
102
RTVSPost2010PropOp35
 70
     1
102
RTVSPost2010Prop36
280
     0
102
RTVSPost2010PropOp36
 70
     1
102
RTVSPost2010Prop37
 90
       50
102
RTVSPost2010PropOp37
 70
     1
102
RTVSPost2010Prop38
140
0.0
102
RTVSPost2010PropOp38
 70
     1
102
RTVSPost2010Prop39
140
1.0
102
RTVSPost2010PropOp39
 70
     1
102
RTVSPost2010Prop40
 90
        0
102
RTVSPost2010PropOp40
 70
     1
102
RTVSPost2010Prop41ColorIndex
 90
       18
102
RTVSPost2010Prop41ColorRGB
 90
        0
102
RTVSPost2010PropOp41
 70
     1
102
RTVSPost2010Prop42
 90
       50
102
RTVSPost2010PropOp42
 70
     1
102
RTVSPost2010Prop43
 90
        3
102
RTVSPost2010PropOp43
 70
     1
102
RTVSPost2010Prop44ColorIndex
 90
        5
102
RTVSPost2010Prop44ColorRGB
 90
      255
102
RTVSPost2010PropOp44
 70
     1
102
RTVSPost2010Prop45
280
     0
102
RTVSPost2010PropOp45
 70
     1
102
RTVSPost2010Prop46
 90
       50
102
RTVSPost2010PropOp46
 70
     1
102
RTVSPost2010Prop47
 90
       50
102
RTVSPost2010PropOp47
 70
     1
102
RTVSPost2010Prop48
 90
       50
102
RTVSPost2010PropOp48
 70
     1
102
RTVSPost2010Prop49
280
     0
102
RTVSPost2010PropOp49
 70
     1
102
RTVSPost2010Prop50
 90
       50
102
RTVSPost2010PropOp50
 70
     1
102
RTVSPost2010Prop51ColorIndex
 90
      256
102
RTVSPost2010Prop51ColorRGB
 90
-16777216
102
RTVSPost2010PropOp51
 70
     0
102
RTVSPost2010Prop52
140
1.0
102
RTVSPost2010PropOp52
 70
     0
102
RTVSPost2010Prop53
 90
        2
102
RTVSPost2010PropOp53
 70
     1
102
RTVSPost2010Prop54
  1
strokes_ogs.tif
102
RTVSPost2010PropOp54
 70
     1
102
RTVSPost2010Prop55
280
     0
102
RTVSPost2010PropOp55
 70
     1
102
RTVSPost2010Prop56
140
1.0
102
RTVSPost2010PropOp56
 70
     1
102
RTVSPost2010Prop57
140
1.0
102
RTVSPost2010PropOp57
 70
     1
102
RTVSPropertyOp0
 70
     1
102
RTVSPropertyOp1
 70
     1
102
RTVSPropertyOp2
 70
     1
102
RTVSPropertyOp3
 70
     1
102
RTVSPropertyOp4
 70
     1
102
RTVSPropertyOp5
 70
     1
102
RTVSPropertyOp6
 70
     1
102
RTVSPropertyOp7
 70
     1
102
RTVSPropertyOp8
 70
     1
102
RTVSPropertyOp9
 70
     1
102
RTVSPropertyOp10
 70
     1
102
RTVSPropertyOp11
 70
     1
102
RTVSPropertyOp12
 70
     1
102
RTVSPropertyOp13
 70
     1
102
RTVSPropertyOp14
 70
     1
102
RTVSPropertyOp15
 70
     1
102
RTVSPropertyOp16
 70
     1
102
RTVSPropertyOp17
 70
     1
102
RTVSPropertyOp18
 70
     1
102
RTVSPropertyOp19
 70
     1
102
RTVSPropertyOp20
 70
     1
102
RTVSPropertyOp21
 70
     1
102
RTVSPropertyOp22
 70
     1
102
RTVSPropertyOp23
 70
     1
102
RTVSPropertyOp24
 70
     1
102
RTVSPropertyOp25
 70
     1
102
RTVSPropertyOp26
 70
     1
102
RTVSPropertyOp27
 70
     1
102
RTVSPropertyOp28
 70
     1
102
RTVSPropertyOp29
 70
     1
102
RTVSPropertyOp30
 70
     1
102
RTVSPropertyOp31
 70
     1
102
RTVSPropertyOp32
 70
     1
102
RTVSPropertyOp33
 70
     1
102
RTVSPropertyOp34
 70
     1
102
RTVSPropertyOp35
 70
     1
102
RTVSPropertyOp36
 70
     1
102
RTVSPropertyOp37
 70
     1
102
RTVSPropertyOp38
 70
     1
102
RTVSPropertyOp39
 70
     1
102
RTVSPropertyOp40
 70
     1
102
RTVSPropertyOp41
 70
     1
102
RTVSPropertyOp42
 70
     1
102
RTVSPropertyOp43
 70
     1
102
RTVSPropertyOp44
 70
     1
102
RTVSPropertyOp45
 70
     1
102
RTVSPropertyOp46
 70
     1
102
RTVSPropertyOp47
 70
     1
102
RTVSPropertyOp48
 70
     1
102
RTVSPropertyOp49
 70
     1
102
RTVSPropertyOp50
 70
     1
102
RTVSPropertyOp51
 70
     0
102
RTVSPropertyOp52
 70
     0
102
RTVSPropertyOp53
 70
     1
102
RTVSPropertyOp54
 70
     1
102
RTVSPropertyOp55
 70
     1
102
RTVSPropertyOp56
 70
     1
102
RTVSPropertyOp57
 70
     1
102
RTVSPropertyOp58
 70
     1
102
RTVSPropertyOp59
 70
     1
102
RTVSPropertyOp60
 70
     1
102
RTVSPropertyOp61
 70
     1
102
RTVSPropertyOp62
 70
     1
  0
XRECORD
  5
2953
102
{ACAD_REACTORS
330
2952
102
}
330
2952
100
AcDbXrecord
280
     1
102
RTVSPost2010Prop28
280
     0
102
RTVSPost2010PropOp28
 70
     1
102
RTVSPost2010Prop29
280
     1
102
RTVSPost2010PropOp29
 70
     1
102
RTVSPost2010Prop30
280
     1
102
RTVSPost2010PropOp30
 70
     1
102
RTVSPost2010Prop31
280
     0
102
RTVSPost2010PropOp31
 70
     1
102
RTVSPost2010Prop32
280
     0
102
RTVSPost2010PropOp32
 70
     1
102
RTVSPost2010Prop33
280
     0
102
RTVSPost2010PropOp33
 70
     1
102
RTVSPost2010Prop34
280
     0
102
RTVSPost2010PropOp34
 70
     1
102
RTVSPost2010Prop35
280
     0
102
RTVSPost2010PropOp35
 70
     1
102
RTVSPost2010Prop36
280
     0
102
RTVSPost2010PropOp36
 70
     1
102
RTVSPost2010Prop37
 90
       50
102
RTVSPost2010PropOp37
 70
     1
102
RTVSPost2010Prop38
140
0.0
102
RTVSPost2010PropOp38
 70
     1
102
RTVSPost2010Prop39
140
1.0
102
RTVSPost2010PropOp39
 70
     1
102
RTVSPost2010Prop40
 90
        0
102
RTVSPost2010PropOp40
 70
     1
102
RTVSPost2010Prop41ColorIndex
 90
       18
102
RTVSPost2010Prop41ColorRGB
 90
        0
102
RTVSPost2010PropOp41
 70
     1
102
RTVSPost2010Prop42
 90
       50
102
RTVSPost2010PropOp42
 70
     1
102
RTVSPost2010Prop43
 90
        3
102
RTVSPost2010PropOp43
 70
     1
102
RTVSPost2010Prop44ColorIndex
 90
        5
102
RTVSPost2010Prop44ColorRGB
 90
      255
102
RTVSPost2010PropOp44
 70
     1
102
RTVSPost2010Prop45
280
     0
102
RTVSPost2010PropOp45
 70
     1
102
RTVSPost2010Prop46
 90
       50
102
RTVSPost2010PropOp46
 70
     1
102
RTVSPost2010Prop47
 90
       50
102
RTVSPost2010PropOp47
 70
     1
102
RTVSPost2010Prop48
 90
       50
102
RTVSPost2010PropOp48
 70
     1
102
RTVSPost2010Prop49
280
     0
102
RTVSPost2010PropOp49
 70
     1
102
RTVSPost2010Prop50
 90
       50
102
RTVSPost2010PropOp50
 70
     1
102
RTVSPost2010Prop51ColorIndex
 90
      256
102
RTVSPost2010Prop51ColorRGB
 90
-16777216
102
RTVSPost2010PropOp51
 70
     0
102
RTVSPost2010Prop52
140
1.0
102
RTVSPost2010PropOp52
 70
     0
102
RTVSPost2010Prop53
 90
        2
102
RTVSPost2010PropOp53
 70
     1
102
RTVSPost2010Prop54
  1
strokes_ogs.tif
102
RTVSPost2010PropOp54
 70
     1
102
RTVSPost2010Prop55
280
     0
102
RTVSPost2010PropOp55
 70
     1
102
RTVSPost2010Prop56
140
1.0
102
RTVSPost2010PropOp56
 70
     1
102
RTVSPost2010Prop57
140
1.0
102
RTVSPost2010PropOp57
 70
     1
102
RTVSPropertyOp0
 70
     1
102
RTVSPropertyOp1
 70
     1
102
RTVSPropertyOp2
 70
     1
102
RTVSPropertyOp3
 70
     1
102
RTVSPropertyOp4
 70
     1
102
RTVSPropertyOp5
 70
     1
102
RTVSPropertyOp6
 70
     1
102
RTVSPropertyOp7
 70
     1
102
RTVSPropertyOp8
 70
     1
102
RTVSPropertyOp9
 70
     1
102
RTVSPropertyOp10
 70
     1
102
RTVSPropertyOp11
 70
     1
102
RTVSPropertyOp12
 70
     1
102
RTVSPropertyOp13
 70
     1
102
RTVSPropertyOp14
 70
     1
102
RTVSPropertyOp15
 70
     1
102
RTVSPropertyOp16
 70
     1
102
RTVSPropertyOp17
 70
     1
102
RTVSPropertyOp18
 70
     1
102
RTVSPropertyOp19
 70
     1
102
RTVSPropertyOp20
 70
     1
102
RTVSPropertyOp21
 70
     1
102
RTVSPropertyOp22
 70
     1
102
RTVSPropertyOp23
 70
     1
102
RTVSPropertyOp24
 70
     1
102
RTVSPropertyOp25
 70
     1
102
RTVSPropertyOp26
 70
     1
102
RTVSPropertyOp27
 70
     1
102
RTVSPropertyOp28
 70
     1
102
RTVSPropertyOp29
 70
     1
102
RTVSPropertyOp30
 70
     1
102
RTVSPropertyOp31
 70
     1
102
RTVSPropertyOp32
 70
     1
102
RTVSPropertyOp33
 70
     1
102
RTVSPropertyOp34
 70
     1
102
RTVSPropertyOp35
 70
     1
102
RTVSPropertyOp36
 70
     1
102
RTVSPropertyOp37
 70
     1
102
RTVSPropertyOp38
 70
     1
102
RTVSPropertyOp39
 70
     1
102
RTVSPropertyOp40
 70
     1
102
RTVSPropertyOp41
 70
     1
102
RTVSPropertyOp42
 70
     1
102
RTVSPropertyOp43
 70
     1
102
RTVSPropertyOp44
 70
     1
102
RTVSPropertyOp45
 70
     1
102
RTVSPropertyOp46
 70
     1
102
RTVSPropertyOp47
 70
     1
102
RTVSPropertyOp48
 70
     1
102
RTVSPropertyOp49
 70
     1
102
RTVSPropertyOp50
 70
     1
102
RTVSPropertyOp51
 70
     0
102
RTVSPropertyOp52
 70
     0
102
RTVSPropertyOp53
 70
     1
102
RTVSPropertyOp54
 70
     1
102
RTVSPropertyOp55
 70
     1
102
RTVSPropertyOp56
 70
     1
102
RTVSPropertyOp57
 70
     1
102
RTVSPropertyOp58
 70
     1
102
RTVSPropertyOp59
 70
     1
102
RTVSPropertyOp60
 70
     1
102
RTVSPropertyOp61
 70
     1
102
RTVSPropertyOp62
 70
     1
  0
XRECORD
  5
294D
102
{ACAD_REACTORS
330
294C
102
}
330
294C
100
AcDbXrecord
280
     1
102
RTVSPost2010Prop28
280
     0
102
RTVSPost2010PropOp28
 70
     1
102
RTVSPost2010Prop29
280
     1
102
RTVSPost2010PropOp29
 70
     1
102
RTVSPost2010Prop30
280
     1
102
RTVSPost2010PropOp30
 70
     1
102
RTVSPost2010Prop31
280
     0
102
RTVSPost2010PropOp31
 70
     1
102
RTVSPost2010Prop32
280
     0
102
RTVSPost2010PropOp32
 70
     1
102
RTVSPost2010Prop33
280
     0
102
RTVSPost2010PropOp33
 70
     1
102
RTVSPost2010Prop34
280
     0
102
RTVSPost2010PropOp34
 70
     1
102
RTVSPost2010Prop35
280
     0
102
RTVSPost2010PropOp35
 70
     1
102
RTVSPost2010Prop36
280
     0
102
RTVSPost2010PropOp36
 70
     1
102
RTVSPost2010Prop37
 90
       50
102
RTVSPost2010PropOp37
 70
     1
102
RTVSPost2010Prop38
140
0.0
102
RTVSPost2010PropOp38
 70
     1
102
RTVSPost2010Prop39
140
1.0
102
RTVSPost2010PropOp39
 70
     1
102
RTVSPost2010Prop40
 90
        0
102
RTVSPost2010PropOp40
 70
     1
102
RTVSPost2010Prop41ColorIndex
 90
       18
102
RTVSPost2010Prop41ColorRGB
 90
        0
102
RTVSPost2010PropOp41
 70
     1
102
RTVSPost2010Prop42
 90
       50
102
RTVSPost2010PropOp42
 70
     1
102
RTVSPost2010Prop43
 90
        3
102
RTVSPost2010PropOp43
 70
     1
102
RTVSPost2010Prop44ColorIndex
 90
        5
102
RTVSPost2010Prop44ColorRGB
 90
      255
102
RTVSPost2010PropOp44
 70
     1
102
RTVSPost2010Prop45
280
     0
102
RTVSPost2010PropOp45
 70
     1
102
RTVSPost2010Prop46
 90
       50
102
RTVSPost2010PropOp46
 70
     1
102
RTVSPost2010Prop47
 90
       50
102
RTVSPost2010PropOp47
 70
     1
102
RTVSPost2010Prop48
 90
       50
102
RTVSPost2010PropOp48
 70
     1
102
RTVSPost2010Prop49
280
     0
102
RTVSPost2010PropOp49
 70
     1
102
RTVSPost2010Prop50
 90
       50
102
RTVSPost2010PropOp50
 70
     1
102
RTVSPost2010Prop51ColorIndex
 90
      256
102
RTVSPost2010Prop51ColorRGB
 90
-16777216
102
RTVSPost2010PropOp51
 70
     0
102
RTVSPost2010Prop52
140
1.0
102
RTVSPost2010PropOp52
 70
     0
102
RTVSPost2010Prop53
 90
        2
102
RTVSPost2010PropOp53
 70
     1
102
RTVSPost2010Prop54
  1
strokes_ogs.tif
102
RTVSPost2010PropOp54
 70
     1
102
RTVSPost2010Prop55
280
     0
102
RTVSPost2010PropOp55
 70
     1
102
RTVSPost2010Prop56
140
1.0
102
RTVSPost2010PropOp56
 70
     1
102
RTVSPost2010Prop57
140
1.0
102
RTVSPost2010PropOp57
 70
     1
102
RTVSPropertyOp0
 70
     1
102
RTVSPropertyOp1
 70
     1
102
RTVSPropertyOp2
 70
     1
102
RTVSPropertyOp3
 70
     1
102
RTVSPropertyOp4
 70
     1
102
RTVSPropertyOp5
 70
     1
102
RTVSPropertyOp6
 70
     1
102
RTVSPropertyOp7
 70
     1
102
RTVSPropertyOp8
 70
     1
102
RTVSPropertyOp9
 70
     1
102
RTVSPropertyOp10
 70
     1
102
RTVSPropertyOp11
 70
     1
102
RTVSPropertyOp12
 70
     1
102
RTVSPropertyOp13
 70
     1
102
RTVSPropertyOp14
 70
     1
102
RTVSPropertyOp15
 70
     1
102
RTVSPropertyOp16
 70
     1
102
RTVSPropertyOp17
 70
     1
102
RTVSPropertyOp18
 70
     1
102
RTVSPropertyOp19
 70
     1
102
RTVSPropertyOp20
 70
     1
102
RTVSPropertyOp21
 70
     1
102
RTVSPropertyOp22
 70
     1
102
RTVSPropertyOp23
 70
     1
102
RTVSPropertyOp24
 70
     1
102
RTVSPropertyOp25
 70
     1
102
RTVSPropertyOp26
 70
     1
102
RTVSPropertyOp27
 70
     1
102
RTVSPropertyOp28
 70
     1
102
RTVSPropertyOp29
 70
     1
102
RTVSPropertyOp30
 70
     1
102
RTVSPropertyOp31
 70
     1
102
RTVSPropertyOp32
 70
     1
102
RTVSPropertyOp33
 70
     1
102
RTVSPropertyOp34
 70
     1
102
RTVSPropertyOp35
 70
     1
102
RTVSPropertyOp36
 70
     1
102
RTVSPropertyOp37
 70
     1
102
RTVSPropertyOp38
 70
     1
102
RTVSPropertyOp39
 70
     1
102
RTVSPropertyOp40
 70
     1
102
RTVSPropertyOp41
 70
     1
102
RTVSPropertyOp42
 70
     1
102
RTVSPropertyOp43
 70
     1
102
RTVSPropertyOp44
 70
     1
102
RTVSPropertyOp45
 70
     1
102
RTVSPropertyOp46
 70
     1
102
RTVSPropertyOp47
 70
     1
102
RTVSPropertyOp48
 70
     1
102
RTVSPropertyOp49
 70
     1
102
RTVSPropertyOp50
 70
     1
102
RTVSPropertyOp51
 70
     0
102
RTVSPropertyOp52
 70
     0
102
RTVSPropertyOp53
 70
     1
102
RTVSPropertyOp54
 70
     1
102
RTVSPropertyOp55
 70
     1
102
RTVSPropertyOp56
 70
     1
102
RTVSPropertyOp57
 70
     1
102
RTVSPropertyOp58
 70
     1
102
RTVSPropertyOp59
 70
     1
102
RTVSPropertyOp60
 70
     1
102
RTVSPropertyOp61
 70
     1
102
RTVSPropertyOp62
 70
     1
  0
XRECORD
  5
294F
102
{ACAD_REACTORS
330
294E
102
}
330
294E
100
AcDbXrecord
280
     1
102
RTVSPost2010Prop28
280
     0
102
RTVSPost2010PropOp28
 70
     1
102
RTVSPost2010Prop29
280
     1
102
RTVSPost2010PropOp29
 70
     1
102
RTVSPost2010Prop30
280
     1
102
RTVSPost2010PropOp30
 70
     1
102
RTVSPost2010Prop31
280
     0
102
RTVSPost2010PropOp31
 70
     1
102
RTVSPost2010Prop32
280
     0
102
RTVSPost2010PropOp32
 70
     1
102
RTVSPost2010Prop33
280
     0
102
RTVSPost2010PropOp33
 70
     1
102
RTVSPost2010Prop34
280
     0
102
RTVSPost2010PropOp34
 70
     1
102
RTVSPost2010Prop35
280
     0
102
RTVSPost2010PropOp35
 70
     1
102
RTVSPost2010Prop36
280
     0
102
RTVSPost2010PropOp36
 70
     1
102
RTVSPost2010Prop37
 90
       50
102
RTVSPost2010PropOp37
 70
     1
102
RTVSPost2010Prop38
140
0.0
102
RTVSPost2010PropOp38
 70
     1
102
RTVSPost2010Prop39
140
1.0
102
RTVSPost2010PropOp39
 70
     1
102
RTVSPost2010Prop40
 90
        0
102
RTVSPost2010PropOp40
 70
     1
102
RTVSPost2010Prop41ColorIndex
 90
       18
102
RTVSPost2010Prop41ColorRGB
 90
        0
102
RTVSPost2010PropOp41
 70
     1
102
RTVSPost2010Prop42
 90
       50
102
RTVSPost2010PropOp42
 70
     1
102
RTVSPost2010Prop43
 90
        3
102
RTVSPost2010PropOp43
 70
     1
102
RTVSPost2010Prop44ColorIndex
 90
        5
102
RTVSPost2010Prop44ColorRGB
 90
      255
102
RTVSPost2010PropOp44
 70
     1
102
RTVSPost2010Prop45
280
     0
102
RTVSPost2010PropOp45
 70
     1
102
RTVSPost2010Prop46
 90
       50
102
RTVSPost2010PropOp46
 70
     1
102
RTVSPost2010Prop47
 90
       50
102
RTVSPost2010PropOp47
 70
     1
102
RTVSPost2010Prop48
 90
       50
102
RTVSPost2010PropOp48
 70
     1
102
RTVSPost2010Prop49
280
     0
102
RTVSPost2010PropOp49
 70
     1
102
RTVSPost2010Prop50
 90
       50
102
RTVSPost2010PropOp50
 70
     1
102
RTVSPost2010Prop51ColorIndex
 90
      256
102
RTVSPost2010Prop51ColorRGB
 90
-16777216
102
RTVSPost2010PropOp51
 70
     0
102
RTVSPost2010Prop52
140
1.0
102
RTVSPost2010PropOp52
 70
     0
102
RTVSPost2010Prop53
 90
        2
102
RTVSPost2010PropOp53
 70
     1
102
RTVSPost2010Prop54
  1
strokes_ogs.tif
102
RTVSPost2010PropOp54
 70
     1
102
RTVSPost2010Prop55
280
     0
102
RTVSPost2010PropOp55
 70
     1
102
RTVSPost2010Prop56
140
1.0
102
RTVSPost2010PropOp56
 70
     1
102
RTVSPost2010Prop57
140
1.0
102
RTVSPost2010PropOp57
 70
     1
102
RTVSPropertyOp0
 70
     1
102
RTVSPropertyOp1
 70
     1
102
RTVSPropertyOp2
 70
     1
102
RTVSPropertyOp3
 70
     1
102
RTVSPropertyOp4
 70
     1
102
RTVSPropertyOp5
 70
     1
102
RTVSPropertyOp6
 70
     1
102
RTVSPropertyOp7
 70
     1
102
RTVSPropertyOp8
 70
     1
102
RTVSPropertyOp9
 70
     1
102
RTVSPropertyOp10
 70
     1
102
RTVSPropertyOp11
 70
     1
102
RTVSPropertyOp12
 70
     1
102
RTVSPropertyOp13
 70
     1
102
RTVSPropertyOp14
 70
     1
102
RTVSPropertyOp15
 70
     1
102
RTVSPropertyOp16
 70
     1
102
RTVSPropertyOp17
 70
     1
102
RTVSPropertyOp18
 70
     1
102
RTVSPropertyOp19
 70
     1
102
RTVSPropertyOp20
 70
     1
102
RTVSPropertyOp21
 70
     1
102
RTVSPropertyOp22
 70
     1
102
RTVSPropertyOp23
 70
     1
102
RTVSPropertyOp24
 70
     1
102
RTVSPropertyOp25
 70
     1
102
RTVSPropertyOp26
 70
     1
102
RTVSPropertyOp27
 70
     1
102
RTVSPropertyOp28
 70
     1
102
RTVSPropertyOp29
 70
     1
102
RTVSPropertyOp30
 70
     1
102
RTVSPropertyOp31
 70
     1
102
RTVSPropertyOp32
 70
     1
102
RTVSPropertyOp33
 70
     1
102
RTVSPropertyOp34
 70
     1
102
RTVSPropertyOp35
 70
     1
102
RTVSPropertyOp36
 70
     1
102
RTVSPropertyOp37
 70
     1
102
RTVSPropertyOp38
 70
     1
102
RTVSPropertyOp39
 70
     1
102
RTVSPropertyOp40
 70
     1
102
RTVSPropertyOp41
 70
     1
102
RTVSPropertyOp42
 70
     1
102
RTVSPropertyOp43
 70
     1
102
RTVSPropertyOp44
 70
     1
102
RTVSPropertyOp45
 70
     1
102
RTVSPropertyOp46
 70
     1
102
RTVSPropertyOp47
 70
     1
102
RTVSPropertyOp48
 70
     1
102
RTVSPropertyOp49
 70
     1
102
RTVSPropertyOp50
 70
     1
102
RTVSPropertyOp51
 70
     0
102
RTVSPropertyOp52
 70
     0
102
RTVSPropertyOp53
 70
     1
102
RTVSPropertyOp54
 70
     1
102
RTVSPropertyOp55
 70
     1
102
RTVSPropertyOp56
 70
     1
102
RTVSPropertyOp57
 70
     1
102
RTVSPropertyOp58
 70
     1
102
RTVSPropertyOp59
 70
     1
102
RTVSPropertyOp60
 70
     1
102
RTVSPropertyOp61
 70
     1
102
RTVSPropertyOp62
 70
     1
  0
XRECORD
  5
2940
102
{ACAD_REACTORS
330
293F
102
}
330
293F
100
AcDbXrecord
280
     1
102
RTVSPost2010Prop28
280
     0
102
RTVSPost2010PropOp28
 70
     1
102
RTVSPost2010Prop29
280
     1
102
RTVSPost2010PropOp29
 70
     1
102
RTVSPost2010Prop30
280
     1
102
RTVSPost2010PropOp30
 70
     1
102
RTVSPost2010Prop31
280
     0
102
RTVSPost2010PropOp31
 70
     1
102
RTVSPost2010Prop32
280
     0
102
RTVSPost2010PropOp32
 70
     1
102
RTVSPost2010Prop33
280
     0
102
RTVSPost2010PropOp33
 70
     1
102
RTVSPost2010Prop34
280
     0
102
RTVSPost2010PropOp34
 70
     1
102
RTVSPost2010Prop35
280
     0
102
RTVSPost2010PropOp35
 70
     1
102
RTVSPost2010Prop36
280
     0
102
RTVSPost2010PropOp36
 70
     1
102
RTVSPost2010Prop37
 90
       50
102
RTVSPost2010PropOp37
 70
     1
102
RTVSPost2010Prop38
140
0.0
102
RTVSPost2010PropOp38
 70
     1
102
RTVSPost2010Prop39
140
1.0
102
RTVSPost2010PropOp39
 70
     1
102
RTVSPost2010Prop40
 90
        0
102
RTVSPost2010PropOp40
 70
     1
102
RTVSPost2010Prop41ColorIndex
 90
       18
102
RTVSPost2010Prop41ColorRGB
 90
        0
102
RTVSPost2010PropOp41
 70
     1
102
RTVSPost2010Prop42
 90
       50
102
RTVSPost2010PropOp42
 70
     1
102
RTVSPost2010Prop43
 90
        3
102
RTVSPost2010PropOp43
 70
     1
102
RTVSPost2010Prop44ColorIndex
 90
        5
102
RTVSPost2010Prop44ColorRGB
 90
      255
102
RTVSPost2010PropOp44
 70
     1
102
RTVSPost2010Prop45
280
     0
102
RTVSPost2010PropOp45
 70
     1
102
RTVSPost2010Prop46
 90
       50
102
RTVSPost2010PropOp46
 70
     1
102
RTVSPost2010Prop47
 90
       50
102
RTVSPost2010PropOp47
 70
     1
102
RTVSPost2010Prop48
 90
       50
102
RTVSPost2010PropOp48
 70
     1
102
RTVSPost2010Prop49
280
     0
102
RTVSPost2010PropOp49
 70
     1
102
RTVSPost2010Prop50
 90
       50
102
RTVSPost2010PropOp50
 70
     1
102
RTVSPost2010Prop51ColorIndex
 90
      256
102
RTVSPost2010Prop51ColorRGB
 90
-16777216
102
RTVSPost2010PropOp51
 70
     0
102
RTVSPost2010Prop52
140
1.0
102
RTVSPost2010PropOp52
 70
     0
102
RTVSPost2010Prop53
 90
        2
102
RTVSPost2010PropOp53
 70
     1
102
RTVSPost2010Prop54
  1
strokes_ogs.tif
102
RTVSPost2010PropOp54
 70
     1
102
RTVSPost2010Prop55
280
     0
102
RTVSPost2010PropOp55
 70
     1
102
RTVSPost2010Prop56
140
1.0
102
RTVSPost2010PropOp56
 70
     1
102
RTVSPost2010Prop57
140
1.0
102
RTVSPost2010PropOp57
 70
     1
102
RTVSPropertyOp0
 70
     1
102
RTVSPropertyOp1
 70
     1
102
RTVSPropertyOp2
 70
     1
102
RTVSPropertyOp3
 70
     1
102
RTVSPropertyOp4
 70
     1
102
RTVSPropertyOp5
 70
     1
102
RTVSPropertyOp6
 70
     1
102
RTVSPropertyOp7
 70
     1
102
RTVSPropertyOp8
 70
     1
102
RTVSPropertyOp9
 70
     1
102
RTVSPropertyOp10
 70
     1
102
RTVSPropertyOp11
 70
     1
102
RTVSPropertyOp12
 70
     1
102
RTVSPropertyOp13
 70
     1
102
RTVSPropertyOp14
 70
     1
102
RTVSPropertyOp15
 70
     1
102
RTVSPropertyOp16
 70
     1
102
RTVSPropertyOp17
 70
     1
102
RTVSPropertyOp18
 70
     1
102
RTVSPropertyOp19
 70
     1
102
RTVSPropertyOp20
 70
     1
102
RTVSPropertyOp21
 70
     1
102
RTVSPropertyOp22
 70
     1
102
RTVSPropertyOp23
 70
     1
102
RTVSPropertyOp24
 70
     1
102
RTVSPropertyOp25
 70
     1
102
RTVSPropertyOp26
 70
     1
102
RTVSPropertyOp27
 70
     1
102
RTVSPropertyOp28
 70
     1
102
RTVSPropertyOp29
 70
     1
102
RTVSPropertyOp30
 70
     1
102
RTVSPropertyOp31
 70
     1
102
RTVSPropertyOp32
 70
     1
102
RTVSPropertyOp33
 70
     1
102
RTVSPropertyOp34
 70
     1
102
RTVSPropertyOp35
 70
     1
102
RTVSPropertyOp36
 70
     1
102
RTVSPropertyOp37
 70
     1
102
RTVSPropertyOp38
 70
     1
102
RTVSPropertyOp39
 70
     1
102
RTVSPropertyOp40
 70
     1
102
RTVSPropertyOp41
 70
     1
102
RTVSPropertyOp42
 70
     1
102
RTVSPropertyOp43
 70
     1
102
RTVSPropertyOp44
 70
     1
102
RTVSPropertyOp45
 70
     1
102
RTVSPropertyOp46
 70
     1
102
RTVSPropertyOp47
 70
     1
102
RTVSPropertyOp48
 70
     1
102
RTVSPropertyOp49
 70
     1
102
RTVSPropertyOp50
 70
     1
102
RTVSPropertyOp51
 70
     0
102
RTVSPropertyOp52
 70
     0
102
RTVSPropertyOp53
 70
     1
102
RTVSPropertyOp54
 70
     1
102
RTVSPropertyOp55
 70
     1
102
RTVSPropertyOp56
 70
     1
102
RTVSPropertyOp57
 70
     1
102
RTVSPropertyOp58
 70
     1
102
RTVSPropertyOp59
 70
     1
102
RTVSPropertyOp60
 70
     1
102
RTVSPropertyOp61
 70
     1
102
RTVSPropertyOp62
 70
     1
  0
XRECORD
  5
2949
102
{ACAD_REACTORS
330
2948
102
}
330
2948
100
AcDbXrecord
280
     1
102
RTVSPost2010Prop28
280
     0
102
RTVSPost2010PropOp28
 70
     1
102
RTVSPost2010Prop29
280
     1
102
RTVSPost2010PropOp29
 70
     1
102
RTVSPost2010Prop30
280
     1
102
RTVSPost2010PropOp30
 70
     1
102
RTVSPost2010Prop31
280
     0
102
RTVSPost2010PropOp31
 70
     1
102
RTVSPost2010Prop32
280
     0
102
RTVSPost2010PropOp32
 70
     1
102
RTVSPost2010Prop33
280
     0
102
RTVSPost2010PropOp33
 70
     1
102
RTVSPost2010Prop34
280
     0
102
RTVSPost2010PropOp34
 70
     1
102
RTVSPost2010Prop35
280
     0
102
RTVSPost2010PropOp35
 70
     1
102
RTVSPost2010Prop36
280
     0
102
RTVSPost2010PropOp36
 70
     1
102
RTVSPost2010Prop37
 90
       50
102
RTVSPost2010PropOp37
 70
     1
102
RTVSPost2010Prop38
140
0.0
102
RTVSPost2010PropOp38
 70
     1
102
RTVSPost2010Prop39
140
1.0
102
RTVSPost2010PropOp39
 70
     1
102
RTVSPost2010Prop40
 90
        0
102
RTVSPost2010PropOp40
 70
     1
102
RTVSPost2010Prop41ColorIndex
 90
       18
102
RTVSPost2010Prop41ColorRGB
 90
        0
102
RTVSPost2010PropOp41
 70
     1
102
RTVSPost2010Prop42
 90
       50
102
RTVSPost2010PropOp42
 70
     1
102
RTVSPost2010Prop43
 90
        3
102
RTVSPost2010PropOp43
 70
     1
102
RTVSPost2010Prop44ColorIndex
 90
        5
102
RTVSPost2010Prop44ColorRGB
 90
      255
102
RTVSPost2010PropOp44
 70
     1
102
RTVSPost2010Prop45
280
     0
102
RTVSPost2010PropOp45
 70
     1
102
RTVSPost2010Prop46
 90
       50
102
RTVSPost2010PropOp46
 70
     1
102
RTVSPost2010Prop47
 90
       50
102
RTVSPost2010PropOp47
 70
     1
102
RTVSPost2010Prop48
 90
       50
102
RTVSPost2010PropOp48
 70
     1
102
RTVSPost2010Prop49
280
     0
102
RTVSPost2010PropOp49
 70
     1
102
RTVSPost2010Prop50
 90
       50
102
RTVSPost2010PropOp50
 70
     1
102
RTVSPost2010Prop51ColorIndex
 90
      256
102
RTVSPost2010Prop51ColorRGB
 90
-16777216
102
RTVSPost2010PropOp51
 70
     0
102
RTVSPost2010Prop52
140
1.0
102
RTVSPost2010PropOp52
 70
     0
102
RTVSPost2010Prop53
 90
        2
102
RTVSPost2010PropOp53
 70
     1
102
RTVSPost2010Prop54
  1
strokes_ogs.tif
102
RTVSPost2010PropOp54
 70
     1
102
RTVSPost2010Prop55
280
     0
102
RTVSPost2010PropOp55
 70
     1
102
RTVSPost2010Prop56
140
1.0
102
RTVSPost2010PropOp56
 70
     1
102
RTVSPost2010Prop57
140
1.0
102
RTVSPost2010PropOp57
 70
     1
102
RTVSPropertyOp0
 70
     1
102
RTVSPropertyOp1
 70
     1
102
RTVSPropertyOp2
 70
     1
102
RTVSPropertyOp3
 70
     1
102
RTVSPropertyOp4
 70
     1
102
RTVSPropertyOp5
 70
     1
102
RTVSPropertyOp6
 70
     1
102
RTVSPropertyOp7
 70
     1
102
RTVSPropertyOp8
 70
     1
102
RTVSPropertyOp9
 70
     1
102
RTVSPropertyOp10
 70
     1
102
RTVSPropertyOp11
 70
     1
102
RTVSPropertyOp12
 70
     1
102
RTVSPropertyOp13
 70
     1
102
RTVSPropertyOp14
 70
     1
102
RTVSPropertyOp15
 70
     1
102
RTVSPropertyOp16
 70
     1
102
RTVSPropertyOp17
 70
     1
102
RTVSPropertyOp18
 70
     1
102
RTVSPropertyOp19
 70
     1
102
RTVSPropertyOp20
 70
     1
102
RTVSPropertyOp21
 70
     1
102
RTVSPropertyOp22
 70
     1
102
RTVSPropertyOp23
 70
     1
102
RTVSPropertyOp24
 70
     1
102
RTVSPropertyOp25
 70
     1
102
RTVSPropertyOp26
 70
     1
102
RTVSPropertyOp27
 70
     1
102
RTVSPropertyOp28
 70
     1
102
RTVSPropertyOp29
 70
     1
102
RTVSPropertyOp30
 70
     1
102
RTVSPropertyOp31
 70
     1
102
RTVSPropertyOp32
 70
     1
102
RTVSPropertyOp33
 70
     1
102
RTVSPropertyOp34
 70
     1
102
RTVSPropertyOp35
 70
     1
102
RTVSPropertyOp36
 70
     1
102
RTVSPropertyOp37
 70
     1
102
RTVSPropertyOp38
 70
     1
102
RTVSPropertyOp39
 70
     1
102
RTVSPropertyOp40
 70
     1
102
RTVSPropertyOp41
 70
     1
102
RTVSPropertyOp42
 70
     1
102
RTVSPropertyOp43
 70
     1
102
RTVSPropertyOp44
 70
     1
102
RTVSPropertyOp45
 70
     1
102
RTVSPropertyOp46
 70
     1
102
RTVSPropertyOp47
 70
     1
102
RTVSPropertyOp48
 70
     1
102
RTVSPropertyOp49
 70
     1
102
RTVSPropertyOp50
 70
     1
102
RTVSPropertyOp51
 70
     0
102
RTVSPropertyOp52
 70
     0
102
RTVSPropertyOp53
 70
     1
102
RTVSPropertyOp54
 70
     1
102
RTVSPropertyOp55
 70
     1
102
RTVSPropertyOp56
 70
     1
102
RTVSPropertyOp57
 70
     1
102
RTVSPropertyOp58
 70
     1
102
RTVSPropertyOp59
 70
     1
102
RTVSPropertyOp60
 70
     1
102
RTVSPropertyOp61
 70
     1
102
RTVSPropertyOp62
 70
     1
  0
XRECORD
  5
2951
102
{ACAD_REACTORS
330
2950
102
}
330
2950
100
AcDbXrecord
280
     1
102
RTVSPost2010Prop28
280
     0
102
RTVSPost2010PropOp28
 70
     1
102
RTVSPost2010Prop29
280
     1
102
RTVSPost2010PropOp29
 70
     1
102
RTVSPost2010Prop30
280
     1
102
RTVSPost2010PropOp30
 70
     1
102
RTVSPost2010Prop31
280
     0
102
RTVSPost2010PropOp31
 70
     1
102
RTVSPost2010Prop32
280
     0
102
RTVSPost2010PropOp32
 70
     1
102
RTVSPost2010Prop33
280
     0
102
RTVSPost2010PropOp33
 70
     1
102
RTVSPost2010Prop34
280
     0
102
RTVSPost2010PropOp34
 70
     1
102
RTVSPost2010Prop35
280
     0
102
RTVSPost2010PropOp35
 70
     1
102
RTVSPost2010Prop36
280
     0
102
RTVSPost2010PropOp36
 70
     1
102
RTVSPost2010Prop37
 90
       50
102
RTVSPost2010PropOp37
 70
     1
102
RTVSPost2010Prop38
140
0.0
102
RTVSPost2010PropOp38
 70
     1
102
RTVSPost2010Prop39
140
1.0
102
RTVSPost2010PropOp39
 70
     1
102
RTVSPost2010Prop40
 90
        0
102
RTVSPost2010PropOp40
 70
     1
102
RTVSPost2010Prop41ColorIndex
 90
       18
102
RTVSPost2010Prop41ColorRGB
 90
        0
102
RTVSPost2010PropOp41
 70
     1
102
RTVSPost2010Prop42
 90
       50
102
RTVSPost2010PropOp42
 70
     1
102
RTVSPost2010Prop43
 90
        3
102
RTVSPost2010PropOp43
 70
     1
102
RTVSPost2010Prop44ColorIndex
 90
        5
102
RTVSPost2010Prop44ColorRGB
 90
      255
102
RTVSPost2010PropOp44
 70
     1
102
RTVSPost2010Prop45
280
     0
102
RTVSPost2010PropOp45
 70
     1
102
RTVSPost2010Prop46
 90
       50
102
RTVSPost2010PropOp46
 70
     1
102
RTVSPost2010Prop47
 90
       50
102
RTVSPost2010PropOp47
 70
     1
102
RTVSPost2010Prop48
 90
       50
102
RTVSPost2010PropOp48
 70
     1
102
RTVSPost2010Prop49
280
     0
102
RTVSPost2010PropOp49
 70
     1
102
RTVSPost2010Prop50
 90
       50
102
RTVSPost2010PropOp50
 70
     1
102
RTVSPost2010Prop51ColorIndex
 90
      256
102
RTVSPost2010Prop51ColorRGB
 90
-16777216
102
RTVSPost2010PropOp51
 70
     0
102
RTVSPost2010Prop52
140
1.0
102
RTVSPost2010PropOp52
 70
     0
102
RTVSPost2010Prop53
 90
        2
102
RTVSPost2010PropOp53
 70
     1
102
RTVSPost2010Prop54
  1
strokes_ogs.tif
102
RTVSPost2010PropOp54
 70
     1
102
RTVSPost2010Prop55
280
     0
102
RTVSPost2010PropOp55
 70
     1
102
RTVSPost2010Prop56
140
1.0
102
RTVSPost2010PropOp56
 70
     1
102
RTVSPost2010Prop57
140
1.0
102
RTVSPost2010PropOp57
 70
     1
102
RTVSPropertyOp0
 70
     1
102
RTVSPropertyOp1
 70
     1
102
RTVSPropertyOp2
 70
     1
102
RTVSPropertyOp3
 70
     1
102
RTVSPropertyOp4
 70
     1
102
RTVSPropertyOp5
 70
     1
102
RTVSPropertyOp6
 70
     1
102
RTVSPropertyOp7
 70
     1
102
RTVSPropertyOp8
 70
     1
102
RTVSPropertyOp9
 70
     1
102
RTVSPropertyOp10
 70
     1
102
RTVSPropertyOp11
 70
     1
102
RTVSPropertyOp12
 70
     1
102
RTVSPropertyOp13
 70
     1
102
RTVSPropertyOp14
 70
     1
102
RTVSPropertyOp15
 70
     1
102
RTVSPropertyOp16
 70
     1
102
RTVSPropertyOp17
 70
     1
102
RTVSPropertyOp18
 70
     1
102
RTVSPropertyOp19
 70
     1
102
RTVSPropertyOp20
 70
     1
102
RTVSPropertyOp21
 70
     1
102
RTVSPropertyOp22
 70
     1
102
RTVSPropertyOp23
 70
     1
102
RTVSPropertyOp24
 70
     1
102
RTVSPropertyOp25
 70
     1
102
RTVSPropertyOp26
 70
     1
102
RTVSPropertyOp27
 70
     1
102
RTVSPropertyOp28
 70
     1
102
RTVSPropertyOp29
 70
     1
102
RTVSPropertyOp30
 70
     1
102
RTVSPropertyOp31
 70
     1
102
RTVSPropertyOp32
 70
     1
102
RTVSPropertyOp33
 70
     1
102
RTVSPropertyOp34
 70
     1
102
RTVSPropertyOp35
 70
     1
102
RTVSPropertyOp36
 70
     1
102
RTVSPropertyOp37
 70
     1
102
RTVSPropertyOp38
 70
     1
102
RTVSPropertyOp39
 70
     1
102
RTVSPropertyOp40
 70
     1
102
RTVSPropertyOp41
 70
     1
102
RTVSPropertyOp42
 70
     1
102
RTVSPropertyOp43
 70
     1
102
RTVSPropertyOp44
 70
     1
102
RTVSPropertyOp45
 70
     1
102
RTVSPropertyOp46
 70
     1
102
RTVSPropertyOp47
 70
     1
102
RTVSPropertyOp48
 70
     1
102
RTVSPropertyOp49
 70
     1
102
RTVSPropertyOp50
 70
     1
102
RTVSPropertyOp51
 70
     0
102
RTVSPropertyOp52
 70
     0
102
RTVSPropertyOp53
 70
     1
102
RTVSPropertyOp54
 70
     1
102
RTVSPropertyOp55
 70
     1
102
RTVSPropertyOp56
 70
     1
102
RTVSPropertyOp57
 70
     1
102
RTVSPropertyOp58
 70
     1
102
RTVSPropertyOp59
 70
     1
102
RTVSPropertyOp60
 70
     1
102
RTVSPropertyOp61
 70
     1
102
RTVSPropertyOp62
 70
     1
  0
ENDSEC
  0
EOF
