  0
SECTION
  2
HEADER
  9
$CLAYER
  8
1
  9
$LTSCALE
 40
3.0
  0
ENDSEC
  0
SECTION
  2
TABLES
  0
TABLE
  2
LTYPE
 70
     4
  0
LTYPE
  2
CONTINUOUS
  3
solid line
 70
    64
 72
    65
 73
     0
 40
0.0
  0
LTYPE
  2
DASHED
  3
__ __ __ __ __ __ __ __ __ __ __ __ __ __ __
 70
    64
 72
    65
 73
     2
 40
0.75
 49
0.5
 49
-0.25
  0
LTYPE
  2
CENTER
  3
____ _ ____ _ ____ _ ____ _ ____ _ ____ _ ____
 70
    64
 72
    65
 73
     4
 40
2.0
 49
1.25
 49
-0.25
 49
0.25
 49
-0.25
  0
LTYPE
  2
PHANTOM
  3
_____ _ _ _____ _ _ _____ _ _ _____ _ _ ____
 70
    64
 72
    65
 73
     6
 40
2.5
 49
1.25
 49
-0.25
 49
0.25
 49
-0.25
 49
0.25
 49
-0.25
  0
ENDTAB
  0
TABLE
  2
LAYER
 70
     1
  0
LAYER
  2
0
 70
    64
 62
     7
  6
CONTINUOUS
  0
ENDTAB
  0
TABLE
  2
STYLE
 70
     1
  0
STYLE
  2
STANDARD
 70
     0
 40
0.000000
 41
1.000000
 50
0.000000
 71
     0
 42
3.000000
  3
txt
  4
BIGFONT
  0
ENDTAB
  0
ENDSEC
  0
SECTION
  2
BLOCKS
  0
ENDSEC
  0
SECTION
  2
ENTITIES
  0
LINE
  8
0
  6
CENTER
 10
400.000000
 20
352.592194
 11
400.000000
 21
242.451874
  0
LINE
  8
0
  6
CENTER
 10
344.109558
 20
290.000000
 11
456.738617
 21
290.000000
  0
LINE
  8
0
  6
CONTINUOUS
 10
372.000000
 20
330.011261
 11
372.000000
 21
309.088226
  0
LINE
  8
0
  6
CONTINUOUS
 10
440.500000
 20
329.793060
 11
440.500000
 21
250.206924
  0
LINE
  8
0
  6
CONTINUOUS
 10
400.000000
 20
330.500000
 11
440.500000
 21
329.793060
  0
LINE
  8
0
  6
CONTINUOUS
 10
400.000000
 20
330.500000
 11
359.500000
 21
329.793060
  0
LINE
  8
0
  6
CONTINUOUS
 10
400.000000
 20
249.500000
 11
359.500000
 21
250.206924
  0
LINE
  8
0
  6
CONTINUOUS
 10
400.000000
 20
249.500000
 11
440.500000
 21
250.206924
  0
LINE
  8
0
  6
DASHED
 10
377.000000
 20
254.366867
 11
377.000000
 21
258.298279
  0
LINE
  8
0
  6
DASHED
 10
423.000000
 20
254.366867
 11
423.000000
 21
258.298279
  0
LINE
  8
0
  6
DASHED
 10
421.034912
 20
327.632843
 11
400.000000
 21
328.000000
  0
LINE
  8
0
  6
DASHED
 10
378.965088
 20
327.632843
 11
400.000000
 21
328.000000
  0
LINE
  8
0
  6
DASHED
 10
421.034912
 20
252.367172
 11
400.000000
 21
252.000000
  0
LINE
  8
0
  6
DASHED
 10
378.965088
 20
252.367172
 11
400.000000
 21
252.000000
  0
ARC
  8
0
  6
DASHED
 10
400.000000
 20
290.000000
 40
38.000000
 50
-50.643299
 51
50.643299
  0
ARC
  8
0
  6
DASHED
 10
426.000000
 20
321.701721
 40
3.000000
 50
180.000000
 51
230.643295
  0
ARC
  8
0
  6
DASHED
 10
374.000000
 20
321.701721
 40
3.000000
 50
-50.643299
 51
0.000000
  0
ARC
  8
0
  6
DASHED
 10
374.000000
 20
258.298279
 40
3.000000
 50
0.000000
 51
50.643299
  0
ARC
  8
0
  6
DASHED
 10
426.000000
 20
258.298279
 40
3.000000
 50
129.356705
 51
180.000000
  0
ARC
  8
0
  6
DASHED
 10
379.000000
 20
325.633148
 40
2.000000
 50
91.000000
 51
180.000000
  0
ARC
  8
0
  6
DASHED
 10
421.000000
 20
325.633148
 40
2.000000
 50
0.000000
 51
89.000000
  0
ARC
  8
0
  6
DASHED
 10
379.000000
 20
254.366867
 40
2.000000
 50
180.000000
 51
269.000000
  0
ARC
  8
0
  6
DASHED
 10
421.000000
 20
254.366867
 40
2.000000
 50
-89.000000
 51
0.000000
  0
LINE
  8
0
  6
DASHED
 10
377.000000
 20
325.633148
 11
377.000000
 21
321.701721
  0
LINE
  8
0
  6
DASHED
 10
423.000000
 20
325.633148
 11
423.000000
 21
321.701721
  0
ARC
  8
0
  6
DASHED
 10
400.000000
 20
290.000000
 40
38.000000
 50
129.356705
 51
230.643295
  0
LINE
  8
0
  6
CONTINUOUS
 10
406.965088
 20
275.085358
 11
422.269745
 21
274.818207
  0
LINE
  8
0
  6
CONTINUOUS
 10
409.298004
 20
279.044647
 11
421.571991
 21
278.830383
  0
LINE
  8
0
  6
CONTINUOUS
 10
393.034912
 20
274.867157
 11
377.122162
 21
274.589417
  0
LINE
  8
0
  6
CONTINUOUS
 10
390.701996
 20
278.826447
 11
379.174255
 21
278.625214
  0
LINE
  8
0
  6
CONTINUOUS
 10
395.000000
 20
276.866852
 11
395.000000
 21
280.089935
  0
LINE
  8
0
  6
CONTINUOUS
 10
405.000000
 20
302.914948
 11
405.000000
 21
300.728607
  0
LINE
  8
0
  6
CONTINUOUS
 10
406.965088
 20
304.914642
 11
422.269745
 21
305.181793
  0
LINE
  8
0
  6
CONTINUOUS
 10
409.298004
 20
300.955353
 11
421.571991
 21
301.169617
  0
LINE
  8
0
  6
CONTINUOUS
 10
393.034912
 20
305.132843
 11
377.122162
 21
305.410583
  0
LINE
  8
0
  6
CONTINUOUS
 10
390.701996
 20
301.173553
 11
379.174255
 21
301.374786
  0
LINE
  8
0
  6
CONTINUOUS
 10
394.571136
 20
275.629303
 11
392.238220
 21
279.588593
  0
LINE
  8
0
  6
CONTINUOUS
 10
392.238220
 20
300.411407
 11
394.571136
 21
304.370697
  0
LINE
  8
0
  6
CONTINUOUS
 10
407.761780
 20
300.193237
 11
405.428864
 21
304.152496
  0
LINE
  8
0
  6
CONTINUOUS
 10
407.761780
 20
279.806793
 11
405.428864
 21
275.847504
  0
ARC
  8
0
  6
CONTINUOUS
 10
407.000000
 20
277.085052
 40
2.000000
 50
180.000000
 51
269.000000
  0
ARC
  8
0
  6
CONTINUOUS
 10
409.332916
 20
281.044342
 40
2.000000
 50
215.590439
 51
269.000000
  0
ARC
  8
0
  6
CONTINUOUS
 10
409.332916
 20
298.955658
 40
2.000000
 50
91.000000
 51
144.409561
  0
ARC
  8
0
  6
CONTINUOUS
 10
407.000000
 20
302.914948
 40
2.000000
 50
91.000000
 51
180.000000
  0
ARC
  8
0
  6
CONTINUOUS
 10
393.000000
 20
303.133148
 40
2.000000
 50
0.000000
 51
89.000000
  0
ARC
  8
0
  6
CONTINUOUS
 10
390.667084
 20
299.173859
 40
2.000000
 50
29.985052
 51
89.000000
  0
ARC
  8
0
  6
CONTINUOUS
 10
390.667084
 20
280.826141
 40
2.000000
 50
271.000000
 51
330.014954
  0
ARC
  8
0
  6
CONTINUOUS
 10
393.000000
 20
276.866852
 40
2.000000
 50
-89.000000
 51
0.000000
  0
LINE
  8
0
  6
CONTINUOUS
 10
359.500000
 20
329.793060
 11
359.500000
 21
250.206924
  0
LINE
  8
0
  6
CONTINUOUS
 10
425.000000
 20
272.965668
 11
425.000000
 21
280.000000
  0
LINE
  8
0
  6
CONTINUOUS
 10
432.000000
 20
306.000000
 11
425.000000
 21
306.000000
  0
LINE
  8
0
  6
CONTINUOUS
 10
432.000000
 20
274.000000
 11
425.000000
 21
274.000000
  0
LINE
  8
0
  6
CONTINUOUS
 10
432.499908
 20
263.145081
 11
432.499908
 21
263.597717
  0
LINE
  8
0
  6
CONTINUOUS
 10
432.499908
 20
316.854919
 11
432.499908
 21
316.402283
  0
LINE
  8
0
  6
CONTINUOUS
 10
435.399994
 20
269.149994
 11
433.000000
 21
269.149994
  0
LINE
  8
0
  6
CONTINUOUS
 10
432.000000
 20
274.000000
 11
433.000000
 21
273.422638
  0
LINE
  8
0
  6
CONTINUOUS
 10
438.000000
 20
309.500000
 11
435.399994
 21
309.500000
  0
LINE
  8
0
  6
CONTINUOUS
 10
435.399994
 20
310.850006
 11
435.399994
 21
269.149994
  0
LINE
  8
0
  6
CONTINUOUS
 10
435.399994
 20
310.850006
 11
433.000000
 21
310.850006
  0
LINE
  8
0
  6
CONTINUOUS
 10
433.000000
 20
310.850006
 11
433.000000
 21
300.000000
  0
LINE
  8
0
  6
CONTINUOUS
 10
432.000000
 20
306.000000
 11
433.000000
 21
306.577362
  0
LINE
  8
0
  6
CONTINUOUS
 10
433.815857
 20
314.522919
 11
436.684052
 21
313.478973
  0
ARC
  8
0
  6
CONTINUOUS
 10
436.000000
 20
311.599579
 40
2.000000
 50
0.000000
 51
70.000000
  0
ARC
  8
0
  6
CONTINUOUS
 10
436.000000
 20
268.400421
 40
2.000000
 50
-70.000000
 51
0.000000
  0
LINE
  8
0
  6
CONTINUOUS
 10
438.000000
 20
270.500000
 11
435.399994
 21
270.500000
  0
LINE
  8
0
  6
CONTINUOUS
 10
433.815857
 20
265.477112
 11
436.684052
 21
266.521027
  0
ARC
  8
0
  6
CONTINUOUS
 10
434.499908
 20
316.402283
 40
2.000000
 50
180.000000
 51
250.000000
  0
ARC
  8
0
  6
CONTINUOUS
 10
434.499908
 20
263.597717
 40
2.000000
 50
110.000008
 51
180.000000
  0
LINE
  8
0
  6
CONTINUOUS
 10
375.000000
 20
273.233276
 11
375.000000
 21
280.000000
  0
LINE
  8
0
  6
CONTINUOUS
 10
368.000000
 20
306.000000
 11
375.000000
 21
306.000000
  0
LINE
  8
0
  6
CONTINUOUS
 10
368.000000
 20
274.000000
 11
375.000000
 21
274.000000
  0
LINE
  8
0
  6
CONTINUOUS
 10
364.600006
 20
269.149994
 11
367.000000
 21
269.149994
  0
LINE
  8
0
  6
CONTINUOUS
 10
368.000000
 20
274.000000
 11
367.000000
 21
273.422638
  0
LINE
  8
0
  6
CONTINUOUS
 10
362.000000
 20
309.500000
 11
364.600006
 21
309.500000
  0
LINE
  8
0
  6
CONTINUOUS
 10
364.600006
 20
310.850006
 11
364.600006
 21
269.149994
  0
LINE
  8
0
  6
CONTINUOUS
 10
364.600006
 20
310.850006
 11
367.000000
 21
310.850006
  0
LINE
  8
0
  6
CONTINUOUS
 10
367.000000
 20
310.850006
 11
367.000000
 21
300.000000
  0
LINE
  8
0
  6
CONTINUOUS
 10
368.000000
 20
306.000000
 11
367.000000
 21
306.577362
  0
LINE
  8
0
  6
CONTINUOUS
 10
366.184052
 20
314.522858
 11
363.315948
 21
313.478973
  0
ARC
  8
0
  6
CONTINUOUS
 10
364.000000
 20
311.599579
 40
2.000000
 50
-250.000000
 51
-180.000000
  0
ARC
  8
0
  6
CONTINUOUS
 10
364.000000
 20
268.400421
 40
2.000000
 50
-180.000000
 51
-110.000000
  0
LINE
  8
0
  6
CONTINUOUS
 10
362.000000
 20
270.500000
 11
364.600006
 21
270.500000
  0
LINE
  8
0
  6
CONTINUOUS
 10
367.500000
 20
316.524719
 11
367.500000
 21
316.402252
  0
ARC
  8
0
  6
CONTINUOUS
 10
365.500000
 20
316.402252
 40
2.000000
 50
-69.999992
 51
0.000000
  0
LINE
  8
0
  6
CONTINUOUS
 10
375.000000
 20
300.000000
 11
375.000000
 21
306.766724
  0
LINE
  8
0
  6
CONTINUOUS
 10
362.000000
 20
268.400421
 11
362.000000
 21
311.599579
  0
LINE
  8
0
  6
CONTINUOUS
 10
425.000000
 20
300.000000
 11
425.000000
 21
307.034332
  0
LINE
  8
0
  6
CONTINUOUS
 10
438.000000
 20
268.400421
 11
438.000000
 21
311.599579
  0
LINE
  8
0
  6
CONTINUOUS
 10
426.000000
 20
306.000000
 11
426.000000
 21
300.000000
  0
LINE
  8
0
  6
CONTINUOUS
 10
434.999908
 20
297.799988
 11
365.000092
 21
297.799988
  0
LINE
  8
0
  6
CONTINUOUS
 10
432.999908
 20
295.656860
 11
428.149902
 21
295.656860
  0
LINE
  8
0
  6
CONTINUOUS
 10
425.000000
 20
302.500000
 11
421.803345
 21
302.500000
  0
LINE
  8
0
  6
CONTINUOUS
 10
425.000000
 20
277.500000
 11
421.803345
 21
277.500000
  0
LINE
  8
0
  6
CONTINUOUS
 10
434.999908
 20
300.000000
 11
425.000000
 21
300.000000
  0
LINE
  8
0
  6
CONTINUOUS
 10
432.000000
 20
306.000000
 11
426.000000
 21
300.000000
  0
LINE
  8
0
  6
CONTINUOUS
 10
426.000000
 20
306.000000
 11
432.000000
 21
300.000000
  0
LINE
  8
0
  6
CONTINUOUS
 10
426.000000
 20
274.000000
 11
426.000000
 21
280.000000
  0
LINE
  8
0
  6
CONTINUOUS
 10
432.000000
 20
274.000000
 11
426.000000
 21
280.000000
  0
LINE
  8
0
  6
CONTINUOUS
 10
426.000000
 20
274.000000
 11
432.000000
 21
280.000000
  0
LINE
  8
0
  6
CONTINUOUS
 10
434.999908
 20
280.000000
 11
425.000000
 21
280.000000
  0
LINE
  8
0
  6
CONTINUOUS
 10
434.999908
 20
300.000000
 11
434.999908
 21
280.000000
  0
LINE
  8
0
  6
CONTINUOUS
 10
432.000000
 20
306.000000
 11
432.000000
 21
300.000000
  0
LINE
  8
0
  6
CONTINUOUS
 10
432.000000
 20
274.000000
 11
432.000000
 21
280.000000
  0
LINE
  8
0
  6
CONTINUOUS
 10
374.000000
 20
306.000000
 11
374.000000
 21
300.000000
  0
LINE
  8
0
  6
CONTINUOUS
 10
365.000092
 20
300.000000
 11
375.000000
 21
300.000000
  0
LINE
  8
0
  6
CONTINUOUS
 10
368.000000
 20
306.000000
 11
374.000000
 21
300.000000
  0
LINE
  8
0
  6
CONTINUOUS
 10
374.000000
 20
306.000000
 11
368.000000
 21
300.000000
  0
LINE
  8
0
  6
CONTINUOUS
 10
374.000000
 20
274.000000
 11
374.000000
 21
280.000000
  0
LINE
  8
0
  6
CONTINUOUS
 10
368.000000
 20
274.000000
 11
374.000000
 21
280.000000
  0
LINE
  8
0
  6
CONTINUOUS
 10
374.000000
 20
274.000000
 11
368.000000
 21
280.000000
  0
LINE
  8
0
  6
CONTINUOUS
 10
365.000092
 20
280.000000
 11
375.000000
 21
280.000000
  0
LINE
  8
0
  6
CONTINUOUS
 10
368.000000
 20
306.000000
 11
368.000000
 21
300.000000
  0
LINE
  8
0
  6
CONTINUOUS
 10
368.000000
 20
274.000000
 11
368.000000
 21
280.000000
  0
LINE
  8
0
  6
CONTINUOUS
 10
375.000000
 20
302.500000
 11
378.602112
 21
302.500000
  0
LINE
  8
0
  6
CONTINUOUS
 10
375.000000
 20
277.500000
 11
378.602112
 21
277.500000
  0
LINE
  8
0
  6
CONTINUOUS
 10
432.999908
 20
284.000000
 11
428.149902
 21
284.000000
  0
LINE
  8
0
  6
CONTINUOUS
 10
426.999908
 20
283.750000
 11
426.999908
 21
296.250000
  0
LINE
  8
0
  6
CONTINUOUS
 10
414.999908
 20
283.500000
 11
414.999908
 21
296.500000
  0
LINE
  8
0
  6
CONTINUOUS
 10
414.999908
 20
296.500000
 11
385.000092
 21
296.500000
  0
LINE
  8
0
  6
CONTINUOUS
 10
428.149902
 20
283.750000
 11
428.149902
 21
296.250000
  0
LINE
  8
0
  6
CONTINUOUS
 10
428.149902
 20
296.250000
 11
426.999908
 21
296.250000
  0
LINE
  8
0
  6
CONTINUOUS
 10
428.149902
 20
283.750000
 11
426.999908
 21
283.750000
  0
LINE
  8
0
  6
CONTINUOUS
 10
426.999908
 20
284.000000
 11
414.999908
 21
284.000000
  0
LINE
  8
0
  6
CONTINUOUS
 10
426.999908
 20
295.656860
 11
414.999908
 21
295.656860
  0
LINE
  8
0
  6
CONTINUOUS
 10
432.999908
 20
284.000000
 11
432.999908
 21
296.000000
  0
LINE
  8
0
  6
CONTINUOUS
 10
432.999908
 20
284.000000
 11
434.999908
 21
282.845306
  0
LINE
  8
0
  6
CONTINUOUS
 10
432.999908
 20
296.000000
 11
434.999908
 21
297.154694
  0
LINE
  8
0
  6
CONTINUOUS
 10
367.000092
 20
295.656860
 11
371.850098
 21
295.656860
  0
LINE
  8
0
  6
CONTINUOUS
 10
365.000092
 20
300.000000
 11
365.000092
 21
280.000000
  0
LINE
  8
0
  6
CONTINUOUS
 10
367.000092
 20
284.000000
 11
371.850098
 21
284.000000
  0
LINE
  8
0
  6
CONTINUOUS
 10
373.000092
 20
283.750000
 11
373.000092
 21
296.250000
  0
LINE
  8
0
  6
CONTINUOUS
 10
371.850098
 20
283.750000
 11
371.850098
 21
296.250000
  0
LINE
  8
0
  6
CONTINUOUS
 10
371.850098
 20
296.250000
 11
373.000092
 21
296.250000
  0
LINE
  8
0
  6
CONTINUOUS
 10
371.850098
 20
283.750000
 11
373.000092
 21
283.750000
  0
LINE
  8
0
  6
CONTINUOUS
 10
367.000092
 20
284.000000
 11
367.000092
 21
296.000000
  0
LINE
  8
0
  6
CONTINUOUS
 10
367.000092
 20
284.000000
 11
365.000092
 21
282.845306
  0
LINE
  8
0
  6
CONTINUOUS
 10
367.000092
 20
296.000000
 11
365.000092
 21
297.154694
  0
LINE
  8
0
  6
CONTINUOUS
 10
385.000092
 20
283.500000
 11
414.999908
 21
283.500000
  0
LINE
  8
0
  6
CONTINUOUS
 10
385.000092
 20
283.500000
 11
385.000092
 21
296.500000
  0
LINE
  8
0
  6
CONTINUOUS
 10
373.000092
 20
284.000000
 11
385.000092
 21
284.000000
  0
LINE
  8
0
  6
CONTINUOUS
 10
373.000092
 20
295.656860
 11
385.000092
 21
295.656860
  0
LINE
  8
0
  6
CONTINUOUS
 10
364.999969
 20
317.299988
 11
364.999969
 21
316.469757
  0
LINE
  8
0
  6
CONTINUOUS
 10
360.999969
 20
317.000000
 11
364.999969
 21
317.000031
  0
LINE
  8
0
  6
CONTINUOUS
 10
360.999969
 20
317.000000
 11
360.999969
 21
316.001465
  0
LINE
  8
0
  6
CONTINUOUS
 10
364.999969
 20
317.299988
 11
366.000000
 21
317.299988
  0
LINE
  8
0
  6
CONTINUOUS
 10
366.000000
 20
318.000000
 11
366.000000
 21
316.738983
  0
LINE
  8
0
  6
CONTINUOUS
 10
359.500000
 20
318.170197
 11
366.000000
 21
318.000000
  0
LINE
  8
0
  6
CONTINUOUS
 10
364.999969
 20
262.700012
 11
364.999969
 21
263.530243
  0
LINE
  8
0
  6
CONTINUOUS
 10
360.999969
 20
263.000000
 11
364.999969
 21
262.999969
  0
LINE
  8
0
  6
CONTINUOUS
 10
360.999969
 20
263.000000
 11
360.999969
 21
263.998535
  0
LINE
  8
0
  6
CONTINUOUS
 10
364.999969
 20
262.700012
 11
366.000000
 21
262.700012
  0
LINE
  8
0
  6
CONTINUOUS
 10
366.000000
 20
262.000000
 11
366.000000
 21
263.261017
  0
LINE
  8
0
  6
CONTINUOUS
 10
359.500000
 20
261.829803
 11
366.000000
 21
262.000000
  0
LINE
  8
0
  6
CONTINUOUS
 10
367.000000
 20
269.149994
 11
367.000000
 21
280.000000
  0
LINE
  8
0
  6
CONTINUOUS
 10
433.000000
 20
269.149994
 11
433.000000
 21
280.000000
  0
LINE
  8
0
  6
CONTINUOUS
 10
369.873840
 20
315.589569
 11
370.033386
 21
311.760803
  0
LINE
  8
0
  6
CONTINUOUS
 10
370.033386
 20
311.760803
 11
373.144226
 21
307.533234
  0
LINE
  8
0
  6
CONTINUOUS
 10
373.144226
 20
307.533234
 11
376.813446
 21
306.017670
  0
LINE
  8
0
  6
CONTINUOUS
 10
376.813446
 20
306.017670
 11
379.206421
 21
301.311493
  0
LINE
  8
0
  6
CONTINUOUS
 10
379.206421
 20
301.311493
 11
383.832825
 21
299.716187
  0
LINE
  8
0
  6
CONTINUOUS
 10
383.832825
 20
299.716187
 11
390.612915
 21
300.354309
  0
LINE
  8
0
  6
CONTINUOUS
 10
390.612915
 20
300.354309
 11
396.914398
 21
299.716187
  0
LINE
  8
0
  6
CONTINUOUS
 10
396.914398
 20
299.716187
 11
404.890961
 21
300.753143
  0
LINE
  8
0
  6
CONTINUOUS
 10
404.890961
 20
300.753143
 11
411.272217
 21
299.317352
  0
LINE
  8
0
  6
CONTINUOUS
 10
411.272217
 20
299.317352
 11
417.015350
 21
301.072205
  0
LINE
  8
0
  6
CONTINUOUS
 10
417.015350
 20
301.072205
 11
421.402435
 21
300.194794
  0
LINE
  8
0
  6
CONTINUOUS
 10
421.402435
 20
300.194794
 11
422.359619
 21
305.698608
  0
LINE
  8
0
  6
CONTINUOUS
 10
422.359619
 20
305.698608
 11
429.139709
 21
309.128540
  0
LINE
  8
0
  6
CONTINUOUS
 10
429.139709
 20
309.128540
 11
429.299225
 21
314.074005
  0
LINE
  8
0
  6
CONTINUOUS
 10
429.299225
 20
314.074005
 11
433.134827
 21
317.406555
  0
LINE
  8
0
  6
CONTINUOUS
 10
369.873840
 20
264.410461
 11
370.033386
 21
268.239197
  0
LINE
  8
0
  6
CONTINUOUS
 10
370.033386
 20
268.239197
 11
373.144226
 21
272.466766
  0
LINE
  8
0
  6
CONTINUOUS
 10
373.144226
 20
272.466766
 11
376.813446
 21
273.982330
  0
LINE
  8
0
  6
CONTINUOUS
 10
376.813446
 20
273.982330
 11
379.206421
 21
278.688507
  0
LINE
  8
0
  6
CONTINUOUS
 10
379.206421
 20
278.688507
 11
383.832825
 21
280.283813
  0
LINE
  8
0
  6
CONTINUOUS
 10
383.832825
 20
280.283813
 11
390.612915
 21
279.645691
  0
LINE
  8
0
  6
CONTINUOUS
 10
390.612915
 20
279.645691
 11
396.914398
 21
280.283813
  0
LINE
  8
0
  6
CONTINUOUS
 10
396.914398
 20
280.283813
 11
404.890961
 21
279.246857
  0
LINE
  8
0
  6
CONTINUOUS
 10
404.890961
 20
279.246857
 11
411.272217
 21
280.682648
  0
LINE
  8
0
  6
CONTINUOUS
 10
411.272217
 20
280.682648
 11
417.015350
 21
278.927795
  0
LINE
  8
0
  6
CONTINUOUS
 10
417.015350
 20
278.927795
 11
421.402435
 21
279.805206
  0
LINE
  8
0
  6
CONTINUOUS
 10
421.402435
 20
279.805206
 11
422.359619
 21
274.301392
  0
LINE
  8
0
  6
CONTINUOUS
 10
422.359619
 20
274.301392
 11
429.139709
 21
270.871460
  0
LINE
  8
0
  6
CONTINUOUS
 10
429.139709
 20
270.871460
 11
429.299225
 21
265.925995
  0
LINE
  8
0
  6
CONTINUOUS
 10
429.299225
 20
265.925995
 11
433.134827
 21
262.593445
  0
LINE
  8
0
  6
CONTINUOUS
 10
405.000000
 20
277.085052
 11
405.000000
 21
279.271393
  0
LINE
  8
0
  6
CONTINUOUS
 10
395.000000
 20
299.910065
 11
395.000000
 21
303.133148
  0
LINE
  8
0
  6
CONTINUOUS
 10
372.000000
 20
249.988739
 11
372.000000
 21
270.911774
  0
LINE
  8
0
  6
CONTINUOUS
 10
366.567902
 20
263.108093
 11
362.974121
 21
264.075653
  0
LINE
  8
0
  6
CONTINUOUS
 10
362.974121
 20
264.075653
 11
359.500000
 21
263.939941
  0
LINE
  8
0
  6
CONTINUOUS
 10
366.567902
 20
263.108093
 11
369.873840
 21
264.410461
  0
LINE
  8
0
  6
CONTINUOUS
 10
362.974121
 20
315.924347
 11
359.500000
 21
316.060059
  0
LINE
  8
0
  6
CONTINUOUS
 10
366.567902
 20
316.891907
 11
362.974121
 21
315.924347
  0
LINE
  8
0
  6
CONTINUOUS
 10
366.567902
 20
316.891907
 11
369.873840
 21
315.589569
  0
LINE
  8
0
  6
CONTINUOUS
 10
367.500000
 20
263.475281
 11
367.500000
 21
263.597748
  0
ARC
  8
0
  6
CONTINUOUS
 10
365.500000
 20
263.597748
 40
2.000000
 50
0.000000
 51
69.999992
  0
LINE
  8
0
  6
CONTINUOUS
 10
366.184052
 20
265.477142
 11
363.315948
 21
266.521027
  0
LINE
  8
0
  6
PHANTOM
 10
351.223541
 20
274.126129
 11
364.600006
 21
270.541901
  0
LINE
  8
0
  6
PHANTOM
 10
349.000000
 20
302.976105
 11
349.000000
 21
277.086975
  0
ARC
  8
0
  6
PHANTOM
 10
352.000000
 20
277.023895
 40
3.000000
 50
-180.000000
 51
-105.000000
  0
ARC
  8
0
  6
PHANTOM
 10
352.000000
 20
302.976105
 40
3.000000
 50
-255.000000
 51
-180.000000
  0
LINE
  8
0
  6
PHANTOM
 10
351.223541
 20
305.873871
 11
364.600006
 21
309.458099
  0
LINE
  8
0
  6
PHANTOM
 10
365.800018
 20
270.500000
 11
364.600006
 21
270.541901
  0
LINE
  8
0
  6
PHANTOM
 10
365.800018
 20
270.500000
 11
367.000000
 21
270.541901
  0
LINE
  8
0
  6
PHANTOM
 10
365.800018
 20
309.500000
 11
364.600006
 21
309.458099
  0
LINE
  8
0
  6
PHANTOM
 10
365.800018
 20
309.500000
 11
367.000000
 21
309.458099
  0
ARC
  8
0
  6
PHANTOM
 10
365.800018
 20
270.720001
 40
1.220000
 50
-171.697739
 51
-10.388855
  0
ARC
  8
0
  6
PHANTOM
 10
365.800018
 20
309.279999
 40
1.220000
 50
-349.611145
 51
-188.302261
  0
LINE
  8
0
  6
PHANTOM
 10
451.000000
 20
302.976105
 11
451.000000
 21
277.086975
  0
ARC
  8
0
  6
PHANTOM
 10
448.000000
 20
277.023895
 40
3.000000
 50
-75.000000
 51
0.000000
  0
ARC
  8
0
  6
PHANTOM
 10
448.000000
 20
302.976105
 40
3.000000
 50
0.000000
 51
75.000000
  0
LINE
  8
0
  6
PHANTOM
 10
448.776459
 20
274.126129
 11
435.399994
 21
270.541901
  0
LINE
  8
0
  6
PHANTOM
 10
434.199982
 20
270.500000
 11
433.000000
 21
270.541901
  0
LINE
  8
0
  6
PHANTOM
 10
434.199982
 20
270.500000
 11
435.399994
 21
270.541901
  0
ARC
  8
0
  6
PHANTOM
 10
434.199982
 20
270.720001
 40
1.220000
 50
-169.611145
 51
-8.302263
  0
LINE
  8
0
  6
PHANTOM
 10
434.199982
 20
309.500000
 11
435.399994
 21
309.458099
  0
LINE
  8
0
  6
PHANTOM
 10
434.199982
 20
309.500000
 11
433.000000
 21
309.458099
  0
ARC
  8
0
  6
PHANTOM
 10
434.199982
 20
309.279999
 40
1.220000
 50
-351.697723
 51
-190.388855
  0
LINE
  8
0
  6
PHANTOM
 10
448.776459
 20
305.873871
 11
435.399994
 21
309.458099
  0
LINE
  8
0
  6
CENTER
 10
356.995026
 20
256.500000
 11
444.043762
 21
256.500000
  0
LINE
  8
0
  6
CENTER
 10
356.995026
 20
323.500000
 11
444.043762
 21
323.500000
  0
LINE
  8
0
  6
CONTINUOUS
 10
372.000000
 20
326.899994
 11
440.500000
 21
326.899994
  0
LINE
  8
0
  6
CONTINUOUS
 10
372.000000
 20
320.100006
 11
440.500000
 21
320.100006
  0
LINE
  8
0
  6
CONTINUOUS
 10
372.000000
 20
253.100006
 11
440.500000
 21
253.100006
  0
LINE
  8
0
  6
CONTINUOUS
 10
372.000000
 20
259.899994
 11
440.500000
 21
259.899994
  0
LINE
  8
0
  6
DASHED
 10
564.599976
 20
480.996246
 11
564.599976
 21
412.496246
  0
LINE
  8
0
  6
DASHED
 10
571.400024
 20
480.996246
 11
571.400024
 21
412.496246
  0
LINE
  8
0
  6
DASHED
 10
650.599976
 20
480.996246
 11
650.599976
 21
412.496246
  0
LINE
  8
0
  6
DASHED
 10
657.400024
 20
480.996246
 11
657.400024
 21
412.496246
  0
LINE
  8
0
  6
CONTINUOUS
 10
408.000000
 20
260.500000
 11
408.000000
 21
252.500000
  0
LINE
  8
0
  6
CONTINUOUS
 10
392.000000
 20
260.500000
 11
392.000000
 21
252.500000
  0
LINE
  8
0
  6
CONTINUOUS
 10
372.000000
 20
260.500000
 11
392.000000
 21
260.500000
  0
LINE
  8
0
  6
CONTINUOUS
 10
372.000000
 20
252.500000
 11
392.000000
 21
252.500000
  0
LINE
  8
0
  6
CONTINUOUS
 10
408.000000
 20
260.500000
 11
440.500000
 21
260.500000
  0
LINE
  8
0
  6
CONTINUOUS
 10
408.000000
 20
252.500000
 11
440.500000
 21
252.500000
  0
LINE
  8
0
  6
CONTINUOUS
 10
359.500000
 20
260.750000
 11
372.000000
 21
260.750000
  0
LINE
  8
0
  6
CONTINUOUS
 10
359.500000
 20
252.250000
 11
372.000000
 21
252.250000
  0
LINE
  8
0
  6
CONTINUOUS
 10
359.500000
 20
327.750000
 11
372.000000
 21
327.750000
  0
LINE
  8
0
  6
CONTINUOUS
 10
359.500000
 20
319.250000
 11
372.000000
 21
319.250000
  0
LINE
  8
0
  6
CONTINUOUS
 10
372.000000
 20
327.500000
 11
392.000000
 21
327.500000
  0
LINE
  8
0
  6
CONTINUOUS
 10
372.000000
 20
319.500000
 11
392.000000
 21
319.500000
  0
LINE
  8
0
  6
CONTINUOUS
 10
392.000000
 20
327.500000
 11
392.000000
 21
319.500000
  0
LINE
  8
0
  6
CONTINUOUS
 10
408.000000
 20
327.500000
 11
408.000000
 21
319.500000
  0
LINE
  8
0
  6
CONTINUOUS
 10
408.000000
 20
327.500000
 11
440.500000
 21
327.500000
  0
LINE
  8
0
  6
CONTINUOUS
 10
408.000000
 20
319.500000
 11
440.500000
 21
319.500000
  0
LINE
  8
0
  6
CONTINUOUS
 10
359.500000
 20
318.386047
 11
363.031250
 21
318.625000
  0
LINE
  8
0
  6
CONTINUOUS
 10
363.031250
 20
318.625000
 11
366.750000
 21
318.156250
  0
LINE
  8
0
  6
CONTINUOUS
 10
366.750000
 20
318.156250
 11
370.531250
 21
318.562500
  0
LINE
  8
0
  6
CONTINUOUS
 10
370.531250
 20
318.562500
 11
374.031250
 21
318.062500
  0
LINE
  8
0
  6
CONTINUOUS
 10
374.031250
 20
318.062500
 11
378.062500
 21
318.593750
  0
LINE
  8
0
  6
CONTINUOUS
 10
378.062500
 20
318.593750
 11
381.593750
 21
318.031250
  0
LINE
  8
0
  6
CONTINUOUS
 10
381.593750
 20
318.031250
 11
386.125000
 21
318.531250
  0
LINE
  8
0
  6
CONTINUOUS
 10
386.125000
 20
318.531250
 11
390.812500
 21
317.906250
  0
LINE
  8
0
  6
CONTINUOUS
 10
390.812500
 20
317.906250
 11
395.500000
 21
318.500000
  0
LINE
  8
0
  6
CONTINUOUS
 10
395.500000
 20
318.500000
 11
399.312500
 21
317.875000
  0
LINE
  8
0
  6
CONTINUOUS
 10
399.312500
 20
317.875000
 11
404.625000
 21
318.375000
  0
LINE
  8
0
  6
CONTINUOUS
 10
404.625000
 20
318.375000
 11
408.531250
 21
317.718750
  0
LINE
  8
0
  6
CONTINUOUS
 10
408.531250
 20
317.718750
 11
413.156250
 21
318.562500
  0
LINE
  8
0
  6
CONTINUOUS
 10
413.156250
 20
318.562500
 11
417.562500
 21
317.718750
  0
LINE
  8
0
  6
CONTINUOUS
 10
417.562500
 20
317.718750
 11
421.625000
 21
318.593750
  0
LINE
  8
0
  6
CONTINUOUS
 10
421.625000
 20
318.593750
 11
425.000000
 21
317.750000
  0
LINE
  8
0
  6
CONTINUOUS
 10
425.000000
 20
317.750000
 11
429.281250
 21
318.500000
  0
LINE
  8
0
  6
CONTINUOUS
 10
429.281250
 20
318.500000
 11
432.906250
 21
317.781250
  0
LINE
  8
0
  6
CONTINUOUS
 10
432.906250
 20
317.781250
 11
436.781250
 21
318.500000
  0
LINE
  8
0
  6
CONTINUOUS
 10
436.781250
 20
318.500000
 11
440.500000
 21
317.957672
  0
LINE
  8
0
  6
CONTINUOUS
 10
359.500000
 20
261.613953
 11
363.031250
 21
261.375000
  0
LINE
  8
0
  6
CONTINUOUS
 10
363.031250
 20
261.375000
 11
366.750000
 21
261.843750
  0
LINE
  8
0
  6
CONTINUOUS
 10
366.750000
 20
261.843750
 11
370.531250
 21
261.437500
  0
LINE
  8
0
  6
CONTINUOUS
 10
370.531250
 20
261.437500
 11
374.031250
 21
261.937500
  0
LINE
  8
0
  6
CONTINUOUS
 10
374.031250
 20
261.937500
 11
378.062500
 21
261.406250
  0
LINE
  8
0
  6
CONTINUOUS
 10
378.062500
 20
261.406250
 11
381.593750
 21
261.968750
  0
LINE
  8
0
  6
CONTINUOUS
 10
381.593750
 20
261.968750
 11
386.125000
 21
261.468750
  0
LINE
  8
0
  6
CONTINUOUS
 10
386.125000
 20
261.468750
 11
390.812500
 21
262.093750
  0
LINE
  8
0
  6
CONTINUOUS
 10
390.812500
 20
262.093750
 11
395.500000
 21
261.500000
  0
LINE
  8
0
  6
CONTINUOUS
 10
395.500000
 20
261.500000
 11
399.312500
 21
262.125000
  0
LINE
  8
0
  6
CONTINUOUS
 10
399.312500
 20
262.125000
 11
404.625000
 21
261.625000
  0
LINE
  8
0
  6
CONTINUOUS
 10
404.625000
 20
261.625000
 11
408.531250
 21
262.281250
  0
LINE
  8
0
  6
CONTINUOUS
 10
408.531250
 20
262.281250
 11
413.156250
 21
261.437500
  0
LINE
  8
0
  6
CONTINUOUS
 10
413.156250
 20
261.437500
 11
417.562500
 21
262.281250
  0
LINE
  8
0
  6
CONTINUOUS
 10
417.562500
 20
262.281250
 11
421.625000
 21
261.406250
  0
LINE
  8
0
  6
CONTINUOUS
 10
421.625000
 20
261.406250
 11
425.000000
 21
262.250000
  0
LINE
  8
0
  6
CONTINUOUS
 10
425.000000
 20
262.250000
 11
429.281250
 21
261.500000
  0
LINE
  8
0
  6
CONTINUOUS
 10
429.281250
 20
261.500000
 11
432.906250
 21
262.218750
  0
LINE
  8
0
  6
CONTINUOUS
 10
432.906250
 20
262.218750
 11
436.781250
 21
261.500000
  0
LINE
  8
0
  6
CONTINUOUS
 10
436.781250
 20
261.500000
 11
440.500000
 21
262.042328
  0
LINE
  8
0
  6
DASHED
 10
563.750000
 20
480.996246
 11
563.750000
 21
493.496246
  0
LINE
  8
0
  6
DASHED
 10
572.250000
 20
480.996246
 11
572.250000
 21
493.496246
  0
LINE
  8
0
  6
DASHED
 10
564.000000
 20
460.996246
 11
572.000000
 21
460.996246
  0
LINE
  8
0
  6
DASHED
 10
564.000000
 20
444.996246
 11
572.000000
 21
444.996246
  0
LINE
  8
0
  6
DASHED
 10
572.000000
 20
480.996246
 11
572.000000
 21
460.996246
  0
LINE
  8
0
  6
DASHED
 10
564.000000
 20
480.996246
 11
564.000000
 21
460.996246
  0
LINE
  8
0
  6
DASHED
 10
564.000000
 20
412.496246
 11
564.000000
 21
444.996246
  0
LINE
  8
0
  6
DASHED
 10
572.000000
 20
412.496246
 11
572.000000
 21
444.996246
  0
LINE
  8
0
  6
DASHED
 10
649.750000
 20
480.996246
 11
649.750000
 21
493.496246
  0
LINE
  8
0
  6
DASHED
 10
658.250000
 20
480.996246
 11
658.250000
 21
493.496246
  0
LINE
  8
0
  6
DASHED
 10
650.000000
 20
480.996246
 11
650.000000
 21
460.996246
  0
LINE
  8
0
  6
DASHED
 10
650.000000
 20
460.996246
 11
658.000000
 21
460.996246
  0
LINE
  8
0
  6
DASHED
 10
650.000000
 20
444.996246
 11
658.000000
 21
444.996246
  0
LINE
  8
0
  6
DASHED
 10
650.000000
 20
412.496246
 11
650.000000
 21
444.996246
  0
LINE
  8
0
  6
DASHED
 10
658.000000
 20
412.496246
 11
658.000000
 21
444.996246
  0
LINE
  8
0
  6
CONTINUOUS
 10
433.134827
 20
262.593445
 11
436.782806
 21
262.950317
  0
LINE
  8
0
  6
CONTINUOUS
 10
436.782806
 20
262.950317
 11
440.500000
 21
262.578583
  0
LINE
  8
0
  6
CONTINUOUS
 10
433.134827
 20
317.406555
 11
436.782806
 21
317.049683
  0
LINE
  8
0
  6
CONTINUOUS
 10
436.782806
 20
317.049683
 11
440.500000
 21
317.421417
  0
CIRCLE
  8
0
  6
CONTINUOUS
 10
568.000000
 20
323.500000
 40
3.400000
  0
CIRCLE
  8
0
  6
CONTINUOUS
 10
568.000000
 20
323.500000
 40
4.000000
  0
CIRCLE
  8
0
  6
CONTINUOUS
 10
568.000000
 20
256.500000
 40
3.400000
  0
CIRCLE
  8
0
  6
CONTINUOUS
 10
568.000000
 20
256.500000
 40
4.000000
  0
CIRCLE
  8
0
  6
CONTINUOUS
 10
654.000000
 20
256.500000
 40
3.400000
  0
CIRCLE
  8
0
  6
CONTINUOUS
 10
654.000000
 20
256.500000
 40
4.000000
  0
CIRCLE
  8
0
  6
CONTINUOUS
 10
654.000000
 20
323.500000
 40
3.400000
  0
CIRCLE
  8
0
  6
CONTINUOUS
 10
654.000000
 20
323.500000
 40
4.000000
  0
LINE
  8
0
  6
CENTER
 10
392.951874
 20
340.998291
 11
406.667511
 21
340.998291
  0
LINE
  8
0
  6
CONTINUOUS
 10
404.220490
 20
341.498291
 11
423.000092
 21
341.498291
  0
LINE
  8
0
  6
CONTINUOUS
 10
395.779510
 20
341.498291
 11
376.999908
 21
341.498291
  0
ARC
  8
0
  6
CONTINUOUS
 10
400.000000
 20
340.998291
 40
3.250000
 50
186.756302
 51
353.243713
  0
ARC
  8
0
  6
CONTINUOUS
 10
404.220490
 20
340.498291
 40
1.000000
 50
90.000000
 51
173.243896
  0
ARC
  8
0
  6
CONTINUOUS
 10
395.779510
 20
340.498291
 40
1.000000
 50
6.756103
 51
90.000000
  0
ARC
  8
0
  6
CONTINUOUS
 10
400.000000
 20
340.998291
 40
6.000000
 50
4.780190
 51
175.219803
  0
LINE
  8
0
  6
CONTINUOUS
 10
383.538910
 20
345.986511
 11
383.591705
 21
348.003296
  0
LINE
  8
0
  6
CONTINUOUS
 10
377.000000
 20
341.498291
 11
377.157440
 21
347.510986
  0
LINE
  8
0
  6
CONTINUOUS
 10
416.987091
 20
345.500305
 11
422.750000
 21
345.500305
  0
LINE
  8
0
  6
CONTINUOUS
 10
416.460999
 20
345.986511
 11
416.408295
 21
348.003296
  0
ARC
  8
0
  6
CONTINUOUS
 10
416.987091
 20
346.000305
 40
0.500000
 50
-178.497894
 51
-90.000000
  0
LINE
  8
0
  6
CONTINUOUS
 10
423.000000
 20
341.498291
 11
422.842560
 21
347.510986
  0
ARC
  8
0
  6
CONTINUOUS
 10
400.000000
 20
99.000298
 40
250.000000
 50
84.862282
 51
95.137718
  0
ARC
  8
0
  6
CONTINUOUS
 10
415.934387
 20
347.990906
 40
0.500000
 50
1.498054
 51
86.339493
  0
ARC
  8
0
  6
CONTINUOUS
 10
384.065613
 20
347.990906
 40
0.500000
 50
93.660507
 51
178.501999
  0
LINE
  8
0
  6
CENTER
 10
420.000000
 20
348.836060
 11
420.000000
 21
340.706390
  0
LINE
  8
0
  6
CONTINUOUS
 10
383.012909
 20
345.500305
 11
377.250000
 21
345.500305
  0
ARC
  8
0
  6
CONTINUOUS
 10
383.012909
 20
346.000305
 40
0.500000
 50
270.000000
 51
358.497894
  0
LINE
  8
0
  6
CENTER
 10
380.000000
 20
348.836060
 11
380.000000
 21
340.643890
  0
LINE
  8
0
  6
CONTINUOUS
 10
377.250000
 20
345.500305
 11
377.250000
 21
346.939484
  0
LINE
  8
0
  6
CONTINUOUS
 10
382.750000
 20
345.500305
 11
382.750000
 21
346.939484
  0
LINE
  8
0
  6
CONTINUOUS
 10
377.250000
 20
346.200287
 11
382.750000
 21
346.200287
  0
ARC
  8
0
  6
CONTINUOUS
 10
380.000000
 20
341.200287
 40
7.000000
 50
73.043488
 51
106.958023
  0
ARC
  8
0
  6
CONTINUOUS
 10
381.749908
 20
346.939484
 40
1.000000
 50
0.000000
 51
73.043098
  0
ARC
  8
0
  6
CONTINUOUS
 10
378.249969
 20
346.939484
 40
1.000000
 50
106.958153
 51
180.000000
  0
LINE
  8
0
  6
CONTINUOUS
 10
417.250000
 20
345.500305
 11
417.250000
 21
346.939484
  0
LINE
  8
0
  6
CONTINUOUS
 10
422.750000
 20
345.500305
 11
422.750000
 21
346.939484
  0
LINE
  8
0
  6
CONTINUOUS
 10
417.250000
 20
346.200287
 11
422.750000
 21
346.200287
  0
ARC
  8
0
  6
CONTINUOUS
 10
420.000000
 20
341.200287
 40
7.000000
 50
73.043488
 51
106.958023
  0
ARC
  8
0
  6
CONTINUOUS
 10
421.749908
 20
346.939484
 40
1.000000
 50
0.000000
 51
73.043098
  0
ARC
  8
0
  6
CONTINUOUS
 10
418.249969
 20
346.939484
 40
1.000000
 50
106.958153
 51
180.000000
  0
ARC
  8
0
  6
CONTINUOUS
 10
422.408173
 20
345.000305
 40
0.500000
 50
1.500041
 51
90.000000
  0
ARC
  8
0
  6
CONTINUOUS
 10
377.591827
 20
345.000305
 40
0.500000
 50
90.000000
 51
178.499954
  0
ARC
  8
0
  6
CONTINUOUS
 10
377.657288
 20
347.497894
 40
0.500000
 50
95.137718
 51
178.499954
  0
ARC
  8
0
  6
CONTINUOUS
 10
422.342712
 20
347.497894
 40
0.500000
 50
1.500041
 51
84.862282
  0
LINE
  8
0
  6
CENTER
 10
553.459229
 20
290.000000
 11
793.367859
 21
290.000000
  0
LINE
  8
0
  6
CENTER
 10
600.000000
 20
259.693756
 11
600.000000
 21
320.106873
  0
LINE
  8
0
  6
CONTINUOUS
 10
734.055481
 20
328.000000
 11
662.358765
 21
328.000000
  0
LINE
  8
0
  6
CONTINUOUS
 10
734.055481
 20
252.000000
 11
662.358765
 21
252.000000
  0
LINE
  8
0
  6
CENTER
 10
654.000000
 20
246.783081
 11
654.000000
 21
263.231720
  0
LINE
  8
0
  6
CENTER
 10
661.978638
 20
256.500000
 11
646.791138
 21
256.500000
  0
LINE
  8
0
  6
CONTINUOUS
 10
661.000000
 20
323.500000
 11
661.000000
 21
306.328430
  0
LINE
  8
0
  6
CONTINUOUS
 10
654.000000
 20
249.500000
 11
568.000000
 21
249.500000
  0
LINE
  8
0
  6
CENTER
 10
654.000000
 20
333.565582
 11
654.000000
 21
316.768280
  0
LINE
  8
0
  6
CENTER
 10
661.978638
 20
323.500000
 11
646.791138
 21
323.500000
  0
LINE
  8
0
  6
CONTINUOUS
 10
654.000000
 20
330.500000
 11
568.000000
 21
330.500000
  0
LINE
  8
0
  6
CENTER
 10
568.000000
 20
246.783081
 11
568.000000
 21
263.231720
  0
LINE
  8
0
  6
CENTER
 10
559.638367
 20
256.500000
 11
575.208862
 21
256.500000
  0
LINE
  8
0
  6
CONTINUOUS
 10
561.000000
 20
256.500000
 11
561.000000
 21
323.500000
  0
LINE
  8
0
  6
CENTER
 10
568.000000
 20
333.565582
 11
568.000000
 21
316.768280
  0
LINE
  8
0
  6
CENTER
 10
560.021362
 20
323.500000
 11
575.208862
 21
323.500000
  0
ARC
  8
0
  6
CONTINUOUS
 10
568.000000
 20
323.500000
 40
7.000000
 50
47.364067
 51
180.000000
  0
ARC
  8
0
  6
CONTINUOUS
 10
568.000000
 20
256.500000
 40
7.000000
 50
180.000000
 51
312.635925
  0
ARC
  8
0
  6
CONTINUOUS
 10
654.000000
 20
256.500000
 40
7.000000
 50
-132.635925
 51
0.000000
  0
ARC
  8
0
  6
CONTINUOUS
 10
654.000000
 20
323.500000
 40
7.000000
 50
0.000000
 51
132.635925
  0
LINE
  8
0
  6
CONTINUOUS
 10
565.000000
 20
279.328430
 11
565.000000
 21
300.671570
  0
LINE
  8
0
  6
CONTINUOUS
 10
564.414185
 20
277.914215
 11
561.585815
 21
275.085785
  0
ARC
  8
0
  6
CONTINUOUS
 10
563.000000
 20
273.671570
 40
2.000000
 50
135.000000
 51
180.000000
  0
ARC
  8
0
  6
CONTINUOUS
 10
563.000000
 20
279.328430
 40
2.000000
 50
-45.000000
 51
0.000000
  0
LINE
  8
0
  6
CONTINUOUS
 10
564.414185
 20
302.085785
 11
561.585815
 21
304.914215
  0
ARC
  8
0
  6
CONTINUOUS
 10
563.000000
 20
306.328430
 40
2.000000
 50
180.000000
 51
225.000000
  0
ARC
  8
0
  6
CONTINUOUS
 10
563.000000
 20
300.671570
 40
2.000000
 50
0.000000
 51
45.000000
  0
LINE
  8
0
  6
CONTINUOUS
 10
661.663635
 20
251.875305
 11
656.432983
 21
249.936417
  0
ARC
  8
0
  6
CONTINUOUS
 10
662.358765
 20
250.000000
 40
2.000000
 50
90.000000
 51
110.338730
  0
LINE
  8
0
  6
CONTINUOUS
 10
661.663635
 20
328.124695
 11
656.432983
 21
330.063568
  0
ARC
  8
0
  6
CONTINUOUS
 10
662.358765
 20
330.000000
 40
2.000000
 50
249.661270
 51
270.000000
  0
LINE
  8
0
  6
CONTINUOUS
 10
734.055481
 20
259.751038
 11
661.000000
 21
259.751038
  0
LINE
  8
0
  6
CONTINUOUS
 10
734.055481
 20
320.248962
 11
661.000000
 21
320.248962
  0
LINE
  8
0
  6
CONTINUOUS
 10
178.500000
 20
315.690460
 11
178.500000
 21
264.309540
  0
LINE
  8
0
  6
CONTINUOUS
 10
178.500000
 20
315.690460
 11
179.000000
 21
315.690460
  0
LINE
  8
0
  6
CONTINUOUS
 10
657.000000
 20
279.328430
 11
657.000000
 21
300.671570
  0
LINE
  8
0
  6
CONTINUOUS
 10
657.585815
 20
277.914215
 11
660.414185
 21
275.085785
  0
ARC
  8
0
  6
CONTINUOUS
 10
659.000000
 20
273.671570
 40
2.000000
 50
0.000000
 51
45.000000
  0
ARC
  8
0
  6
CONTINUOUS
 10
659.000000
 20
279.328430
 40
2.000000
 50
180.000000
 51
225.000000
  0
LINE
  8
0
  6
CONTINUOUS
 10
657.585815
 20
302.085785
 11
660.414185
 21
304.914215
  0
ARC
  8
0
  6
CONTINUOUS
 10
659.000000
 20
306.328430
 40
2.000000
 50
-45.000000
 51
0.000000
  0
ARC
  8
0
  6
CONTINUOUS
 10
659.000000
 20
300.671570
 40
2.000000
 50
135.000000
 51
180.000000
  0
LINE
  8
0
  6
CONTINUOUS
 10
661.000000
 20
273.671570
 11
661.000000
 21
256.500000
  0
ARC
  8
0
  6
CONTINUOUS
 10
627.000000
 20
278.000000
 40
30.000000
 50
292.331635
 51
300.358307
  0
ARC
  8
0
  6
CONTINUOUS
 10
634.599365
 20
259.500000
 40
10.000000
 50
270.000000
 51
292.331635
  0
ARC
  8
0
  6
CONTINUOUS
 10
627.000000
 20
302.000000
 40
30.000000
 50
59.641697
 51
67.668358
  0
ARC
  8
0
  6
CONTINUOUS
 10
634.599365
 20
320.500000
 40
10.000000
 50
67.668358
 51
90.000000
  0
ARC
  8
0
  6
CONTINUOUS
 10
595.000000
 20
278.000000
 40
30.000000
 50
239.641693
 51
247.668350
  0
ARC
  8
0
  6
CONTINUOUS
 10
587.400635
 20
259.500000
 40
10.000000
 50
247.668350
 51
270.000000
  0
ARC
  8
0
  6
CONTINUOUS
 10
595.000000
 20
302.000000
 40
30.000000
 50
112.331642
 51
120.358299
  0
ARC
  8
0
  6
CONTINUOUS
 10
587.400635
 20
320.500000
 40
10.000000
 50
90.000000
 51
112.331642
  0
LINE
  8
0
  6
CONTINUOUS
 10
570.000000
 20
303.500000
 11
570.000000
 21
276.500000
  0
LINE
  8
0
  6
CONTINUOUS
 10
592.000000
 20
325.500000
 11
630.000000
 21
325.500000
  0
ARC
  8
0
  6
CONTINUOUS
 10
592.000000
 20
303.500000
 40
22.000000
 50
90.000000
 51
110.487312
  0
LINE
  8
0
  6
CONTINUOUS
 10
583.000000
 20
321.739838
 11
583.000000
 21
322.234985
  0
LINE
  8
0
  6
CONTINUOUS
 10
585.000000
 20
321.000000
 11
585.000000
 21
322.864929
  0
LINE
  8
0
  6
CONTINUOUS
 10
574.598633
 20
311.198425
 11
582.518494
 21
320.438263
  0
LINE
  8
0
  6
CONTINUOUS
 10
575.518494
 20
309.198425
 11
584.518494
 21
319.698425
  0
ARC
  8
0
  6
CONTINUOUS
 10
583.000000
 20
321.000000
 40
2.000000
 50
-40.601295
 51
0.000000
  0
ARC
  8
0
  6
CONTINUOUS
 10
581.000000
 20
321.739838
 40
2.000000
 50
-40.601295
 51
0.000000
  0
ARC
  8
0
  6
CONTINUOUS
 10
573.080139
 20
312.500000
 40
2.000000
 50
-90.000000
 51
-40.601295
  0
ARC
  8
0
  6
CONTINUOUS
 10
574.000000
 20
310.500000
 40
2.000000
 50
-90.000000
 51
-40.601295
  0
LINE
  8
0
  6
CONTINUOUS
 10
584.875793
 20
320.306122
 11
582.875793
 21
321.045959
  0
LINE
  8
0
  6
CONTINUOUS
 10
574.835693
 20
308.682983
 11
573.915833
 21
310.682983
  0
LINE
  8
0
  6
CONTINUOUS
 10
574.000000
 20
308.500000
 11
572.226257
 21
308.500000
  0
LINE
  8
0
  6
CONTINUOUS
 10
573.080139
 20
310.500000
 11
572.635071
 21
310.500000
  0
ARC
  8
0
  6
CONTINUOUS
 10
572.226257
 20
306.500000
 40
2.000000
 50
90.000000
 51
171.373077
  0
ARC
  8
0
  6
CONTINUOUS
 10
572.635071
 20
308.500000
 40
2.000000
 50
90.000000
 51
165.522491
  0
ARC
  8
0
  6
CONTINUOUS
 10
587.000000
 20
322.864929
 40
2.000000
 50
104.477509
 51
180.000000
  0
ARC
  8
0
  6
CONTINUOUS
 10
585.000000
 20
322.234985
 40
2.000000
 50
110.487312
 51
180.000000
  0
ARC
  8
0
  6
CONTINUOUS
 10
592.000000
 20
303.500000
 40
22.000000
 50
165.522491
 51
180.000000
  0
ARC
  8
0
  6
CONTINUOUS
 10
630.000000
 20
303.500000
 40
22.000000
 50
69.512688
 51
90.000000
  0
LINE
  8
0
  6
CONTINUOUS
 10
639.000000
 20
321.739838
 11
639.000000
 21
322.234985
  0
LINE
  8
0
  6
CONTINUOUS
 10
637.000000
 20
321.000000
 11
637.000000
 21
322.864929
  0
LINE
  8
0
  6
CONTINUOUS
 10
647.401367
 20
311.198425
 11
639.481506
 21
320.438263
  0
LINE
  8
0
  6
CONTINUOUS
 10
646.481506
 20
309.198425
 11
637.481506
 21
319.698425
  0
ARC
  8
0
  6
CONTINUOUS
 10
639.000000
 20
321.000000
 40
2.000000
 50
180.000000
 51
220.601288
  0
ARC
  8
0
  6
CONTINUOUS
 10
641.000000
 20
321.739838
 40
2.000000
 50
180.000000
 51
220.601288
  0
ARC
  8
0
  6
CONTINUOUS
 10
648.919861
 20
312.500000
 40
2.000000
 50
220.601288
 51
270.000000
  0
ARC
  8
0
  6
CONTINUOUS
 10
648.000000
 20
310.500000
 40
2.000000
 50
220.601288
 51
270.000000
  0
LINE
  8
0
  6
CONTINUOUS
 10
637.124207
 20
320.306122
 11
639.124207
 21
321.045959
  0
LINE
  8
0
  6
CONTINUOUS
 10
647.164307
 20
308.682983
 11
648.084167
 21
310.682983
  0
LINE
  8
0
  6
CONTINUOUS
 10
648.000000
 20
308.500000
 11
649.773743
 21
308.500000
  0
LINE
  8
0
  6
CONTINUOUS
 10
648.919861
 20
310.500000
 11
649.364929
 21
310.500000
  0
ARC
  8
0
  6
CONTINUOUS
 10
649.773743
 20
306.500000
 40
2.000000
 50
8.626927
 51
90.000000
  0
ARC
  8
0
  6
CONTINUOUS
 10
649.364929
 20
308.500000
 40
2.000000
 50
14.477512
 51
90.000000
  0
ARC
  8
0
  6
CONTINUOUS
 10
635.000000
 20
322.864929
 40
2.000000
 50
0.000000
 51
75.522491
  0
ARC
  8
0
  6
CONTINUOUS
 10
637.000000
 20
322.234985
 40
2.000000
 50
0.000000
 51
69.512688
  0
ARC
  8
0
  6
CONTINUOUS
 10
630.000000
 20
303.500000
 40
22.000000
 50
0.000000
 51
14.477512
  0
LINE
  8
0
  6
CONTINUOUS
 10
652.000000
 20
303.500000
 11
652.000000
 21
276.500000
  0
LINE
  8
0
  6
CONTINUOUS
 10
592.000000
 20
254.500000
 11
630.000000
 21
254.500000
  0
ARC
  8
0
  6
CONTINUOUS
 10
592.000000
 20
276.500000
 40
22.000000
 50
-110.487312
 51
-90.000000
  0
LINE
  8
0
  6
CONTINUOUS
 10
583.000000
 20
258.260162
 11
583.000000
 21
257.765015
  0
LINE
  8
0
  6
CONTINUOUS
 10
585.000000
 20
259.000000
 11
585.000000
 21
257.135071
  0
LINE
  8
0
  6
CONTINUOUS
 10
574.598633
 20
268.801575
 11
582.518494
 21
259.561737
  0
LINE
  8
0
  6
CONTINUOUS
 10
575.518494
 20
270.801575
 11
584.518494
 21
260.301575
  0
ARC
  8
0
  6
CONTINUOUS
 10
583.000000
 20
259.000000
 40
2.000000
 50
0.000000
 51
40.601295
  0
ARC
  8
0
  6
CONTINUOUS
 10
581.000000
 20
258.260162
 40
2.000000
 50
0.000000
 51
40.601295
  0
ARC
  8
0
  6
CONTINUOUS
 10
573.080139
 20
267.500000
 40
2.000000
 50
40.601295
 51
90.000000
  0
ARC
  8
0
  6
CONTINUOUS
 10
574.000000
 20
269.500000
 40
2.000000
 50
40.601295
 51
90.000000
  0
LINE
  8
0
  6
CONTINUOUS
 10
584.875793
 20
259.693878
 11
582.875793
 21
258.954041
  0
LINE
  8
0
  6
CONTINUOUS
 10
574.835693
 20
271.317017
 11
573.915833
 21
269.317017
  0
LINE
  8
0
  6
CONTINUOUS
 10
574.000000
 20
271.500000
 11
572.226257
 21
271.500000
  0
LINE
  8
0
  6
CONTINUOUS
 10
573.080139
 20
269.500000
 11
572.635071
 21
269.500000
  0
ARC
  8
0
  6
CONTINUOUS
 10
572.226257
 20
273.500000
 40
2.000000
 50
-171.373077
 51
-90.000000
  0
ARC
  8
0
  6
CONTINUOUS
 10
572.635071
 20
271.500000
 40
2.000000
 50
-165.522491
 51
-90.000000
  0
ARC
  8
0
  6
CONTINUOUS
 10
587.000000
 20
257.135071
 40
2.000000
 50
180.000000
 51
255.522491
  0
ARC
  8
0
  6
CONTINUOUS
 10
585.000000
 20
257.765015
 40
2.000000
 50
180.000000
 51
249.512680
  0
ARC
  8
0
  6
CONTINUOUS
 10
630.000000
 20
276.500000
 40
22.000000
 50
270.000000
 51
290.487305
  0
LINE
  8
0
  6
CONTINUOUS
 10
639.000000
 20
258.260162
 11
639.000000
 21
257.765015
  0
LINE
  8
0
  6
CONTINUOUS
 10
637.000000
 20
259.000000
 11
637.000000
 21
257.135071
  0
LINE
  8
0
  6
CONTINUOUS
 10
647.401367
 20
268.801575
 11
639.481506
 21
259.561737
  0
LINE
  8
0
  6
CONTINUOUS
 10
646.481506
 20
270.801575
 11
637.481506
 21
260.301575
  0
ARC
  8
0
  6
CONTINUOUS
 10
639.000000
 20
259.000000
 40
2.000000
 50
139.398712
 51
180.000000
  0
ARC
  8
0
  6
CONTINUOUS
 10
641.000000
 20
258.260162
 40
2.000000
 50
139.398712
 51
180.000000
  0
ARC
  8
0
  6
CONTINUOUS
 10
648.919861
 20
267.500000
 40
2.000000
 50
90.000000
 51
139.398712
  0
ARC
  8
0
  6
CONTINUOUS
 10
648.000000
 20
269.500000
 40
2.000000
 50
90.000000
 51
139.398712
  0
LINE
  8
0
  6
CONTINUOUS
 10
637.124207
 20
259.693878
 11
639.124207
 21
258.954041
  0
LINE
  8
0
  6
CONTINUOUS
 10
647.164307
 20
271.317017
 11
648.084167
 21
269.317017
  0
LINE
  8
0
  6
CONTINUOUS
 10
648.000000
 20
271.500000
 11
649.773743
 21
271.500000
  0
LINE
  8
0
  6
CONTINUOUS
 10
648.919861
 20
269.500000
 11
649.364929
 21
269.500000
  0
ARC
  8
0
  6
CONTINUOUS
 10
649.773743
 20
273.500000
 40
2.000000
 50
270.000000
 51
351.373077
  0
ARC
  8
0
  6
CONTINUOUS
 10
649.364929
 20
271.500000
 40
2.000000
 50
270.000000
 51
345.522491
  0
ARC
  8
0
  6
CONTINUOUS
 10
635.000000
 20
257.135071
 40
2.000000
 50
-75.522491
 51
0.000000
  0
ARC
  8
0
  6
CONTINUOUS
 10
637.000000
 20
257.765015
 40
2.000000
 50
-69.512688
 51
0.000000
  0
ARC
  8
0
  6
CONTINUOUS
 10
592.000000
 20
276.500000
 40
22.000000
 50
180.000000
 51
194.477509
  0
ARC
  8
0
  6
CONTINUOUS
 10
630.000000
 20
276.500000
 40
22.000000
 50
-14.477512
 51
0.000000
  0
LINE
  8
0
  6
CENTER
 10
557.378418
 20
452.996246
 11
793.367859
 21
452.996246
  0
LINE
  8
0
  6
CENTER
 10
600.000000
 20
499.943604
 11
600.000000
 21
403.501099
  0
LINE
  8
0
  6
CONTINUOUS
 10
662.302124
 20
414.996246
 11
734.055481
 21
414.996246
  0
LINE
  8
0
  6
CONTINUOUS
 10
663.448303
 20
490.996246
 11
734.055481
 21
490.996246
  0
LINE
  8
0
  6
CENTER
 10
654.000000
 20
409.137329
 11
654.000000
 21
496.812347
  0
LINE
  8
0
  6
CENTER
 10
568.000000
 20
409.137329
 11
568.000000
 21
496.812347
  0
LINE
  8
0
  6
CONTINUOUS
 10
734.055481
 20
475.996246
 11
657.996887
 21
475.996246
  0
LINE
  8
0
  6
CONTINUOUS
 10
734.055481
 20
429.996246
 11
657.996887
 21
429.996246
  0
LINE
  8
0
  6
CONTINUOUS
 10
561.000000
 20
452.996246
 11
561.706909
 21
493.496246
  0
LINE
  8
0
  6
CONTINUOUS
 10
561.000000
 20
452.996246
 11
561.706909
 21
412.496246
  0
LINE
  8
0
  6
CONTINUOUS
 10
660.293091
 20
412.496246
 11
561.706909
 21
412.496246
  0
LINE
  8
0
  6
CONTINUOUS
 10
662.000000
 20
480.996246
 11
561.488770
 21
480.996246
  0
LINE
  8
0
  6
CONTINUOUS
 10
662.000000
 20
490.375519
 11
662.000000
 21
480.996246
  0
ARC
  8
0
  6
CONTINUOUS
 10
663.448303
 20
488.996246
 40
2.000000
 50
90.000000
 51
136.398758
  0
ARC
  8
0
  6
CONTINUOUS
 10
662.302124
 20
412.996246
 40
2.000000
 50
90.000000
 51
179.000000
  0
LINE
  8
0
  6
CONTINUOUS
 10
662.000000
 20
475.996246
 11
662.000000
 21
429.996246
  0
LINE
  8
0
  6
CONTINUOUS
 10
660.293091
 20
493.496246
 11
660.598511
 21
475.996246
  0
LINE
  8
0
  6
CONTINUOUS
 10
660.293091
 20
412.496246
 11
660.598511
 21
429.996246
  0
LINE
  8
0
  6
CONTINUOUS
 10
656.432983
 20
452.996246
 11
655.997192
 21
477.961334
  0
LINE
  8
0
  6
CONTINUOUS
 10
656.432983
 20
452.996246
 11
655.997192
 21
428.031158
  0
ARC
  8
0
  6
CONTINUOUS
 10
657.996887
 20
477.996246
 40
2.000000
 50
-179.000000
 51
-90.000000
  0
ARC
  8
0
  6
CONTINUOUS
 10
657.996887
 20
427.996246
 40
2.000000
 50
90.000000
 51
179.000000
  0
LINE
  8
0
  6
CONTINUOUS
 10
585.632507
 20
493.496246
 11
585.632507
 21
457.996246
  0
LINE
  8
0
  6
CONTINUOUS
 10
576.658020
 20
493.496246
 11
576.658020
 21
460.200256
  0
LINE
  8
0
  6
CONTINUOUS
 10
576.658020
 20
445.792236
 11
576.658020
 21
412.496246
  0
LINE
  8
0
  6
CONTINUOUS
 10
585.632507
 20
457.996246
 11
568.087280
 21
457.996246
  0
ARC
  8
0
  6
CONTINUOUS
 10
576.658020
 20
449.200256
 40
11.000000
 50
68.924667
 51
115.717728
  0
ARC
  8
0
  6
CONTINUOUS
 10
568.087280
 20
464.496246
 40
6.500000
 50
-90.000000
 51
-64.282272
  0
LINE
  8
0
  6
CONTINUOUS
 10
583.295105
 20
458.431030
 11
580.613586
 21
459.464447
  0
LINE
  8
0
  6
CONTINUOUS
 10
571.884705
 20
459.110626
 11
570.907898
 21
458.640137
  0
ARC
  8
0
  6
CONTINUOUS
 10
585.632507
 20
464.496246
 40
6.500000
 50
-111.075333
 51
-90.000000
  0
LINE
  8
0
  6
CONTINUOUS
 10
585.632507
 20
447.996246
 11
568.087280
 21
447.996246
  0
ARC
  8
0
  6
CONTINUOUS
 10
576.658020
 20
456.792236
 40
11.000000
 50
244.282272
 51
291.075317
  0
ARC
  8
0
  6
CONTINUOUS
 10
568.087280
 20
441.496246
 40
6.500000
 50
64.282272
 51
90.000000
  0
LINE
  8
0
  6
CONTINUOUS
 10
583.295105
 20
447.561462
 11
580.613586
 21
446.528046
  0
LINE
  8
0
  6
CONTINUOUS
 10
571.884705
 20
446.881866
 11
570.907898
 21
447.352386
  0
ARC
  8
0
  6
CONTINUOUS
 10
585.632507
 20
441.496246
 40
6.500000
 50
90.000000
 51
111.075333
  0
LINE
  8
0
  6
CONTINUOUS
 10
585.632507
 20
447.996246
 11
585.632507
 21
412.496246
  0
LINE
  8
0
  6
CONTINUOUS
 10
636.367493
 20
457.996246
 11
653.912720
 21
457.996246
  0
ARC
  8
0
  6
CONTINUOUS
 10
645.341980
 20
449.200256
 40
11.000000
 50
64.282272
 51
111.075333
  0
ARC
  8
0
  6
CONTINUOUS
 10
653.912720
 20
464.496246
 40
6.500000
 50
244.282272
 51
270.000000
  0
LINE
  8
0
  6
CONTINUOUS
 10
638.704834
 20
458.431030
 11
641.386414
 21
459.464447
  0
LINE
  8
0
  6
CONTINUOUS
 10
650.115295
 20
459.110626
 11
651.092102
 21
458.640137
  0
ARC
  8
0
  6
CONTINUOUS
 10
636.367493
 20
464.496246
 40
6.500000
 50
270.000000
 51
291.075317
  0
LINE
  8
0
  6
CONTINUOUS
 10
636.367493
 20
447.996246
 11
653.912720
 21
447.996246
  0
ARC
  8
0
  6
CONTINUOUS
 10
645.341980
 20
456.792236
 40
11.000000
 50
-111.075333
 51
-64.282272
  0
ARC
  8
0
  6
CONTINUOUS
 10
653.912720
 20
441.496246
 40
6.500000
 50
90.000000
 51
115.717728
  0
LINE
  8
0
  6
CONTINUOUS
 10
638.704834
 20
447.561462
 11
641.386414
 21
446.528046
  0
LINE
  8
0
  6
CONTINUOUS
 10
650.115295
 20
446.881866
 11
651.092102
 21
447.352386
  0
ARC
  8
0
  6
CONTINUOUS
 10
636.367493
 20
441.496246
 40
6.500000
 50
68.924667
 51
90.000000
  0
LINE
  8
0
  6
CONTINUOUS
 10
636.367493
 20
447.996246
 11
636.367493
 21
412.496246
  0
LINE
  8
0
  6
CONTINUOUS
 10
645.341980
 20
445.792236
 11
645.341980
 21
412.496246
  0
LINE
  8
0
  6
CONTINUOUS
 10
636.367493
 20
493.496246
 11
636.367493
 21
457.996246
  0
LINE
  8
0
  6
CONTINUOUS
 10
645.341980
 20
493.496246
 11
645.341980
 21
460.200256
  0
ARC
  8
0
  6
CONTINUOUS
 10
576.805359
 20
246.936264
 40
6.000000
 50
59.641697
 51
132.635925
  0
ARC
  8
0
  6
CONTINUOUS
 10
576.805359
 20
333.063751
 40
6.000000
 50
227.364075
 51
300.358307
  0
ARC
  8
0
  6
CONTINUOUS
 10
645.194641
 20
333.063751
 40
6.000000
 50
239.641693
 51
312.635925
  0
ARC
  8
0
  6
CONTINUOUS
 10
645.194641
 20
246.936264
 40
6.000000
 50
47.364067
 51
120.358299
  0
LINE
  8
0
  6
CONTINUOUS
 10
178.500000
 20
264.309540
 11
179.000000
 21
264.309540
  0
LINE
  8
0
  6
CENTER
 10
286.540771
 20
290.000000
 11
44.062500
 21
290.000000
  0
LINE
  8
0
  6
CENTER
 10
240.000000
 20
258.421265
 11
240.000000
 21
320.106873
  0
LINE
  8
0
  6
CONTINUOUS
 10
105.944496
 20
328.000000
 11
177.641251
 21
328.000000
  0
LINE
  8
0
  6
CONTINUOUS
 10
105.944496
 20
252.000000
 11
177.641251
 21
252.000000
  0
LINE
  8
0
  6
CENTER
 10
186.000000
 20
246.783081
 11
186.000000
 21
263.231720
  0
LINE
  8
0
  6
CENTER
 10
178.021347
 20
256.500000
 11
193.208847
 21
256.500000
  0
LINE
  8
0
  6
CONTINUOUS
 10
179.000000
 20
323.500000
 11
179.000000
 21
306.328430
  0
LINE
  8
0
  6
CONTINUOUS
 10
186.000000
 20
249.500000
 11
272.000000
 21
249.500000
  0
LINE
  8
0
  6
CENTER
 10
186.000000
 20
333.565582
 11
186.000000
 21
316.768280
  0
LINE
  8
0
  6
CENTER
 10
178.021347
 20
323.500000
 11
193.208847
 21
323.500000
  0
LINE
  8
0
  6
CONTINUOUS
 10
186.000000
 20
330.500000
 11
272.000000
 21
330.500000
  0
LINE
  8
0
  6
CENTER
 10
272.000000
 20
246.783081
 11
272.000000
 21
263.231720
  0
LINE
  8
0
  6
CENTER
 10
280.361633
 20
256.500000
 11
264.791138
 21
256.500000
  0
LINE
  8
0
  6
CONTINUOUS
 10
279.000000
 20
256.500000
 11
279.000000
 21
323.500000
  0
LINE
  8
0
  6
CENTER
 10
272.000000
 20
333.565582
 11
272.000000
 21
316.768280
  0
LINE
  8
0
  6
CENTER
 10
279.978638
 20
323.500000
 11
264.791138
 21
323.500000
  0
ARC
  8
0
  6
CONTINUOUS
 10
272.000000
 20
323.500000
 40
7.000000
 50
0.000000
 51
132.635925
  0
ARC
  8
0
  6
CONTINUOUS
 10
272.000000
 20
256.500000
 40
7.000000
 50
-132.635925
 51
0.000000
  0
ARC
  8
0
  6
CONTINUOUS
 10
186.000000
 20
256.500000
 40
7.000000
 50
180.000000
 51
312.635925
  0
ARC
  8
0
  6
CONTINUOUS
 10
186.000000
 20
323.500000
 40
7.000000
 50
47.364067
 51
180.000000
  0
LINE
  8
0
  6
CONTINUOUS
 10
275.000000
 20
279.328430
 11
275.000000
 21
300.671570
  0
LINE
  8
0
  6
CONTINUOUS
 10
275.585785
 20
277.914215
 11
278.414215
 21
275.085785
  0
ARC
  8
0
  6
CONTINUOUS
 10
277.000000
 20
273.671570
 40
2.000000
 50
0.000000
 51
45.000000
  0
ARC
  8
0
  6
CONTINUOUS
 10
277.000000
 20
279.328430
 40
2.000000
 50
180.000000
 51
225.000000
  0
LINE
  8
0
  6
CONTINUOUS
 10
275.585785
 20
302.085785
 11
278.414215
 21
304.914215
  0
ARC
  8
0
  6
CONTINUOUS
 10
277.000000
 20
306.328430
 40
2.000000
 50
-45.000000
 51
0.000000
  0
ARC
  8
0
  6
CONTINUOUS
 10
277.000000
 20
300.671570
 40
2.000000
 50
135.000000
 51
180.000000
  0
LINE
  8
0
  6
CONTINUOUS
 10
178.336380
 20
251.875305
 11
183.567017
 21
249.936417
  0
ARC
  8
0
  6
CONTINUOUS
 10
177.641251
 20
250.000000
 40
2.000000
 50
69.661270
 51
90.000000
  0
LINE
  8
0
  6
CONTINUOUS
 10
178.336380
 20
328.124695
 11
183.567017
 21
330.063568
  0
ARC
  8
0
  6
CONTINUOUS
 10
177.641251
 20
330.000000
 40
2.000000
 50
-90.000000
 51
-69.661270
  0
LINE
  8
0
  6
CONTINUOUS
 10
105.944496
 20
259.751038
 11
179.000000
 21
259.751038
  0
LINE
  8
0
  6
CONTINUOUS
 10
105.944496
 20
320.248962
 11
179.000000
 21
320.248962
  0
LINE
  8
0
  6
CONTINUOUS
 10
183.000000
 20
279.328430
 11
183.000000
 21
300.671570
  0
LINE
  8
0
  6
CONTINUOUS
 10
182.414215
 20
277.914215
 11
179.585785
 21
275.085785
  0
ARC
  8
0
  6
CONTINUOUS
 10
181.000000
 20
273.671570
 40
2.000000
 50
135.000000
 51
180.000000
  0
ARC
  8
0
  6
CONTINUOUS
 10
181.000000
 20
279.328430
 40
2.000000
 50
-45.000000
 51
0.000000
  0
LINE
  8
0
  6
CONTINUOUS
 10
182.414215
 20
302.085785
 11
179.585785
 21
304.914215
  0
ARC
  8
0
  6
CONTINUOUS
 10
181.000000
 20
306.328430
 40
2.000000
 50
180.000000
 51
225.000000
  0
ARC
  8
0
  6
CONTINUOUS
 10
181.000000
 20
300.671570
 40
2.000000
 50
0.000000
 51
45.000000
  0
LINE
  8
0
  6
CONTINUOUS
 10
179.000000
 20
273.671570
 11
179.000000
 21
256.500000
  0
ARC
  8
0
  6
CONTINUOUS
 10
213.000000
 20
278.000000
 40
30.000000
 50
-120.358299
 51
-112.331642
  0
ARC
  8
0
  6
CONTINUOUS
 10
205.400665
 20
259.500000
 40
10.000000
 50
-112.331642
 51
-90.000000
  0
ARC
  8
0
  6
CONTINUOUS
 10
213.000000
 20
302.000000
 40
30.000000
 50
112.331642
 51
120.358299
  0
ARC
  8
0
  6
CONTINUOUS
 10
205.400665
 20
320.500000
 40
10.000000
 50
90.000000
 51
112.331642
  0
ARC
  8
0
  6
CONTINUOUS
 10
245.000000
 20
278.000000
 40
30.000000
 50
-67.668358
 51
-59.641697
  0
ARC
  8
0
  6
CONTINUOUS
 10
252.599335
 20
259.500000
 40
10.000000
 50
-90.000000
 51
-67.668358
  0
ARC
  8
0
  6
CONTINUOUS
 10
245.000000
 20
302.000000
 40
30.000000
 50
59.641697
 51
67.668358
  0
ARC
  8
0
  6
CONTINUOUS
 10
252.599335
 20
320.500000
 40
10.000000
 50
67.668358
 51
90.000000
  0
LINE
  8
0
  6
CONTINUOUS
 10
270.000000
 20
303.500000
 11
270.000000
 21
276.500000
  0
LINE
  8
0
  6
CONTINUOUS
 10
248.000000
 20
325.500000
 11
210.000000
 21
325.500000
  0
ARC
  8
0
  6
CONTINUOUS
 10
248.000000
 20
303.500000
 40
22.000000
 50
69.512688
 51
90.000000
  0
LINE
  8
0
  6
CONTINUOUS
 10
257.000000
 20
321.739838
 11
257.000000
 21
322.234985
  0
LINE
  8
0
  6
CONTINUOUS
 10
255.000000
 20
321.000000
 11
255.000000
 21
322.864929
  0
LINE
  8
0
  6
CONTINUOUS
 10
265.401367
 20
311.198425
 11
257.481476
 21
320.438263
  0
LINE
  8
0
  6
CONTINUOUS
 10
264.481476
 20
309.198425
 11
255.481491
 21
319.698425
  0
ARC
  8
0
  6
CONTINUOUS
 10
257.000000
 20
321.000000
 40
2.000000
 50
180.000000
 51
220.601288
  0
ARC
  8
0
  6
CONTINUOUS
 10
259.000000
 20
321.739838
 40
2.000000
 50
180.000000
 51
220.601288
  0
ARC
  8
0
  6
CONTINUOUS
 10
266.919861
 20
312.500000
 40
2.000000
 50
220.601288
 51
270.000000
  0
ARC
  8
0
  6
CONTINUOUS
 10
266.000000
 20
310.500000
 40
2.000000
 50
220.601288
 51
270.000000
  0
LINE
  8
0
  6
CONTINUOUS
 10
255.124237
 20
320.306122
 11
257.124237
 21
321.045959
  0
LINE
  8
0
  6
CONTINUOUS
 10
265.164276
 20
308.682983
 11
266.084167
 21
310.682983
  0
LINE
  8
0
  6
CONTINUOUS
 10
266.000000
 20
308.500000
 11
267.773712
 21
308.500000
  0
LINE
  8
0
  6
CONTINUOUS
 10
266.919861
 20
310.500000
 11
267.364929
 21
310.500000
  0
ARC
  8
0
  6
CONTINUOUS
 10
267.773712
 20
306.500000
 40
2.000000
 50
8.626927
 51
90.000000
  0
ARC
  8
0
  6
CONTINUOUS
 10
267.364929
 20
308.500000
 40
2.000000
 50
14.477512
 51
90.000000
  0
ARC
  8
0
  6
CONTINUOUS
 10
253.000000
 20
322.864929
 40
2.000000
 50
0.000000
 51
75.522491
  0
ARC
  8
0
  6
CONTINUOUS
 10
255.000000
 20
322.234985
 40
2.000000
 50
0.000000
 51
69.512688
  0
ARC
  8
0
  6
CONTINUOUS
 10
248.000000
 20
303.500000
 40
22.000000
 50
0.000000
 51
14.477512
  0
ARC
  8
0
  6
CONTINUOUS
 10
210.000000
 20
303.500000
 40
22.000000
 50
90.000000
 51
110.487312
  0
LINE
  8
0
  6
CONTINUOUS
 10
201.000000
 20
321.739838
 11
201.000000
 21
322.234985
  0
LINE
  8
0
  6
CONTINUOUS
 10
203.000000
 20
321.000000
 11
203.000000
 21
322.864929
  0
LINE
  8
0
  6
CONTINUOUS
 10
192.598648
 20
311.198425
 11
200.518509
 21
320.438263
  0
LINE
  8
0
  6
CONTINUOUS
 10
193.518509
 20
309.198425
 11
202.518509
 21
319.698425
  0
ARC
  8
0
  6
CONTINUOUS
 10
201.000000
 20
321.000000
 40
2.000000
 50
-40.601295
 51
0.000000
  0
ARC
  8
0
  6
CONTINUOUS
 10
199.000000
 20
321.739838
 40
2.000000
 50
-40.601295
 51
0.000000
  0
ARC
  8
0
  6
CONTINUOUS
 10
191.080124
 20
312.500000
 40
2.000000
 50
-90.000000
 51
-40.601295
  0
ARC
  8
0
  6
CONTINUOUS
 10
192.000000
 20
310.500000
 40
2.000000
 50
-90.000000
 51
-40.601295
  0
LINE
  8
0
  6
CONTINUOUS
 10
202.875763
 20
320.306122
 11
200.875763
 21
321.045959
  0
LINE
  8
0
  6
CONTINUOUS
 10
192.835709
 20
308.682983
 11
191.915848
 21
310.682983
  0
LINE
  8
0
  6
CONTINUOUS
 10
192.000000
 20
308.500000
 11
190.226273
 21
308.500000
  0
LINE
  8
0
  6
CONTINUOUS
 10
191.080124
 20
310.500000
 11
190.635086
 21
310.500000
  0
ARC
  8
0
  6
CONTINUOUS
 10
190.226273
 20
306.500000
 40
2.000000
 50
90.000000
 51
171.373077
  0
ARC
  8
0
  6
CONTINUOUS
 10
190.635086
 20
308.500000
 40
2.000000
 50
90.000000
 51
165.522491
  0
ARC
  8
0
  6
CONTINUOUS
 10
205.000000
 20
322.864929
 40
2.000000
 50
104.477509
 51
180.000000
  0
ARC
  8
0
  6
CONTINUOUS
 10
203.000000
 20
322.234985
 40
2.000000
 50
110.487312
 51
180.000000
  0
ARC
  8
0
  6
CONTINUOUS
 10
210.000000
 20
303.500000
 40
22.000000
 50
165.522491
 51
180.000000
  0
LINE
  8
0
  6
CONTINUOUS
 10
188.000000
 20
303.500000
 11
188.000000
 21
276.500000
  0
LINE
  8
0
  6
CONTINUOUS
 10
248.000000
 20
254.500000
 11
210.000000
 21
254.500000
  0
ARC
  8
0
  6
CONTINUOUS
 10
248.000000
 20
276.500000
 40
22.000000
 50
270.000000
 51
290.487305
  0
LINE
  8
0
  6
CONTINUOUS
 10
257.000000
 20
258.260162
 11
257.000000
 21
257.765015
  0
LINE
  8
0
  6
CONTINUOUS
 10
255.000000
 20
259.000000
 11
255.000000
 21
257.135071
  0
LINE
  8
0
  6
CONTINUOUS
 10
265.401367
 20
268.801575
 11
257.481476
 21
259.561737
  0
LINE
  8
0
  6
CONTINUOUS
 10
264.481476
 20
270.801575
 11
255.481491
 21
260.301575
  0
ARC
  8
0
  6
CONTINUOUS
 10
257.000000
 20
259.000000
 40
2.000000
 50
139.398712
 51
180.000000
  0
ARC
  8
0
  6
CONTINUOUS
 10
259.000000
 20
258.260162
 40
2.000000
 50
139.398712
 51
180.000000
  0
ARC
  8
0
  6
CONTINUOUS
 10
266.919861
 20
267.500000
 40
2.000000
 50
90.000000
 51
139.398712
  0
ARC
  8
0
  6
CONTINUOUS
 10
266.000000
 20
269.500000
 40
2.000000
 50
90.000000
 51
139.398712
  0
LINE
  8
0
  6
CONTINUOUS
 10
255.124237
 20
259.693878
 11
257.124237
 21
258.954041
  0
LINE
  8
0
  6
CONTINUOUS
 10
265.164276
 20
271.317017
 11
266.084167
 21
269.317017
  0
LINE
  8
0
  6
CONTINUOUS
 10
266.000000
 20
271.500000
 11
267.773712
 21
271.500000
  0
LINE
  8
0
  6
CONTINUOUS
 10
266.919861
 20
269.500000
 11
267.364929
 21
269.500000
  0
ARC
  8
0
  6
CONTINUOUS
 10
267.773712
 20
273.500000
 40
2.000000
 50
270.000000
 51
351.373077
  0
ARC
  8
0
  6
CONTINUOUS
 10
267.364929
 20
271.500000
 40
2.000000
 50
270.000000
 51
345.522491
  0
ARC
  8
0
  6
CONTINUOUS
 10
253.000000
 20
257.135071
 40
2.000000
 50
-75.522491
 51
0.000000
  0
ARC
  8
0
  6
CONTINUOUS
 10
255.000000
 20
257.765015
 40
2.000000
 50
-69.512688
 51
0.000000
  0
ARC
  8
0
  6
CONTINUOUS
 10
210.000000
 20
276.500000
 40
22.000000
 50
-110.487312
 51
-90.000000
  0
LINE
  8
0
  6
CONTINUOUS
 10
201.000000
 20
258.260162
 11
201.000000
 21
257.765015
  0
LINE
  8
0
  6
CONTINUOUS
 10
203.000000
 20
259.000000
 11
203.000000
 21
257.135071
  0
LINE
  8
0
  6
CONTINUOUS
 10
192.598648
 20
268.801575
 11
200.518509
 21
259.561737
  0
LINE
  8
0
  6
CONTINUOUS
 10
193.518509
 20
270.801575
 11
202.518509
 21
260.301575
  0
ARC
  8
0
  6
CONTINUOUS
 10
201.000000
 20
259.000000
 40
2.000000
 50
0.000000
 51
40.601295
  0
ARC
  8
0
  6
CONTINUOUS
 10
199.000000
 20
258.260162
 40
2.000000
 50
0.000000
 51
40.601295
  0
ARC
  8
0
  6
CONTINUOUS
 10
191.080124
 20
267.500000
 40
2.000000
 50
40.601295
 51
90.000000
  0
ARC
  8
0
  6
CONTINUOUS
 10
192.000000
 20
269.500000
 40
2.000000
 50
40.601295
 51
90.000000
  0
LINE
  8
0
  6
CONTINUOUS
 10
202.875763
 20
259.693878
 11
200.875763
 21
258.954041
  0
LINE
  8
0
  6
CONTINUOUS
 10
192.835709
 20
271.317017
 11
191.915848
 21
269.317017
  0
LINE
  8
0
  6
CONTINUOUS
 10
192.000000
 20
271.500000
 11
190.226273
 21
271.500000
  0
LINE
  8
0
  6
CONTINUOUS
 10
191.080124
 20
269.500000
 11
190.635086
 21
269.500000
  0
ARC
  8
0
  6
CONTINUOUS
 10
190.226273
 20
273.500000
 40
2.000000
 50
-171.373077
 51
-90.000000
  0
ARC
  8
0
  6
CONTINUOUS
 10
190.635086
 20
271.500000
 40
2.000000
 50
-165.522491
 51
-90.000000
  0
ARC
  8
0
  6
CONTINUOUS
 10
205.000000
 20
257.135071
 40
2.000000
 50
180.000000
 51
255.522491
  0
ARC
  8
0
  6
CONTINUOUS
 10
203.000000
 20
257.765015
 40
2.000000
 50
180.000000
 51
249.512680
  0
ARC
  8
0
  6
CONTINUOUS
 10
248.000000
 20
276.500000
 40
22.000000
 50
-14.477512
 51
0.000000
  0
ARC
  8
0
  6
CONTINUOUS
 10
210.000000
 20
276.500000
 40
22.000000
 50
180.000000
 51
194.477509
  0
ARC
  8
0
  6
CONTINUOUS
 10
263.194611
 20
246.936264
 40
6.000000
 50
47.364067
 51
120.358299
  0
ARC
  8
0
  6
CONTINUOUS
 10
263.194611
 20
333.063751
 40
6.000000
 50
-120.358299
 51
-47.364067
  0
ARC
  8
0
  6
CONTINUOUS
 10
194.805389
 20
333.063751
 40
6.000000
 50
-132.635925
 51
-59.641697
  0
ARC
  8
0
  6
CONTINUOUS
 10
194.805389
 20
246.936264
 40
6.000000
 50
59.641697
 51
132.635925
  0
CIRCLE
  8
0
  6
CONTINUOUS
 10
274.500000
 20
266.500000
 40
3.800000
  0
CIRCLE
  8
0
  6
CONTINUOUS
 10
274.500000
 20
266.500000
 40
3.500000
  0
LINE
  8
0
  6
CONTINUOUS
 10
273.000000
 20
267.433990
 11
273.000000
 21
265.566040
  0
LINE
  8
0
  6
CONTINUOUS
 10
276.000000
 20
267.433990
 11
276.000000
 21
265.566040
  0
LINE
  8
0
  6
CONTINUOUS
 10
274.500000
 20
264.700012
 11
273.000000
 21
265.566040
  0
LINE
  8
0
  6
CONTINUOUS
 10
274.500000
 20
264.700012
 11
276.000000
 21
265.566040
  0
LINE
  8
0
  6
CONTINUOUS
 10
274.500000
 20
268.300018
 11
276.000000
 21
267.433990
  0
LINE
  8
0
  6
CONTINUOUS
 10
274.500000
 20
268.300018
 11
273.000000
 21
267.433990
  0
LINE
  8
0
  6
CENTER
 10
268.948608
 20
266.500000
 11
279.353638
 21
266.500000
  0
LINE
  8
0
  6
CENTER
 10
274.500000
 20
272.043579
 11
274.500000
 21
260.927643
  0
ARC
  8
0
  6
CONTINUOUS
 10
277.000000
 20
260.000000
 40
2.000000
 50
0.000000
 51
90.000000
  0
LINE
  8
0
  6
CONTINUOUS
 10
277.000000
 20
262.000000
 11
274.500000
 21
262.000000
  0
ARC
  8
0
  6
CONTINUOUS
 10
277.000000
 20
273.000000
 40
2.000000
 50
-90.000000
 51
0.000000
  0
LINE
  8
0
  6
CONTINUOUS
 10
277.000000
 20
271.000000
 11
274.500000
 21
271.000000
  0
ARC
  8
0
  6
CONTINUOUS
 10
274.500000
 20
266.500000
 40
4.500000
 50
90.000000
 51
270.000000
  0
CIRCLE
  8
0
  6
CONTINUOUS
 10
274.500000
 20
313.500000
 40
3.800000
  0
CIRCLE
  8
0
  6
CONTINUOUS
 10
274.500000
 20
313.500000
 40
3.500000
  0
LINE
  8
0
  6
CONTINUOUS
 10
273.000000
 20
312.566010
 11
273.000000
 21
314.433960
  0
LINE
  8
0
  6
CONTINUOUS
 10
276.000000
 20
312.566010
 11
276.000000
 21
314.433960
  0
LINE
  8
0
  6
CONTINUOUS
 10
274.500000
 20
315.299988
 11
273.000000
 21
314.433960
  0
LINE
  8
0
  6
CONTINUOUS
 10
274.500000
 20
315.299988
 11
276.000000
 21
314.433960
  0
LINE
  8
0
  6
CONTINUOUS
 10
274.500000
 20
311.699982
 11
276.000000
 21
312.566010
  0
LINE
  8
0
  6
CONTINUOUS
 10
274.500000
 20
311.699982
 11
273.000000
 21
312.566010
  0
LINE
  8
0
  6
CENTER
 10
274.500000
 20
307.956421
 11
274.500000
 21
319.072357
  0
LINE
  8
0
  6
CONTINUOUS
 10
277.000000
 20
318.000000
 11
274.500000
 21
318.000000
  0
LINE
  8
0
  6
CONTINUOUS
 10
277.000000
 20
309.000000
 11
274.500000
 21
309.000000
  0
ARC
  8
0
  6
CONTINUOUS
 10
274.500000
 20
313.500000
 40
4.500000
 50
-270.000000
 51
-90.000000
  0
LINE
  8
0
  6
CENTER
 10
268.948608
 20
313.500000
 11
279.353638
 21
313.500000
  0
ARC
  8
0
  6
CONTINUOUS
 10
277.000000
 20
320.000000
 40
2.000000
 50
-90.000000
 51
0.000000
  0
ARC
  8
0
  6
CONTINUOUS
 10
277.000000
 20
307.000000
 40
2.000000
 50
0.000000
 51
90.000000
  0
CIRCLE
  8
0
  6
CONTINUOUS
 10
183.500000
 20
313.500000
 40
3.800000
  0
CIRCLE
  8
0
  6
CONTINUOUS
 10
183.500000
 20
313.500000
 40
3.500000
  0
LINE
  8
0
  6
CONTINUOUS
 10
185.000000
 20
312.566010
 11
185.000000
 21
314.433960
  0
LINE
  8
0
  6
CONTINUOUS
 10
182.000000
 20
312.566010
 11
182.000000
 21
314.433960
  0
LINE
  8
0
  6
CONTINUOUS
 10
183.500000
 20
315.299988
 11
185.000000
 21
314.433960
  0
LINE
  8
0
  6
CONTINUOUS
 10
183.500000
 20
315.299988
 11
182.000000
 21
314.433960
  0
LINE
  8
0
  6
CONTINUOUS
 10
183.500000
 20
311.699982
 11
182.000000
 21
312.566010
  0
LINE
  8
0
  6
CONTINUOUS
 10
183.500000
 20
311.699982
 11
185.000000
 21
312.566010
  0
LINE
  8
0
  6
CONTINUOUS
 10
181.000000
 20
318.000000
 11
183.500000
 21
318.000000
  0
LINE
  8
0
  6
CONTINUOUS
 10
181.000000
 20
309.000000
 11
183.500000
 21
309.000000
  0
ARC
  8
0
  6
CONTINUOUS
 10
183.500000
 20
313.500000
 40
4.500000
 50
-90.000000
 51
90.000000
  0
ARC
  8
0
  6
CONTINUOUS
 10
181.000000
 20
307.000000
 40
2.000000
 50
90.000000
 51
180.000000
  0
LINE
  8
0
  6
CENTER
 10
183.500000
 20
307.956421
 11
183.500000
 21
319.072357
  0
LINE
  8
0
  6
CENTER
 10
189.051392
 20
313.500000
 11
178.646347
 21
313.500000
  0
ARC
  8
0
  6
CONTINUOUS
 10
181.000000
 20
320.000000
 40
2.000000
 50
180.000000
 51
270.000000
  0
ARC
  8
0
  6
CONTINUOUS
 10
183.500000
 20
266.500000
 40
4.500000
 50
-90.000000
 51
90.000000
  0
LINE
  8
0
  6
CONTINUOUS
 10
181.000000
 20
262.000000
 11
183.500000
 21
262.000000
  0
ARC
  8
0
  6
CONTINUOUS
 10
181.000000
 20
260.000000
 40
2.000000
 50
90.000000
 51
180.000000
  0
CIRCLE
  8
0
  6
CONTINUOUS
 10
183.500000
 20
266.500000
 40
3.800000
  0
CIRCLE
  8
0
  6
CONTINUOUS
 10
183.500000
 20
266.500000
 40
3.500000
  0
LINE
  8
0
  6
CONTINUOUS
 10
183.500000
 20
264.700012
 11
182.000000
 21
265.566040
  0
LINE
  8
0
  6
CONTINUOUS
 10
182.000000
 20
267.433990
 11
182.000000
 21
265.566040
  0
LINE
  8
0
  6
CENTER
 10
189.051392
 20
266.500000
 11
178.646347
 21
266.500000
  0
LINE
  8
0
  6
CENTER
 10
183.500000
 20
272.043579
 11
183.500000
 21
260.927643
  0
LINE
  8
0
  6
CONTINUOUS
 10
183.500000
 20
268.300018
 11
182.000000
 21
267.433990
  0
LINE
  8
0
  6
CONTINUOUS
 10
183.500000
 20
268.300018
 11
185.000000
 21
267.433990
  0
LINE
  8
0
  6
CONTINUOUS
 10
185.000000
 20
267.433990
 11
185.000000
 21
265.566040
  0
LINE
  8
0
  6
CONTINUOUS
 10
183.500000
 20
264.700012
 11
185.000000
 21
265.566040
  0
LINE
  8
0
  6
CONTINUOUS
 10
181.000000
 20
271.000000
 11
183.500000
 21
271.000000
  0
ARC
  8
0
  6
CONTINUOUS
 10
181.000000
 20
273.000000
 40
2.000000
 50
180.000000
 51
270.000000
  0
CIRCLE
  8
0
  6
CONTINUOUS
 10
600.000000
 20
290.000000
 40
19.500000
  0
CIRCLE
  8
0
  6
CONTINUOUS
 10
600.000000
 20
290.000000
 40
16.000000
  0
CIRCLE
  8
0
  6
CONTINUOUS
 10
600.000000
 20
290.000000
 40
23.000000
  0
CIRCLE
  8
0
  6
CONTINUOUS
 10
600.000000
 20
290.000000
 40
25.002001
  0
LINE
  8
0
  6
CONTINUOUS
 10
598.000000
 20
297.799988
 11
602.000000
 21
297.799988
  0
LINE
  8
0
  6
CONTINUOUS
 10
598.000000
 20
297.799988
 11
598.000000
 21
295.656860
  0
LINE
  8
0
  6
CONTINUOUS
 10
602.000000
 20
297.799988
 11
602.000000
 21
295.656860
  0
CIRCLE
  8
0
  6
CONTINUOUS
 10
600.000000
 20
290.000000
 40
10.000000
  0
ARC
  8
0
  6
CONTINUOUS
 10
600.000000
 20
290.000000
 40
6.000000
 50
-250.528778
 51
70.528778
  0
CIRCLE
  8
0
  6
CONTINUOUS
 10
240.000000
 20
290.000000
 40
19.500000
  0
CIRCLE
  8
0
  6
CONTINUOUS
 10
240.000000
 20
290.000000
 40
16.000000
  0
CIRCLE
  8
0
  6
CONTINUOUS
 10
240.000000
 20
290.000000
 40
23.000000
  0
CIRCLE
  8
0
  6
CONTINUOUS
 10
240.000000
 20
290.000000
 40
25.002001
  0
LINE
  8
0
  6
CONTINUOUS
 10
238.000000
 20
297.799988
 11
242.000000
 21
297.799988
  0
LINE
  8
0
  6
CONTINUOUS
 10
238.000000
 20
297.799988
 11
238.000000
 21
295.656860
  0
LINE
  8
0
  6
CONTINUOUS
 10
242.000000
 20
297.799988
 11
242.000000
 21
295.656860
  0
CIRCLE
  8
0
  6
CONTINUOUS
 10
240.000000
 20
290.000000
 40
10.000000
  0
ARC
  8
0
  6
CONTINUOUS
 10
240.000000
 20
290.000000
 40
6.000000
 50
-250.528778
 51
70.528778
  0
LINE
  8
0
  6
CONTINUOUS
 10
561.706909
 20
493.496246
 11
660.293091
 21
493.496246
  0
LINE
  8
0
  6
CONTINUOUS
 10
423.000000
 20
340.498291
 11
423.000000
 21
330.098541
  0
LINE
  8
0
  6
CONTINUOUS
 10
377.000000
 20
340.498291
 11
377.000000
 21
330.098541
  0
ARC
  8
0
  6
CONTINUOUS
 10
400.000000
 20
340.998291
 40
4.250000
 50
196.601593
 51
343.398499
  0
ARC
  8
0
  6
CONTINUOUS
 10
405.031097
 20
339.498291
 40
1.000000
 50
90.000000
 51
163.398102
  0
ARC
  8
0
  6
CONTINUOUS
 10
394.968811
 20
339.498291
 40
1.000000
 50
16.601080
 51
90.000000
  0
LINE
  8
0
  6
CONTINUOUS
 10
405.031097
 20
340.498291
 11
423.000000
 21
340.498291
  0
LINE
  8
0
  6
CONTINUOUS
 10
394.968903
 20
340.498291
 11
377.000000
 21
340.498291
  0
ARC
  8
0
  6
CONTINUOUS
 10
400.000000
 20
340.998291
 40
6.000000
 50
184.780197
 51
355.219788
  0
LINE
  8
0
  6
CONTINUOUS
 10
377.500000
 20
341.498291
 11
377.500000
 21
340.498291
  0
LINE
  8
0
  6
CONTINUOUS
 10
422.500000
 20
341.498291
 11
422.500000
 21
340.498291
  0
CIRCLE
  8
0
  6
CONTINUOUS
 10
186.000000
 20
323.500000
 40
3.400000
  0
CIRCLE
  8
0
  6
CONTINUOUS
 10
186.000000
 20
323.500000
 40
4.250000
  0
CIRCLE
  8
0
  6
CONTINUOUS
 10
186.000000
 20
323.500000
 40
4.000000
  0
CIRCLE
  8
0
  6
CONTINUOUS
 10
186.000000
 20
256.500000
 40
3.400000
  0
CIRCLE
  8
0
  6
CONTINUOUS
 10
186.000000
 20
256.500000
 40
4.250000
  0
CIRCLE
  8
0
  6
CONTINUOUS
 10
186.000000
 20
256.500000
 40
4.000000
  0
CIRCLE
  8
0
  6
CONTINUOUS
 10
272.000000
 20
256.500000
 40
3.400000
  0
CIRCLE
  8
0
  6
CONTINUOUS
 10
272.000000
 20
256.500000
 40
4.250000
  0
CIRCLE
  8
0
  6
CONTINUOUS
 10
272.000000
 20
256.500000
 40
4.000000
  0
CIRCLE
  8
0
  6
CONTINUOUS
 10
272.000000
 20
323.500000
 40
3.400000
  0
CIRCLE
  8
0
  6
CONTINUOUS
 10
272.000000
 20
323.500000
 40
4.250000
  0
CIRCLE
  8
0
  6
CONTINUOUS
 10
272.000000
 20
323.500000
 40
4.000000
  0
LINE
  8
0
  6
CONTINUOUS
 10
779.591125
 20
345.149994
 11
779.769287
 21
342.501495
  0
LINE
  8
0
  6
CONTINUOUS
 10
779.769287
 20
342.501495
 11
779.311584
 21
339.725555
  0
LINE
  8
0
  6
CONTINUOUS
 10
779.311584
 20
339.725555
 11
779.636658
 21
337.450012
  0
LINE
  8
0
  6
CONTINUOUS
 10
736.555420
 20
431.996246
 11
736.555420
 21
473.996246
  0
LINE
  8
0
  6
CENTER
 10
768.162292
 20
432.996246
 11
758.787292
 21
432.996246
  0
LINE
  8
0
  6
CENTER
 10
739.555481
 20
437.718842
 11
739.555481
 21
427.781342
  0
LINE
  8
0
  6
CONTINUOUS
 10
766.555481
 20
473.996246
 11
766.555481
 21
431.996246
  0
LINE
  8
0
  6
CONTINUOUS
 10
768.555481
 20
457.996246
 11
768.555481
 21
447.996246
  0
LINE
  8
0
  6
CONTINUOUS
 10
734.555481
 20
457.996246
 11
734.555481
 21
447.996246
  0
ARC
  8
0
  6
CONTINUOUS
 10
739.555481
 20
432.996246
 40
3.500000
 50
0.000000
 51
90.000000
  0
LINE
  8
0
  6
CONTINUOUS
 10
737.555420
 20
436.496246
 11
739.555481
 21
436.496246
  0
LINE
  8
0
  6
CONTINUOUS
 10
743.055481
 20
430.996246
 11
743.055481
 21
432.996246
  0
ARC
  8
0
  6
CONTINUOUS
 10
737.555420
 20
437.496246
 40
1.000000
 50
180.000000
 51
270.000000
  0
ARC
  8
0
  6
CONTINUOUS
 10
763.555481
 20
432.996246
 40
3.500000
 50
90.000000
 51
180.000000
  0
LINE
  8
0
  6
CONTINUOUS
 10
760.055481
 20
430.996246
 11
760.055481
 21
432.996246
  0
LINE
  8
0
  6
CONTINUOUS
 10
765.555603
 20
436.496246
 11
763.555481
 21
436.496246
  0
ARC
  8
0
  6
CONTINUOUS
 10
765.555603
 20
437.496246
 40
1.000000
 50
-90.000000
 51
0.000000
  0
LINE
  8
0
  6
CONTINUOUS
 10
764.555481
 20
429.996246
 11
738.555420
 21
429.996246
  0
ARC
  8
0
  6
CONTINUOUS
 10
759.055481
 20
430.996246
 40
1.000000
 50
-90.000000
 51
0.000000
  0
ARC
  8
0
  6
CONTINUOUS
 10
744.055481
 20
430.996246
 40
1.000000
 50
180.000000
 51
270.000000
  0
ARC
  8
0
  6
CONTINUOUS
 10
738.555420
 20
431.996246
 40
2.000000
 50
180.000000
 51
270.000000
  0
ARC
  8
0
  6
CONTINUOUS
 10
764.555481
 20
431.996246
 40
2.000000
 50
-90.000000
 51
0.000000
  0
LINE
  8
0
  6
CENTER
 10
763.555481
 20
427.781342
 11
763.555481
 21
437.718842
  0
LINE
  8
0
  6
CENTER
 10
768.162292
 20
472.996246
 11
758.787292
 21
472.996246
  0
LINE
  8
0
  6
CENTER
 10
739.555481
 20
468.273651
 11
739.555481
 21
478.117462
  0
LINE
  8
0
  6
CENTER
 10
734.724792
 20
472.996246
 11
744.599792
 21
472.996246
  0
ARC
  8
0
  6
CONTINUOUS
 10
739.555481
 20
472.996246
 40
3.500000
 50
-90.000000
 51
0.000000
  0
LINE
  8
0
  6
CONTINUOUS
 10
737.555420
 20
469.496246
 11
739.555481
 21
469.496246
  0
LINE
  8
0
  6
CONTINUOUS
 10
743.055481
 20
474.996246
 11
743.055481
 21
472.996246
  0
ARC
  8
0
  6
CONTINUOUS
 10
737.555420
 20
468.496246
 40
1.000000
 50
-270.000000
 51
-180.000000
  0
ARC
  8
0
  6
CONTINUOUS
 10
763.555481
 20
472.996246
 40
3.500000
 50
-180.000000
 51
-90.000000
  0
LINE
  8
0
  6
CONTINUOUS
 10
760.055481
 20
474.996246
 11
760.055481
 21
472.996246
  0
LINE
  8
0
  6
CONTINUOUS
 10
765.555603
 20
469.496246
 11
763.555481
 21
469.496246
  0
ARC
  8
0
  6
CONTINUOUS
 10
765.555603
 20
468.496246
 40
1.000000
 50
0.000000
 51
90.000000
  0
LINE
  8
0
  6
CONTINUOUS
 10
764.555481
 20
475.996246
 11
738.555420
 21
475.996246
  0
ARC
  8
0
  6
CONTINUOUS
 10
759.055481
 20
474.996246
 40
1.000000
 50
0.000000
 51
90.000000
  0
ARC
  8
0
  6
CONTINUOUS
 10
744.055481
 20
474.996246
 40
1.000000
 50
-270.000000
 51
-180.000000
  0
ARC
  8
0
  6
CONTINUOUS
 10
738.555420
 20
473.996246
 40
2.000000
 50
-270.000000
 51
-180.000000
  0
ARC
  8
0
  6
CONTINUOUS
 10
764.555481
 20
473.996246
 40
2.000000
 50
0.000000
 51
90.000000
  0
LINE
  8
0
  6
CONTINUOUS
 10
736.055481
 20
458.996246
 11
735.555481
 21
458.996246
  0
ARC
  8
0
  6
CONTINUOUS
 10
735.555481
 20
457.996246
 40
1.000000
 50
90.000000
 51
180.000000
  0
ARC
  8
0
  6
CONTINUOUS
 10
736.055481
 20
459.496246
 40
0.500000
 50
-90.000000
 51
0.000000
  0
LINE
  8
0
  6
CONTINUOUS
 10
736.055481
 20
446.996246
 11
735.555481
 21
446.996246
  0
ARC
  8
0
  6
CONTINUOUS
 10
735.555481
 20
447.996246
 40
1.000000
 50
-180.000000
 51
-90.000000
  0
ARC
  8
0
  6
CONTINUOUS
 10
736.055481
 20
446.496246
 40
0.500000
 50
0.000000
 51
90.000000
  0
LINE
  8
0
  6
CONTINUOUS
 10
767.055481
 20
458.996246
 11
767.555481
 21
458.996246
  0
ARC
  8
0
  6
CONTINUOUS
 10
767.555481
 20
457.996246
 40
1.000000
 50
0.000000
 51
90.000000
  0
ARC
  8
0
  6
CONTINUOUS
 10
767.055481
 20
459.496246
 40
0.500000
 50
180.000000
 51
270.000000
  0
LINE
  8
0
  6
CONTINUOUS
 10
767.055481
 20
446.996246
 11
767.555481
 21
446.996246
  0
ARC
  8
0
  6
CONTINUOUS
 10
767.555481
 20
447.996246
 40
1.000000
 50
-90.000000
 51
0.000000
  0
ARC
  8
0
  6
CONTINUOUS
 10
767.055481
 20
446.496246
 40
0.500000
 50
90.000000
 51
180.000000
  0
LINE
  8
0
  6
CENTER
 10
763.555481
 20
468.273651
 11
763.555481
 21
477.906342
  0
LINE
  8
0
  6
CENTER
 10
744.599792
 20
432.996246
 11
734.443604
 21
432.996246
  0
LINE
  8
0
  6
CONTINUOUS
 10
765.305481
 20
473.396240
 11
765.305481
 21
472.596222
  0
LINE
  8
0
  6
CONTINUOUS
 10
763.155457
 20
474.746246
 11
763.955505
 21
474.746246
  0
LINE
  8
0
  6
CONTINUOUS
 10
763.155457
 20
471.246246
 11
763.955505
 21
471.246246
  0
LINE
  8
0
  6
CONTINUOUS
 10
761.805481
 20
473.396240
 11
761.805481
 21
472.596222
  0
CIRCLE
  8
0
  6
CONTINUOUS
 10
763.555481
 20
472.996246
 40
2.750000
  0
ARC
  8
0
  6
CONTINUOUS
 10
761.805481
 20
474.746246
 40
1.350000
 50
-90.000000
 51
0.000000
  0
ARC
  8
0
  6
CONTINUOUS
 10
761.805481
 20
471.246246
 40
1.350000
 50
0.000000
 51
90.000000
  0
ARC
  8
0
  6
CONTINUOUS
 10
765.305481
 20
474.746246
 40
1.350000
 50
180.000000
 51
270.000000
  0
ARC
  8
0
  6
CONTINUOUS
 10
765.305481
 20
471.246246
 40
1.350000
 50
90.000000
 51
180.000000
  0
LINE
  8
0
  6
CONTINUOUS
 10
741.305481
 20
473.396240
 11
741.305481
 21
472.596222
  0
LINE
  8
0
  6
CONTINUOUS
 10
739.155457
 20
474.746246
 11
739.955505
 21
474.746246
  0
LINE
  8
0
  6
CONTINUOUS
 10
739.155457
 20
471.246246
 11
739.955505
 21
471.246246
  0
LINE
  8
0
  6
CONTINUOUS
 10
737.805481
 20
473.396240
 11
737.805481
 21
472.596222
  0
CIRCLE
  8
0
  6
CONTINUOUS
 10
739.555481
 20
472.996246
 40
2.750000
  0
ARC
  8
0
  6
CONTINUOUS
 10
737.805481
 20
474.746246
 40
1.350000
 50
-90.000000
 51
0.000000
  0
ARC
  8
0
  6
CONTINUOUS
 10
737.805481
 20
471.246246
 40
1.350000
 50
0.000000
 51
90.000000
  0
ARC
  8
0
  6
CONTINUOUS
 10
741.305481
 20
474.746246
 40
1.350000
 50
180.000000
 51
270.000000
  0
ARC
  8
0
  6
CONTINUOUS
 10
741.305481
 20
471.246246
 40
1.350000
 50
90.000000
 51
180.000000
  0
LINE
  8
0
  6
CONTINUOUS
 10
741.305481
 20
433.396240
 11
741.305481
 21
432.596222
  0
LINE
  8
0
  6
CONTINUOUS
 10
739.155457
 20
434.746246
 11
739.955505
 21
434.746246
  0
LINE
  8
0
  6
CONTINUOUS
 10
739.155457
 20
431.246246
 11
739.955505
 21
431.246246
  0
LINE
  8
0
  6
CONTINUOUS
 10
737.805481
 20
433.396240
 11
737.805481
 21
432.596222
  0
CIRCLE
  8
0
  6
CONTINUOUS
 10
739.555481
 20
432.996246
 40
2.750000
  0
ARC
  8
0
  6
CONTINUOUS
 10
737.805481
 20
434.746246
 40
1.350000
 50
-90.000000
 51
0.000000
  0
ARC
  8
0
  6
CONTINUOUS
 10
737.805481
 20
431.246246
 40
1.350000
 50
0.000000
 51
90.000000
  0
ARC
  8
0
  6
CONTINUOUS
 10
741.305481
 20
434.746246
 40
1.350000
 50
180.000000
 51
270.000000
  0
ARC
  8
0
  6
CONTINUOUS
 10
741.305481
 20
431.246246
 40
1.350000
 50
90.000000
 51
180.000000
  0
LINE
  8
0
  6
CONTINUOUS
 10
765.305481
 20
433.396240
 11
765.305481
 21
432.596222
  0
LINE
  8
0
  6
CONTINUOUS
 10
763.155457
 20
434.746246
 11
763.955505
 21
434.746246
  0
LINE
  8
0
  6
CONTINUOUS
 10
763.155457
 20
431.246246
 11
763.955505
 21
431.246246
  0
LINE
  8
0
  6
CONTINUOUS
 10
761.805481
 20
433.396240
 11
761.805481
 21
432.596222
  0
CIRCLE
  8
0
  6
CONTINUOUS
 10
763.555481
 20
432.996246
 40
2.750000
  0
ARC
  8
0
  6
CONTINUOUS
 10
761.805481
 20
434.746246
 40
1.350000
 50
-90.000000
 51
0.000000
  0
ARC
  8
0
  6
CONTINUOUS
 10
761.805481
 20
431.246246
 40
1.350000
 50
0.000000
 51
90.000000
  0
ARC
  8
0
  6
CONTINUOUS
 10
765.305481
 20
434.746246
 40
1.350000
 50
180.000000
 51
270.000000
  0
ARC
  8
0
  6
CONTINUOUS
 10
765.305481
 20
431.246246
 40
1.350000
 50
90.000000
 51
180.000000
  0
LINE
  8
0
  6
CONTINUOUS
 10
779.591248
 20
456.846252
 11
779.769409
 21
454.197754
  0
LINE
  8
0
  6
CONTINUOUS
 10
779.769409
 20
454.197754
 11
779.311646
 21
451.421814
  0
LINE
  8
0
  6
CONTINUOUS
 10
779.311646
 20
451.421814
 11
779.636780
 21
449.146240
  0
LINE
  8
0
  6
CONTINUOUS
 10
779.636780
 20
449.146240
 11
768.555481
 21
449.146240
  0
LINE
  8
0
  6
CONTINUOUS
 10
779.591248
 20
456.846252
 11
768.555481
 21
456.846252
  0
LINE
  8
0
  6
CONTINUOUS
 10
734.055481
 20
252.000000
 11
734.055481
 21
328.000000
  0
LINE
  8
0
  6
CONTINUOUS
 10
734.055481
 20
328.000000
 11
734.055481
 21
252.000000
  0
LINE
  8
0
  6
CONTINUOUS
 10
759.055481
 20
320.525848
 11
759.055481
 21
258.750092
  0
LINE
  8
0
  6
CONTINUOUS
 10
735.581726
 20
328.039978
 11
734.055481
 21
328.000000
  0
ARC
  8
0
  6
CONTINUOUS
 10
735.555481
 20
329.039612
 40
1.000000
 50
-88.499901
 51
0.000000
  0
LINE
  8
0
  6
CONTINUOUS
 10
734.055481
 20
252.000000
 11
734.055481
 21
328.000000
  0
LINE
  8
0
  6
CONTINUOUS
 10
734.055481
 20
328.000000
 11
734.055481
 21
252.000000
  0
LINE
  8
0
  6
CONTINUOUS
 10
757.055786
 20
260.500000
 11
749.055481
 21
260.500000
  0
LINE
  8
0
  6
CENTER
 10
752.992859
 20
324.000000
 11
745.367859
 21
324.000000
  0
LINE
  8
0
  6
CONTINUOUS
 10
766.555359
 20
328.500000
 11
749.055481
 21
328.500000
  0
LINE
  8
0
  6
CONTINUOUS
 10
748.055481
 20
259.500000
 11
748.055481
 21
252.853592
  0
ARC
  8
0
  6
CONTINUOUS
 10
749.055481
 20
259.500000
 40
1.000000
 50
90.000000
 51
180.000000
  0
LINE
  8
0
  6
CONTINUOUS
 10
748.055481
 20
320.000000
 11
748.055481
 21
327.500000
  0
ARC
  8
0
  6
CONTINUOUS
 10
749.055481
 20
327.500000
 40
1.000000
 50
90.000000
 51
180.000000
  0
LINE
  8
0
  6
CONTINUOUS
 10
749.055481
 20
320.500000
 11
749.055481
 21
327.500000
  0
LINE
  8
0
  6
CONTINUOUS
 10
748.055481
 20
320.500000
 11
750.034485
 21
320.500000
  0
LINE
  8
0
  6
CONTINUOUS
 10
748.055481
 20
327.500000
 11
750.034485
 21
327.500000
  0
ARC
  8
0
  6
CONTINUOUS
 10
742.655518
 20
324.000000
 40
9.000000
 50
-16.601500
 51
16.601000
  0
ARC
  8
0
  6
CONTINUOUS
 10
750.034485
 20
321.800018
 40
1.300000
 50
-90.000000
 51
-16.601601
  0
ARC
  8
0
  6
CONTINUOUS
 10
750.034485
 20
326.200012
 40
1.300000
 50
16.600901
 51
90.000000
  0
LINE
  8
0
  6
CENTER
 10
755.125488
 20
256.000000
 11
743.992859
 21
256.000000
  0
LINE
  8
0
  6
CONTINUOUS
 10
748.055481
 20
259.618073
 11
748.055481
 21
252.500000
  0
LINE
  8
0
  6
CONTINUOUS
 10
749.055481
 20
259.500000
 11
749.055481
 21
252.500000
  0
LINE
  8
0
  6
CONTINUOUS
 10
748.055481
 20
259.500000
 11
750.034485
 21
259.500000
  0
LINE
  8
0
  6
CONTINUOUS
 10
748.055481
 20
252.500000
 11
750.034485
 21
252.500000
  0
ARC
  8
0
  6
CONTINUOUS
 10
742.655518
 20
256.000000
 40
9.000000
 50
-16.601000
 51
16.601500
  0
ARC
  8
0
  6
CONTINUOUS
 10
750.034485
 20
258.199982
 40
1.300000
 50
16.601601
 51
90.000000
  0
ARC
  8
0
  6
CONTINUOUS
 10
750.034485
 20
253.799988
 40
1.300000
 50
270.000000
 51
343.399109
  0
LINE
  8
0
  6
CONTINUOUS
 10
734.055481
 20
252.000015
 11
734.055481
 21
328.000000
  0
LINE
  8
0
  6
CONTINUOUS
 10
734.055481
 20
320.248962
 11
748.055481
 21
320.248962
  0
LINE
  8
0
  6
CONTINUOUS
 10
734.055481
 20
259.751038
 11
748.055481
 21
259.751038
  0
LINE
  8
0
  6
CONTINUOUS
 10
736.555359
 20
329.039612
 11
736.555359
 21
340.500000
  0
LINE
  8
0
  6
CONTINUOUS
 10
779.636658
 20
337.450012
 11
768.555359
 21
337.450012
  0
LINE
  8
0
  6
CONTINUOUS
 10
734.555359
 20
346.000000
 11
734.555359
 21
341.500000
  0
LINE
  8
0
  6
CONTINUOUS
 10
768.555359
 20
341.500000
 11
734.555359
 21
341.500000
  0
LINE
  8
0
  6
CONTINUOUS
 10
768.555359
 20
340.500000
 11
734.555359
 21
340.500000
  0
LINE
  8
0
  6
CONTINUOUS
 10
768.555359
 20
346.000000
 11
768.555359
 21
341.500000
  0
LINE
  8
0
  6
CONTINUOUS
 10
779.591125
 20
345.149994
 11
768.555359
 21
345.149994
  0
ARC
  8
0
  6
CONTINUOUS
 10
751.555359
 20
99.000023
 40
250.000000
 50
86.668304
 51
93.331696
  0
LINE
  8
0
  6
CONTINUOUS
 10
736.055359
 20
347.000000
 11
735.555359
 21
347.000000
  0
ARC
  8
0
  6
CONTINUOUS
 10
735.555359
 20
346.000000
 40
1.000000
 50
90.000000
 51
180.000000
  0
ARC
  8
0
  6
CONTINUOUS
 10
736.055359
 20
347.500000
 40
0.500000
 50
-90.000000
 51
0.000000
  0
LINE
  8
0
  6
CONTINUOUS
 10
767.055359
 20
347.000000
 11
767.555359
 21
347.000000
  0
ARC
  8
0
  6
CONTINUOUS
 10
767.555359
 20
346.000000
 40
1.000000
 50
0.000000
 51
90.000000
  0
ARC
  8
0
  6
CONTINUOUS
 10
767.055359
 20
347.500000
 40
0.500000
 50
180.000000
 51
270.000000
  0
LINE
  8
0
  6
CONTINUOUS
 10
766.555359
 20
323.657806
 11
766.555359
 21
340.500000
  0
LINE
  8
0
  6
CONTINUOUS
 10
767.055359
 20
335.000000
 11
767.555359
 21
335.000000
  0
ARC
  8
0
  6
CONTINUOUS
 10
767.555359
 20
336.000000
 40
1.000000
 50
-90.000000
 51
0.000000
  0
ARC
  8
0
  6
CONTINUOUS
 10
767.055359
 20
334.500000
 40
0.500000
 50
90.000000
 51
180.000000
  0
LINE
  8
0
  6
CONTINUOUS
 10
736.055359
 20
335.000000
 11
735.555359
 21
335.000000
  0
ARC
  8
0
  6
CONTINUOUS
 10
735.555359
 20
336.000000
 40
1.000000
 50
180.000000
 51
270.000000
  0
ARC
  8
0
  6
CONTINUOUS
 10
736.055359
 20
334.500000
 40
0.500000
 50
0.000000
 51
90.000000
  0
LINE
  8
0
  6
CENTER
 10
751.555481
 20
352.025513
 11
751.555359
 21
334.226715
  0
LINE
  8
0
  6
CENTER
 10
739.555359
 20
349.589203
 11
739.555359
 21
344.097778
  0
LINE
  8
0
  6
CENTER
 10
763.555359
 20
349.856812
 11
763.555359
 21
343.865753
  0
ARC
  8
0
  6
CONTINUOUS
 10
737.055359
 20
348.078308
 40
0.500000
 50
93.331696
 51
180.000000
  0
ARC
  8
0
  6
CONTINUOUS
 10
766.055359
 20
348.078308
 40
0.500000
 50
0.000000
 51
86.668304
  0
LINE
  8
0
  6
CONTINUOUS
 10
735.055359
 20
341.500000
 11
735.055359
 21
340.500000
  0
LINE
  8
0
  6
CONTINUOUS
 10
734.555359
 20
340.500000
 11
734.555359
 21
336.000000
  0
LINE
  8
0
  6
CONTINUOUS
 10
736.555359
 20
341.500000
 11
736.555359
 21
348.078308
  0
LINE
  8
0
  6
CONTINUOUS
 10
766.055359
 20
341.500000
 11
766.055359
 21
340.500000
  0
LINE
  8
0
  6
CONTINUOUS
 10
766.555359
 20
341.500000
 11
766.555359
 21
348.078308
  0
LINE
  8
0
  6
CONTINUOUS
 10
768.555359
 20
340.500000
 11
768.555359
 21
336.000000
  0
LINE
  8
0
  6
CONTINUOUS
 10
742.555359
 20
345.500000
 11
737.055359
 21
345.500000
  0
LINE
  8
0
  6
CONTINUOUS
 10
743.055359
 20
346.000000
 11
743.055359
 21
348.371735
  0
ARC
  8
0
  6
CONTINUOUS
 10
742.555359
 20
346.000000
 40
0.500000
 50
-90.000000
 51
0.000000
  0
ARC
  8
0
  6
CONTINUOUS
 10
737.055359
 20
345.000000
 40
0.500000
 50
90.000000
 51
180.000000
  0
ARC
  8
0
  6
CONTINUOUS
 10
743.555359
 20
348.371735
 40
0.500000
 50
91.837456
 51
180.000000
  0
LINE
  8
0
  6
CONTINUOUS
 10
760.555603
 20
345.500000
 11
766.055603
 21
345.500000
  0
ARC
  8
0
  6
CONTINUOUS
 10
760.555603
 20
346.000000
 40
0.500000
 50
180.000000
 51
270.000000
  0
ARC
  8
0
  6
CONTINUOUS
 10
766.055603
 20
345.000000
 40
0.500000
 50
0.000000
 51
90.000000
  0
LINE
  8
0
  6
CONTINUOUS
 10
760.055603
 20
346.000000
 11
760.055603
 21
348.371735
  0
ARC
  8
0
  6
CONTINUOUS
 10
759.555603
 20
348.371735
 40
0.500000
 50
0.000000
 51
88.162544
  0
LINE
  8
0
  6
CONTINUOUS
 10
742.305359
 20
345.500000
 11
742.305359
 21
346.939209
  0
LINE
  8
0
  6
CONTINUOUS
 10
736.805359
 20
345.499786
 11
736.805359
 21
346.939209
  0
LINE
  8
0
  6
CONTINUOUS
 10
742.305359
 20
346.200012
 11
736.805359
 21
346.200012
  0
ARC
  8
0
  6
CONTINUOUS
 10
739.555359
 20
341.200012
 40
7.000000
 50
73.042000
 51
106.956512
  0
ARC
  8
0
  6
CONTINUOUS
 10
737.805359
 20
346.939209
 40
1.000000
 50
106.956902
 51
180.000000
  0
ARC
  8
0
  6
CONTINUOUS
 10
741.305359
 20
346.939209
 40
1.000000
 50
0.000000
 51
73.041801
  0
LINE
  8
0
  6
CONTINUOUS
 10
766.305359
 20
345.500000
 11
766.305359
 21
346.939209
  0
LINE
  8
0
  6
CONTINUOUS
 10
760.805359
 20
345.499786
 11
760.805359
 21
346.939209
  0
LINE
  8
0
  6
CONTINUOUS
 10
766.305359
 20
346.200012
 11
760.805359
 21
346.200012
  0
ARC
  8
0
  6
CONTINUOUS
 10
763.555359
 20
341.200012
 40
7.000000
 50
73.042000
 51
106.956512
  0
ARC
  8
0
  6
CONTINUOUS
 10
761.805359
 20
346.939209
 40
1.000000
 50
106.956902
 51
180.000000
  0
ARC
  8
0
  6
CONTINUOUS
 10
765.305359
 20
346.939209
 40
1.000000
 50
0.000000
 51
73.041801
  0
LINE
  8
0
  6
CONTINUOUS
 10
764.607727
 20
321.658478
 11
760.028992
 21
321.538574
  0
ARC
  8
0
  6
CONTINUOUS
 10
760.055481
 20
320.525848
 40
1.000000
 50
91.500000
 51
180.000000
  0
ARC
  8
0
  6
CONTINUOUS
 10
764.555359
 20
323.657806
 40
2.000000
 50
-88.500000
 51
0.000000
  0
LINE
  8
0
  6
CONTINUOUS
 10
757.055786
 20
252.401474
 11
734.055481
 21
252.000000
  0
ARC
  8
0
  6
CONTINUOUS
 10
747.555481
 20
252.735718
 40
0.500000
 50
-89.000000
 51
0.000000
  0
LINE
  8
0
  6
CONTINUOUS
 10
748.555481
 20
319.500000
 11
757.055786
 21
319.500000
  0
ARC
  8
0
  6
CONTINUOUS
 10
748.555481
 20
320.000000
 40
0.500000
 50
180.000000
 51
270.000000
  0
LINE
  8
0
  6
CONTINUOUS
 10
758.313904
 20
260.836548
 11
757.055786
 21
260.500000
  0
ARC
  8
0
  6
CONTINUOUS
 10
758.055481
 20
261.802582
 40
1.000000
 50
-75.024384
 51
0.000000
  0
LINE
  8
0
  6
CONTINUOUS
 10
758.313904
 20
252.738007
 11
757.055786
 21
252.401474
  0
ARC
  8
0
  6
CONTINUOUS
 10
758.055481
 20
253.704041
 40
1.000000
 50
-75.024384
 51
0.000000
  0
LINE
  8
0
  6
CONTINUOUS
 10
758.313904
 20
319.163452
 11
757.055786
 21
319.500000
  0
ARC
  8
0
  6
CONTINUOUS
 10
758.055481
 20
318.197418
 40
1.000000
 50
0.000000
 51
75.024384
  0
LINE
  8
0
  6
CENTER
 10
751.555481
 20
425.948120
 11
751.555481
 21
480.532745
  0
LINE
  8
0
  6
CONTINUOUS
 10
734.055481
 20
490.996246
 11
734.055481
 21
414.996246
  0
LINE
  8
0
  6
CONTINUOUS
 10
759.055481
 20
416.700348
 11
759.055481
 21
429.996246
  0
LINE
  8
0
  6
CONTINUOUS
 10
759.055481
 20
489.292145
 11
759.055481
 21
475.996246
  0
LINE
  8
0
  6
CONTINUOUS
 10
757.055786
 20
490.594757
 11
734.055481
 21
490.996246
  0
LINE
  8
0
  6
CONTINUOUS
 10
758.313904
 20
490.258148
 11
757.055786
 21
490.594757
  0
ARC
  8
0
  6
CONTINUOUS
 10
758.055481
 20
489.292145
 40
1.000000
 50
0.000000
 51
75.025597
  0
LINE
  8
0
  6
CONTINUOUS
 10
757.055786
 20
415.397858
 11
734.055481
 21
414.996246
  0
LINE
  8
0
  6
CONTINUOUS
 10
758.313904
 20
415.734344
 11
757.055786
 21
415.397858
  0
ARC
  8
0
  6
CONTINUOUS
 10
758.055481
 20
416.700348
 40
1.000000
 50
-75.025597
 51
0.000000
  0
LINE
  8
0
  6
CONTINUOUS
 10
738.177734
 20
475.960266
 11
734.055481
 21
475.996246
  0
LINE
  8
0
  6
CONTINUOUS
 10
738.177734
 20
430.032227
 11
734.055481
 21
429.996246
  0
LINE
  8
0
  6
CONTINUOUS
 10
105.944496
 20
252.000000
 11
105.944496
 21
328.000000
  0
LINE
  8
0
  6
CONTINUOUS
 10
105.944496
 20
328.000000
 11
105.944496
 21
252.000000
  0
LINE
  8
0
  6
CONTINUOUS
 10
105.944496
 20
252.000015
 11
105.944496
 21
328.000000
  0
LINE
  8
0
  6
CONTINUOUS
 10
105.944496
 20
252.000000
 11
105.944496
 21
328.000000
  0
LINE
  8
0
  6
CONTINUOUS
 10
105.944496
 20
328.000000
 11
105.944496
 21
252.000000
  0
LINE
  8
0
  6
CENTER
 10
74.259926
 20
256.500000
 11
79.257118
 21
256.500000
  0
LINE
  8
0
  6
CONTINUOUS
 10
77.944496
 20
253.565628
 11
77.944496
 21
259.328552
  0
LINE
  8
0
  6
CONTINUOUS
 10
77.944496
 20
253.750000
 11
76.505226
 21
253.750000
  0
LINE
  8
0
  6
CONTINUOUS
 10
77.944496
 20
259.250000
 11
76.505226
 21
259.250000
  0
LINE
  8
0
  6
CONTINUOUS
 10
77.244423
 20
253.750000
 11
77.244423
 21
259.250000
  0
ARC
  8
0
  6
CONTINUOUS
 10
82.244423
 20
256.500000
 40
7.000000
 50
163.043503
 51
196.957993
  0
ARC
  8
0
  6
CONTINUOUS
 10
76.505226
 20
258.250000
 40
1.000000
 50
90.000000
 51
163.043106
  0
ARC
  8
0
  6
CONTINUOUS
 10
76.505226
 20
254.750000
 40
1.000000
 50
196.958099
 51
270.000000
  0
LINE
  8
0
  6
CONTINUOUS
 10
49.443645
 20
317.518982
 11
49.443645
 21
262.431915
  0
LINE
  8
0
  6
CENTER
 10
72.888702
 20
306.750000
 11
82.382118
 21
306.750000
  0
LINE
  8
0
  6
CONTINUOUS
 10
77.944496
 20
311.341278
 11
77.944496
 21
297.934967
  0
LINE
  8
0
  6
CONTINUOUS
 10
77.944496
 20
304.000000
 11
76.505226
 21
304.000000
  0
LINE
  8
0
  6
CONTINUOUS
 10
77.944496
 20
309.500000
 11
76.505226
 21
309.500000
  0
LINE
  8
0
  6
CONTINUOUS
 10
77.244423
 20
304.000000
 11
77.244423
 21
309.500000
  0
ARC
  8
0
  6
CONTINUOUS
 10
82.244423
 20
306.750000
 40
7.000000
 50
163.043503
 51
196.957993
  0
ARC
  8
0
  6
CONTINUOUS
 10
76.505226
 20
308.500000
 40
1.000000
 50
90.000000
 51
163.043106
  0
ARC
  8
0
  6
CONTINUOUS
 10
76.505226
 20
305.000000
 40
1.000000
 50
196.958099
 51
270.000000
  0
LINE
  8
0
  6
CONTINUOUS
 10
77.944496
 20
311.341278
 11
80.944496
 21
311.341278
  0
LINE
  8
0
  6
CONTINUOUS
 10
77.944496
 20
297.934967
 11
80.944496
 21
297.934967
  0
LINE
  8
0
  6
CONTINUOUS
 10
80.944496
 20
252.999985
 11
80.944496
 21
258.750092
  0
LINE
  8
0
  6
CONTINUOUS
 10
80.944496
 20
320.538940
 11
80.944496
 21
258.750092
  0
LINE
  8
0
  6
CONTINUOUS
 10
104.418289
 20
328.039978
 11
105.944496
 21
328.000000
  0
ARC
  8
0
  6
CONTINUOUS
 10
104.444496
 20
329.039612
 40
1.000000
 50
180.000000
 51
268.499908
  0
LINE
  8
0
  6
CONTINUOUS
 10
105.944496
 20
252.000000
 11
105.944496
 21
328.000000
  0
LINE
  8
0
  6
CONTINUOUS
 10
105.944496
 20
328.000000
 11
105.944496
 21
252.000000
  0
LINE
  8
0
  6
CONTINUOUS
 10
82.944191
 20
260.500000
 11
90.944496
 21
260.500000
  0
LINE
  8
0
  6
CENTER
 10
87.007118
 20
324.000000
 11
94.632118
 21
324.000000
  0
LINE
  8
0
  6
CONTINUOUS
 10
73.444618
 20
328.500000
 11
90.944496
 21
328.500000
  0
LINE
  8
0
  6
CONTINUOUS
 10
91.944496
 20
259.500000
 11
91.944496
 21
252.853592
  0
ARC
  8
0
  6
CONTINUOUS
 10
90.944496
 20
259.500000
 40
1.000000
 50
0.000000
 51
90.000000
  0
LINE
  8
0
  6
CONTINUOUS
 10
91.944496
 20
320.000000
 11
91.944496
 21
327.500000
  0
ARC
  8
0
  6
CONTINUOUS
 10
90.944496
 20
327.500000
 40
1.000000
 50
0.000000
 51
90.000000
  0
LINE
  8
0
  6
CONTINUOUS
 10
90.944496
 20
320.500000
 11
90.944496
 21
327.500000
  0
LINE
  8
0
  6
CONTINUOUS
 10
91.944496
 20
320.500000
 11
89.965492
 21
320.500000
  0
LINE
  8
0
  6
CONTINUOUS
 10
91.944496
 20
327.500000
 11
89.965492
 21
327.500000
  0
ARC
  8
0
  6
CONTINUOUS
 10
97.344482
 20
324.000000
 40
9.000000
 50
163.399002
 51
196.601501
  0
ARC
  8
0
  6
CONTINUOUS
 10
89.965492
 20
321.800018
 40
1.300000
 50
196.601593
 51
270.000000
  0
ARC
  8
0
  6
CONTINUOUS
 10
89.965492
 20
326.200012
 40
1.300000
 50
90.000000
 51
163.399094
  0
LINE
  8
0
  6
CENTER
 10
84.874496
 20
256.000000
 11
96.007118
 21
256.000000
  0
LINE
  8
0
  6
CONTINUOUS
 10
91.944496
 20
259.618073
 11
91.944496
 21
252.500000
  0
LINE
  8
0
  6
CONTINUOUS
 10
90.944496
 20
259.500000
 11
90.944496
 21
252.500000
  0
LINE
  8
0
  6
CONTINUOUS
 10
91.944496
 20
259.500000
 11
89.965492
 21
259.500000
  0
LINE
  8
0
  6
CONTINUOUS
 10
91.944496
 20
252.500000
 11
89.965492
 21
252.500000
  0
ARC
  8
0
  6
CONTINUOUS
 10
97.344482
 20
256.000000
 40
9.000000
 50
-196.601501
 51
-163.399002
  0
ARC
  8
0
  6
CONTINUOUS
 10
89.965492
 20
258.199982
 40
1.300000
 50
-270.000000
 51
-196.601593
  0
ARC
  8
0
  6
CONTINUOUS
 10
89.965492
 20
253.799988
 40
1.300000
 50
-163.399094
 51
-90.000000
  0
LINE
  8
0
  6
CONTINUOUS
 10
105.944496
 20
252.000015
 11
105.944496
 21
328.000000
  0
LINE
  8
0
  6
CONTINUOUS
 10
105.944496
 20
320.248962
 11
91.944496
 21
320.248962
  0
LINE
  8
0
  6
CONTINUOUS
 10
105.944496
 20
259.751038
 11
91.944496
 21
259.751038
  0
LINE
  8
0
  6
CONTINUOUS
 10
103.444618
 20
329.039612
 11
103.444618
 21
340.500000
  0
LINE
  8
0
  6
CONTINUOUS
 10
56.295815
 20
337.450012
 11
71.444618
 21
337.450012
  0
LINE
  8
0
  6
CONTINUOUS
 10
57.147617
 20
345.149994
 11
56.411816
 21
342.314911
  0
LINE
  8
0
  6
CONTINUOUS
 10
56.411816
 20
342.314911
 11
57.223915
 21
339.839905
  0
LINE
  8
0
  6
CONTINUOUS
 10
57.223915
 20
339.839905
 11
56.295815
 21
337.450012
  0
LINE
  8
0
  6
CONTINUOUS
 10
105.444618
 20
346.000000
 11
105.444618
 21
341.500000
  0
LINE
  8
0
  6
CONTINUOUS
 10
71.444618
 20
341.500000
 11
105.444618
 21
341.500000
  0
LINE
  8
0
  6
CONTINUOUS
 10
71.444618
 20
340.500000
 11
105.444618
 21
340.500000
  0
LINE
  8
0
  6
CONTINUOUS
 10
71.444618
 20
346.000000
 11
71.444618
 21
341.500000
  0
LINE
  8
0
  6
CONTINUOUS
 10
57.147617
 20
345.149994
 11
71.444618
 21
345.149994
  0
ARC
  8
0
  6
CONTINUOUS
 10
88.444618
 20
99.000023
 40
250.000000
 50
86.668304
 51
93.331696
  0
LINE
  8
0
  6
CONTINUOUS
 10
103.944618
 20
347.000000
 11
104.444618
 21
347.000000
  0
ARC
  8
0
  6
CONTINUOUS
 10
104.444618
 20
346.000000
 40
1.000000
 50
0.000000
 51
90.000000
  0
ARC
  8
0
  6
CONTINUOUS
 10
103.944618
 20
347.500000
 40
0.500000
 50
180.000000
 51
270.000000
  0
LINE
  8
0
  6
CONTINUOUS
 10
72.944618
 20
347.000000
 11
72.444618
 21
347.000000
  0
ARC
  8
0
  6
CONTINUOUS
 10
72.444618
 20
346.000000
 40
1.000000
 50
90.000000
 51
180.000000
  0
ARC
  8
0
  6
CONTINUOUS
 10
72.944618
 20
347.500000
 40
0.500000
 50
-90.000000
 51
0.000000
  0
LINE
  8
0
  6
CONTINUOUS
 10
73.444618
 20
323.657806
 11
73.444618
 21
340.500000
  0
LINE
  8
0
  6
CONTINUOUS
 10
72.944618
 20
335.000000
 11
72.444618
 21
335.000000
  0
ARC
  8
0
  6
CONTINUOUS
 10
72.444618
 20
336.000000
 40
1.000000
 50
-180.000000
 51
-90.000000
  0
ARC
  8
0
  6
CONTINUOUS
 10
72.944618
 20
334.500000
 40
0.500000
 50
0.000000
 51
90.000000
  0
LINE
  8
0
  6
CONTINUOUS
 10
103.944618
 20
335.000000
 11
104.444618
 21
335.000000
  0
ARC
  8
0
  6
CONTINUOUS
 10
104.444618
 20
336.000000
 40
1.000000
 50
-90.000000
 51
0.000000
  0
ARC
  8
0
  6
CONTINUOUS
 10
103.944618
 20
334.500000
 40
0.500000
 50
90.000000
 51
180.000000
  0
LINE
  8
0
  6
CENTER
 10
88.444496
 20
352.025513
 11
88.444618
 21
334.226715
  0
LINE
  8
0
  6
CENTER
 10
100.444618
 20
349.589203
 11
100.444618
 21
344.097778
  0
LINE
  8
0
  6
CENTER
 10
76.444618
 20
349.856812
 11
76.444618
 21
343.865753
  0
ARC
  8
0
  6
CONTINUOUS
 10
102.944618
 20
348.078308
 40
0.500000
 50
0.000000
 51
86.668304
  0
ARC
  8
0
  6
CONTINUOUS
 10
73.944618
 20
348.078308
 40
0.500000
 50
93.331696
 51
180.000000
  0
LINE
  8
0
  6
CONTINUOUS
 10
104.944618
 20
341.500000
 11
104.944618
 21
340.500000
  0
LINE
  8
0
  6
CONTINUOUS
 10
105.444618
 20
340.500000
 11
105.444618
 21
336.000000
  0
LINE
  8
0
  6
CONTINUOUS
 10
103.444618
 20
341.500000
 11
103.444618
 21
348.078308
  0
LINE
  8
0
  6
CONTINUOUS
 10
73.944618
 20
341.500000
 11
73.944618
 21
340.500000
  0
LINE
  8
0
  6
CONTINUOUS
 10
73.444618
 20
341.500000
 11
73.444618
 21
348.078308
  0
LINE
  8
0
  6
CONTINUOUS
 10
71.444618
 20
340.500000
 11
71.444618
 21
336.000000
  0
LINE
  8
0
  6
CONTINUOUS
 10
97.444618
 20
345.500000
 11
102.944618
 21
345.500000
  0
LINE
  8
0
  6
CONTINUOUS
 10
96.944618
 20
346.000000
 11
96.944618
 21
348.371735
  0
ARC
  8
0
  6
CONTINUOUS
 10
97.444618
 20
346.000000
 40
0.500000
 50
180.000000
 51
270.000000
  0
ARC
  8
0
  6
CONTINUOUS
 10
102.944618
 20
345.000000
 40
0.500000
 50
0.000000
 51
90.000000
  0
ARC
  8
0
  6
CONTINUOUS
 10
96.444618
 20
348.371735
 40
0.500000
 50
0.000000
 51
88.162544
  0
LINE
  8
0
  6
CONTINUOUS
 10
79.444374
 20
345.500000
 11
73.944374
 21
345.500000
  0
ARC
  8
0
  6
CONTINUOUS
 10
79.444374
 20
346.000000
 40
0.500000
 50
-90.000000
 51
0.000000
  0
ARC
  8
0
  6
CONTINUOUS
 10
73.944374
 20
345.000000
 40
0.500000
 50
90.000000
 51
180.000000
  0
LINE
  8
0
  6
CONTINUOUS
 10
79.944374
 20
346.000000
 11
79.944374
 21
348.371735
  0
ARC
  8
0
  6
CONTINUOUS
 10
80.444374
 20
348.371735
 40
0.500000
 50
91.837456
 51
180.000000
  0
LINE
  8
0
  6
CONTINUOUS
 10
97.694618
 20
345.500000
 11
97.694618
 21
346.939209
  0
LINE
  8
0
  6
CONTINUOUS
 10
103.194618
 20
345.499786
 11
103.194618
 21
346.939209
  0
LINE
  8
0
  6
CONTINUOUS
 10
97.694618
 20
346.200012
 11
103.194618
 21
346.200012
  0
ARC
  8
0
  6
CONTINUOUS
 10
100.444618
 20
341.200012
 40
7.000000
 50
73.043488
 51
106.958000
  0
ARC
  8
0
  6
CONTINUOUS
 10
102.194618
 20
346.939209
 40
1.000000
 50
0.000000
 51
73.043098
  0
ARC
  8
0
  6
CONTINUOUS
 10
98.694618
 20
346.939209
 40
1.000000
 50
106.958199
 51
180.000000
  0
LINE
  8
0
  6
CONTINUOUS
 10
73.694618
 20
345.500000
 11
73.694618
 21
346.939209
  0
LINE
  8
0
  6
CONTINUOUS
 10
79.194618
 20
345.499786
 11
79.194618
 21
346.939209
  0
LINE
  8
0
  6
CONTINUOUS
 10
73.694618
 20
346.200012
 11
79.194618
 21
346.200012
  0
ARC
  8
0
  6
CONTINUOUS
 10
76.444618
 20
341.200012
 40
7.000000
 50
73.043488
 51
106.958000
  0
ARC
  8
0
  6
CONTINUOUS
 10
78.194618
 20
346.939209
 40
1.000000
 50
0.000000
 51
73.043098
  0
ARC
  8
0
  6
CONTINUOUS
 10
74.694618
 20
346.939209
 40
1.000000
 50
106.958199
 51
180.000000
  0
LINE
  8
0
  6
CONTINUOUS
 10
79.970673
 20
321.538605
 11
75.392265
 21
321.658478
  0
ARC
  8
0
  6
CONTINUOUS
 10
75.444618
 20
323.657806
 40
2.000000
 50
180.000000
 51
268.500000
  0
LINE
  8
0
  6
CONTINUOUS
 10
82.944191
 20
252.401474
 11
105.944496
 21
252.000000
  0
ARC
  8
0
  6
CONTINUOUS
 10
92.444496
 20
252.735718
 40
0.500000
 50
180.000000
 51
269.000000
  0
LINE
  8
0
  6
CONTINUOUS
 10
91.444496
 20
319.500000
 11
82.944191
 21
319.500000
  0
ARC
  8
0
  6
CONTINUOUS
 10
91.444496
 20
320.000000
 40
0.500000
 50
-90.000000
 51
0.000000
  0
LINE
  8
0
  6
CONTINUOUS
 10
81.686089
 20
260.836548
 11
82.944191
 21
260.500000
  0
ARC
  8
0
  6
CONTINUOUS
 10
81.944496
 20
261.802582
 40
1.000000
 50
180.000000
 51
255.024384
  0
LINE
  8
0
  6
CONTINUOUS
 10
81.686089
 20
252.738007
 11
82.944191
 21
252.401474
  0
ARC
  8
0
  6
CONTINUOUS
 10
81.944496
 20
253.704041
 40
1.000000
 50
180.000000
 51
255.024384
  0
LINE
  8
0
  6
CONTINUOUS
 10
81.686089
 20
319.163452
 11
82.944191
 21
319.500000
  0
ARC
  8
0
  6
CONTINUOUS
 10
81.944496
 20
318.197418
 40
1.000000
 50
-255.024384
 51
-180.000000
  0
LINE
  8
0
  6
CONTINUOUS
 10
52.442619
 20
320.003662
 11
80.944496
 21
320.750000
  0
ARC
  8
0
  6
CONTINUOUS
 10
79.944496
 20
320.538940
 40
1.000000
 50
0.000000
 51
88.500000
  0
LINE
  8
0
  6
CONTINUOUS
 10
50.766819
 20
319.400970
 11
52.442619
 21
320.003662
  0
ARC
  8
0
  6
CONTINUOUS
 10
51.443645
 20
317.518982
 40
2.000000
 50
109.780289
 51
180.000000
  0
LINE
  8
0
  6
CONTINUOUS
 10
80.944496
 20
252.999985
 11
78.431412
 21
253.065796
  0
ARC
  8
0
  6
CONTINUOUS
 10
78.444496
 20
253.565628
 40
0.500000
 50
180.000000
 51
268.500000
  0
ARC
  8
0
  6
CONTINUOUS
 10
81.944496
 20
261.802582
 40
1.000000
 50
180.000000
 51
255.024384
  0
LINE
  8
0
  6
CONTINUOUS
 10
52.442619
 20
259.996338
 11
80.944496
 21
259.250000
  0
LINE
  8
0
  6
CONTINUOUS
 10
50.766819
 20
260.599030
 11
52.442619
 21
259.996338
  0
ARC
  8
0
  6
CONTINUOUS
 10
51.443645
 20
262.481018
 40
2.000000
 50
-180.000000
 51
-109.780289
  0
LINE
  8
0
  6
CONTINUOUS
 10
77.944496
 20
309.750000
 11
49.443645
 21
309.003693
  0
LINE
  8
0
  6
CONTINUOUS
 10
77.944496
 20
303.750000
 11
49.443645
 21
304.496307
  0
LINE
  8
0
  6
CENTER
 10
766.740051
 20
256.500000
 11
761.742859
 21
256.500000
  0
LINE
  8
0
  6
CONTINUOUS
 10
763.055481
 20
253.835358
 11
763.055481
 21
259.328552
  0
LINE
  8
0
  6
CONTINUOUS
 10
763.055481
 20
253.750000
 11
764.494751
 21
253.750000
  0
LINE
  8
0
  6
CONTINUOUS
 10
763.055481
 20
259.250000
 11
764.494751
 21
259.250000
  0
LINE
  8
0
  6
CONTINUOUS
 10
763.755554
 20
253.750000
 11
763.755554
 21
259.250000
  0
ARC
  8
0
  6
CONTINUOUS
 10
758.755554
 20
256.500000
 40
7.000000
 50
-16.958000
 51
16.956499
  0
ARC
  8
0
  6
CONTINUOUS
 10
764.494751
 20
258.250000
 40
1.000000
 50
16.956900
 51
90.000000
  0
ARC
  8
0
  6
CONTINUOUS
 10
764.494751
 20
254.750000
 40
1.000000
 50
-90.000000
 51
-16.958099
  0
LINE
  8
0
  6
CONTINUOUS
 10
790.555481
 20
317.518982
 11
790.555481
 21
262.431915
  0
LINE
  8
0
  6
CENTER
 10
768.111267
 20
306.750000
 11
758.617859
 21
306.750000
  0
LINE
  8
0
  6
CONTINUOUS
 10
763.055481
 20
311.341278
 11
763.055481
 21
297.934967
  0
LINE
  8
0
  6
CONTINUOUS
 10
763.055481
 20
304.000000
 11
764.494751
 21
304.000000
  0
LINE
  8
0
  6
CONTINUOUS
 10
763.055481
 20
309.500000
 11
764.494751
 21
309.500000
  0
LINE
  8
0
  6
CONTINUOUS
 10
763.755554
 20
304.000000
 11
763.755554
 21
309.500000
  0
ARC
  8
0
  6
CONTINUOUS
 10
758.755554
 20
306.750000
 40
7.000000
 50
-16.958000
 51
16.956499
  0
ARC
  8
0
  6
CONTINUOUS
 10
764.494751
 20
308.500000
 40
1.000000
 50
16.956900
 51
90.000000
  0
ARC
  8
0
  6
CONTINUOUS
 10
764.494751
 20
305.000000
 40
1.000000
 50
-90.000000
 51
-16.958099
  0
LINE
  8
0
  6
CONTINUOUS
 10
763.055481
 20
311.341278
 11
759.055481
 21
311.341278
  0
LINE
  8
0
  6
CONTINUOUS
 10
763.055481
 20
297.934967
 11
759.055481
 21
297.934967
  0
LINE
  8
0
  6
CONTINUOUS
 10
759.055481
 20
252.999985
 11
759.055481
 21
258.750092
  0
LINE
  8
0
  6
CONTINUOUS
 10
787.556458
 20
320.003662
 11
759.080811
 21
320.749329
  0
LINE
  8
0
  6
CONTINUOUS
 10
789.232361
 20
319.400970
 11
787.556458
 21
320.003662
  0
ARC
  8
0
  6
CONTINUOUS
 10
788.555481
 20
317.518982
 40
2.000000
 50
0.000000
 51
70.219711
  0
LINE
  8
0
  6
CONTINUOUS
 10
762.325134
 20
253.085602
 11
759.055481
 21
252.999985
  0
ARC
  8
0
  6
CONTINUOUS
 10
758.055481
 20
261.802582
 40
1.000000
 50
-75.024384
 51
0.000000
  0
LINE
  8
0
  6
CONTINUOUS
 10
787.556458
 20
259.996338
 11
759.055481
 21
259.250000
  0
LINE
  8
0
  6
CONTINUOUS
 10
789.232361
 20
260.599030
 11
787.556458
 21
259.996338
  0
ARC
  8
0
  6
CONTINUOUS
 10
788.555481
 20
262.481018
 40
2.000000
 50
-70.219711
 51
0.000000
  0
LINE
  8
0
  6
CONTINUOUS
 10
763.055481
 20
309.750000
 11
790.555481
 21
309.029877
  0
LINE
  8
0
  6
CONTINUOUS
 10
763.055481
 20
303.750000
 11
790.555481
 21
304.470123
  0
LINE
  8
0
  6
CONTINUOUS
 10
789.232361
 20
482.397217
 11
787.556458
 21
482.999939
  0
ARC
  8
0
  6
CONTINUOUS
 10
788.555481
 20
480.515228
 40
2.000000
 50
0.000000
 51
70.219711
  0
LINE
  8
0
  6
CONTINUOUS
 10
790.555481
 20
480.515228
 11
790.555481
 21
425.477264
  0
LINE
  8
0
  6
CONTINUOUS
 10
787.556458
 20
482.999939
 11
765.577881
 21
483.575470
  0
LINE
  8
0
  6
CONTINUOUS
 10
763.055481
 20
485.368622
 11
763.055481
 21
475.996246
  0
LINE
  8
0
  6
CONTINUOUS
 10
762.568604
 20
485.868469
 11
759.055481
 21
485.960449
  0
ARC
  8
0
  6
CONTINUOUS
 10
762.555481
 20
485.368622
 40
0.500000
 50
0.000000
 51
88.500000
  0
LINE
  8
0
  6
CENTER
 10
766.740051
 20
482.008148
 11
761.742859
 21
482.008148
  0
LINE
  8
0
  6
CONTINUOUS
 10
763.055481
 20
479.258148
 11
764.494751
 21
479.258148
  0
LINE
  8
0
  6
CONTINUOUS
 10
763.055481
 20
484.758148
 11
764.494751
 21
484.758148
  0
LINE
  8
0
  6
CONTINUOUS
 10
763.755554
 20
479.258148
 11
763.755554
 21
484.758148
  0
ARC
  8
0
  6
CONTINUOUS
 10
758.755554
 20
482.008148
 40
7.000000
 50
-16.958000
 51
16.956499
  0
ARC
  8
0
  6
CONTINUOUS
 10
764.494751
 20
483.758148
 40
1.000000
 50
16.956900
 51
90.000000
  0
ARC
  8
0
  6
CONTINUOUS
 10
764.494751
 20
480.258148
 40
1.000000
 50
-90.000000
 51
-16.958099
  0
ARC
  8
0
  6
CONTINUOUS
 10
762.305481
 20
253.835358
 40
0.750000
 50
-88.499992
 51
0.000000
  0
LINE
  8
0
  6
CONTINUOUS
 10
789.232361
 20
423.595276
 11
787.556458
 21
422.992584
  0
ARC
  8
0
  6
CONTINUOUS
 10
788.555481
 20
425.477264
 40
2.000000
 50
-70.219711
 51
0.000000
  0
LINE
  8
0
  6
CONTINUOUS
 10
787.556458
 20
422.992584
 11
765.577881
 21
422.417053
  0
LINE
  8
0
  6
CONTINUOUS
 10
762.568604
 20
420.124054
 11
759.055481
 21
420.032043
  0
ARC
  8
0
  6
CONTINUOUS
 10
762.555481
 20
420.623871
 40
0.500000
 50
-88.500000
 51
0.000000
  0
LINE
  8
0
  6
CENTER
 10
766.740051
 20
423.984344
 11
761.742859
 21
423.984344
  0
LINE
  8
0
  6
CONTINUOUS
 10
763.055481
 20
426.734344
 11
764.494751
 21
426.734344
  0
LINE
  8
0
  6
CONTINUOUS
 10
763.055481
 20
421.234344
 11
764.494751
 21
421.234344
  0
LINE
  8
0
  6
CONTINUOUS
 10
763.755554
 20
426.734344
 11
763.755554
 21
421.234344
  0
ARC
  8
0
  6
CONTINUOUS
 10
758.755554
 20
423.984344
 40
7.000000
 50
-16.956499
 51
16.958000
  0
ARC
  8
0
  6
CONTINUOUS
 10
764.494751
 20
422.234344
 40
1.000000
 50
-90.000000
 51
-16.956900
  0
ARC
  8
0
  6
CONTINUOUS
 10
764.494751
 20
425.734344
 40
1.000000
 50
16.958099
 51
90.000000
  0
LINE
  8
0
  6
CONTINUOUS
 10
763.055481
 20
420.623871
 11
763.055481
 21
429.996246
  0
LINE
  8
0
  6
CONTINUOUS
 10
763.055481
 20
478.127380
 11
790.555481
 21
478.847504
  0
LINE
  8
0
  6
CONTINUOUS
 10
765.657288
 20
480.839417
 11
790.555481
 21
480.187408
  0
LINE
  8
0
  6
CONTINUOUS
 10
763.055481
 20
427.865112
 11
790.555481
 21
427.145020
  0
LINE
  8
0
  6
CONTINUOUS
 10
765.657288
 20
425.153107
 11
790.555481
 21
425.805084
  0
TEXT
  8
0
 10
44.000000
 20
212.000000
 40
4.000000
 41
1.000000
  1
F2SV-12-10~240-S25
 50
0.000000
  0
ENDSEC
  0
EOF
