  0
SECTION
  2
HEADER
  9
$CLAYER
  8
1
  9
$LTSCALE
 40
3.0
  0
ENDSEC
  0
SECTION
  2
TABLES
  0
TABLE
  2
LTYPE
 70
     4
  0
LTYPE
  2
CONTINUOUS
  3
solid line
 70
    64
 72
    65
 73
     0
 40
0.0
  0
LTYPE
  2
DASHED
  3
__ __ __ __ __ __ __ __ __ __ __ __ __ __ __
 70
    64
 72
    65
 73
     2
 40
0.75
 49
0.5
 49
-0.25
  0
LTYPE
  2
CENTER
  3
____ _ ____ _ ____ _ ____ _ ____ _ ____ _ ____
 70
    64
 72
    65
 73
     4
 40
2.0
 49
1.25
 49
-0.25
 49
0.25
 49
-0.25
  0
LTYPE
  2
PHANTOM
  3
_____ _ _ _____ _ _ _____ _ _ _____ _ _ ____
 70
    64
 72
    65
 73
     6
 40
2.5
 49
1.25
 49
-0.25
 49
0.25
 49
-0.25
 49
0.25
 49
-0.25
  0
ENDTAB
  0
TABLE
  2
LAYER
 70
     1
  0
LAYER
  2
0
 70
    64
 62
     7
  6
CONTINUOUS
  0
ENDTAB
  0
TABLE
  2
STYLE
 70
     1
  0
STYLE
  2
STANDARD
 70
     0
 40
0.000000
 41
1.000000
 50
0.000000
 71
     0
 42
3.000000
  3
txt
  4
BIGFONT
  0
ENDTAB
  0
ENDSEC
  0
SECTION
  2
BLOCKS
  0
ENDSEC
  0
SECTION
  2
ENTITIES
  0
LINE
  8
0
  6
CONTINUOUS
 10
59.756248
 20
85.382500
 11
69.256248
 21
85.382500
  0
LINE
  8
0
  6
CONTINUOUS
 10
59.756248
 20
9.382500
 11
69.256248
 21
9.382500
  0
LINE
  8
0
  6
CONTINUOUS
 10
59.756248
 20
7.382500
 11
59.756248
 21
87.382500
  0
LINE
  8
0
  6
CONTINUOUS
 10
59.756248
 20
77.631500
 11
69.256248
 21
77.631500
  0
LINE
  8
0
  6
CONTINUOUS
 10
59.756248
 20
17.133499
 11
69.256248
 21
17.133499
  0
LINE
  8
0
  6
CONTINUOUS
 10
15.756250
 20
87.382500
 11
59.756248
 21
87.382500
  0
LINE
  8
0
  6
CONTINUOUS
 10
15.756250
 20
7.382500
 11
59.756248
 21
7.382500
  0
LINE
  8
0
  6
CONTINUOUS
 10
10.756250
 20
12.382500
 11
10.756250
 21
82.382500
  0
ARC
  8
0
  6
CONTINUOUS
 10
15.756270
 20
82.382500
 40
5.000000
 50
90.000000
 51
180.000000
  0
ARC
  8
0
  6
CONTINUOUS
 10
15.756250
 20
12.382500
 40
5.000000
 50
180.000000
 51
270.000000
  0
LINE
  8
0
  6
CONTINUOUS
 10
69.256248
 20
9.382520
 11
69.256248
 21
85.382500
  0
LINE
  8
0
  6
CENTER
 10
1.749219
 20
47.382500
 11
191.437653
 21
47.382500
  0
LINE
  8
0
  6
CONTINUOUS
 10
183.256256
 20
85.382500
 11
183.256256
 21
9.382520
  0
LINE
  8
0
  6
CENTER
 10
155.639954
 20
58.382500
 11
218.290649
 21
58.382500
  0
LINE
  8
0
  6
CONTINUOUS
 10
69.256248
 20
85.382500
 11
183.256256
 21
85.382500
  0
LINE
  8
0
  6
CONTINUOUS
 10
69.256248
 20
9.382520
 11
183.256256
 21
9.382520
  0
LINE
  8
0
  6
CONTINUOUS
 10
69.256248
 20
77.631500
 11
175.256256
 21
77.631500
  0
LINE
  8
0
  6
CONTINUOUS
 10
69.256248
 20
17.133530
 11
175.256256
 21
17.133530
  0
LINE
  8
0
  6
CONTINUOUS
 10
210.756256
 20
52.382500
 11
210.756256
 21
64.382500
  0
LINE
  8
0
  6
CONTINUOUS
 10
188.756256
 20
64.382500
 11
210.756256
 21
64.382500
  0
LINE
  8
0
  6
CONTINUOUS
 10
188.756256
 20
52.382500
 11
210.756256
 21
52.382500
  0
LINE
  8
0
  6
CONTINUOUS
 10
188.756256
 20
65.882500
 11
188.756256
 21
50.882500
  0
LINE
  8
0
  6
CONTINUOUS
 10
175.256256
 20
83.382500
 11
175.256256
 21
11.382500
  0
LINE
  8
0
  6
CONTINUOUS
 10
192.756256
 20
60.382500
 11
210.756256
 21
60.382500
  0
LINE
  8
0
  6
CONTINUOUS
 10
192.756256
 20
56.382500
 11
210.756256
 21
56.382500
  0
ARC
  8
0
  6
CONTINUOUS
 10
192.756256
 20
58.382500
 40
2.000000
 50
90.000000
 51
180.000000
  0
ARC
  8
0
  6
CONTINUOUS
 10
192.756256
 20
58.382500
 40
2.000000
 50
180.000000
 51
270.000000
  0
LINE
  8
0
  6
CENTER
 10
170.256256
 20
79.382500
 11
187.006256
 21
79.382500
  0
LINE
  8
0
  6
CENTER
 10
172.006256
 20
15.382500
 11
187.756256
 21
15.382500
  0
LINE
  8
0
  6
DASHED
 10
175.256256
 20
18.632500
 11
183.256256
 21
18.632500
  0
LINE
  8
0
  6
DASHED
 10
175.256256
 20
12.132500
 11
183.256256
 21
12.132500
  0
LINE
  8
0
  6
DASHED
 10
175.256256
 20
82.632500
 11
183.256256
 21
82.632500
  0
LINE
  8
0
  6
DASHED
 10
175.256256
 20
76.132500
 11
183.256256
 21
76.132500
  0
ARC
  8
0
  6
CONTINUOUS
 10
177.256256
 20
83.382500
 40
2.000000
 50
90.000000
 51
180.000000
  0
ARC
  8
0
  6
CONTINUOUS
 10
177.256256
 20
11.382520
 40
2.000000
 50
180.000000
 51
270.000000
  0
LINE
  8
0
  6
CONTINUOUS
 10
188.756256
 20
65.882500
 11
186.756256
 21
65.882500
  0
LINE
  8
0
  6
CONTINUOUS
 10
188.756256
 20
50.882500
 11
186.756256
 21
50.882500
  0
LINE
  8
0
  6
CONTINUOUS
 10
185.756256
 20
75.882500
 11
183.256256
 21
75.882500
  0
LINE
  8
0
  6
CONTINUOUS
 10
185.756256
 20
40.882500
 11
183.256256
 21
40.882500
  0
ARC
  8
0
  6
CONTINUOUS
 10
185.756256
 20
74.882500
 40
1.000000
 50
0.000000
 51
90.000000
  0
ARC
  8
0
  6
CONTINUOUS
 10
185.756256
 20
41.882500
 40
1.000000
 50
-90.000000
 51
0.000000
  0
LINE
  8
0
  6
CONTINUOUS
 10
186.756256
 20
74.882500
 11
186.756256
 21
41.882500
  0
LINE
  8
0
  6
CENTER
 10
310.756256
 20
1.445000
 11
310.756256
 21
139.947266
  0
LINE
  8
0
  6
CONTINUOUS
 10
348.756256
 20
13.976590
 11
348.756256
 21
80.788399
  0
LINE
  8
0
  6
CONTINUOUS
 10
272.756256
 20
70.995201
 11
272.756256
 21
80.788300
  0
LINE
  8
0
  6
CONTINUOUS
 10
310.756256
 20
85.382500
 11
344.826050
 21
84.787804
  0
LINE
  8
0
  6
CONTINUOUS
 10
276.686462
 20
84.787697
 11
310.756256
 21
85.382500
  0
LINE
  8
0
  6
CONTINUOUS
 10
344.826050
 20
9.977190
 11
310.756256
 21
9.382500
  0
LINE
  8
0
  6
CONTINUOUS
 10
276.686462
 20
9.977050
 11
310.756256
 21
9.382500
  0
ARC
  8
0
  6
CONTINUOUS
 10
344.756256
 20
80.788399
 40
4.000000
 50
0.000000
 51
89.000137
  0
ARC
  8
0
  6
CONTINUOUS
 10
276.756256
 20
80.788300
 40
4.000000
 50
91.000641
 51
180.000000
  0
ARC
  8
0
  6
CONTINUOUS
 10
276.756256
 20
13.976470
 40
4.000000
 50
180.000000
 51
269.000488
  0
ARC
  8
0
  6
CONTINUOUS
 10
344.756256
 20
13.976570
 40
4.000000
 50
-88.999817
 51
0.000000
  0
LINE
  8
0
  6
CENTER
 10
347.662537
 20
79.382500
 11
336.912537
 21
79.382500
  0
LINE
  8
0
  6
CENTER
 10
342.756256
 20
84.195000
 11
342.756256
 21
73.695000
  0
CIRCLE
  8
0
  6
CONTINUOUS
 10
342.756256
 20
79.382500
 40
3.250000
  0
LINE
  8
0
  6
CENTER
 10
347.662537
 20
15.382500
 11
336.912537
 21
15.382500
  0
LINE
  8
0
  6
CENTER
 10
342.756256
 20
10.570000
 11
342.756256
 21
21.070000
  0
CIRCLE
  8
0
  6
CONTINUOUS
 10
342.756256
 20
15.382500
 40
3.250000
  0
LINE
  8
0
  6
CENTER
 10
273.850037
 20
79.382500
 11
284.600037
 21
79.382500
  0
LINE
  8
0
  6
CENTER
 10
278.756256
 20
84.195000
 11
278.756256
 21
73.695000
  0
CIRCLE
  8
0
  6
CONTINUOUS
 10
278.756256
 20
79.382500
 40
3.250000
  0
LINE
  8
0
  6
CENTER
 10
273.850037
 20
15.382500
 11
284.600037
 21
15.382500
  0
LINE
  8
0
  6
CENTER
 10
278.756256
 20
10.570000
 11
278.756256
 21
21.070000
  0
CIRCLE
  8
0
  6
CONTINUOUS
 10
278.756256
 20
15.382500
 40
3.250000
  0
LINE
  8
0
  6
CONTINUOUS
 10
303.256256
 20
60.382500
 11
303.256256
 21
56.382500
  0
LINE
  8
0
  6
CONTINUOUS
 10
307.256256
 20
56.382500
 11
307.256256
 21
60.382500
  0
LINE
  8
0
  6
CONTINUOUS
 10
307.256256
 20
60.382500
 11
303.256256
 21
60.382500
  0
LINE
  8
0
  6
CONTINUOUS
 10
307.256256
 20
56.382500
 11
303.256256
 21
56.382500
  0
ARC
  8
0
  6
CONTINUOUS
 10
310.756256
 20
58.382500
 40
6.000000
 50
-160.528793
 51
160.528793
  0
LINE
  8
0
  6
CENTER
 10
290.506256
 20
58.382500
 11
333.006256
 21
58.382500
  0
LINE
  8
0
  6
CONTINUOUS
 10
344.756256
 20
59.214699
 11
344.756256
 21
35.550350
  0
LINE
  8
0
  6
CONTINUOUS
 10
276.756256
 20
59.214699
 11
276.756256
 21
35.550339
  0
ARC
  8
0
  6
CONTINUOUS
 10
310.756256
 20
47.382500
 40
36.000000
 50
19.188120
 51
160.811905
  0
ARC
  8
0
  6
CONTINUOUS
 10
310.756256
 20
47.382500
 40
36.000000
 50
199.188095
 51
340.811890
  0
ARC
  8
0
  6
CONTINUOUS
 10
310.756256
 20
47.382500
 40
36.000000
 50
19.188120
 51
160.811905
  0
ARC
  8
0
  6
CONTINUOUS
 10
310.756256
 20
47.382500
 40
36.000000
 50
199.188095
 51
340.811890
  0
LINE
  8
0
  6
CONTINUOUS
 10
272.756256
 20
13.976440
 11
272.756256
 21
71.311401
  0
LINE
  8
0
  6
CONTINUOUS
 10
305.506256
 20
32.955742
 11
305.506256
 21
28.382500
  0
LINE
  8
0
  6
CONTINUOUS
 10
308.131256
 20
34.616871
 11
308.131256
 21
36.257500
  0
LINE
  8
0
  6
CONTINUOUS
 10
313.381256
 20
34.616871
 11
313.381256
 21
36.257500
  0
LINE
  8
0
  6
CONTINUOUS
 10
310.243561
 20
35.293629
 11
310.243561
 21
29.243830
  0
LINE
  8
0
  6
CONTINUOUS
 10
311.227936
 20
35.293629
 11
311.227936
 21
29.243830
  0
LINE
  8
0
  6
CONTINUOUS
 10
316.395844
 20
35.293629
 11
316.395844
 21
29.202810
  0
LINE
  8
0
  6
CONTINUOUS
 10
317.298248
 20
32.063648
 11
317.298248
 21
29.202810
  0
LINE
  8
0
  6
CONTINUOUS
 10
304.260651
 20
35.211601
 11
301.730835
 21
35.211601
  0
LINE
  8
0
  6
CONTINUOUS
 10
301.730835
 20
35.211601
 11
301.138062
 21
34.476601
  0
LINE
  8
0
  6
CONTINUOUS
 10
301.209351
 20
36.257500
 11
300.256256
 21
35.037029
  0
LINE
  8
0
  6
CONTINUOUS
 10
301.138062
 20
29.939720
 11
301.740356
 21
29.305349
  0
LINE
  8
0
  6
CONTINUOUS
 10
300.256256
 20
29.404381
 11
301.269043
 21
28.382500
  0
LINE
  8
0
  6
CONTINUOUS
 10
300.256256
 20
35.037029
 11
300.256256
 21
29.404381
  0
LINE
  8
0
  6
CONTINUOUS
 10
301.138062
 20
34.476601
 11
301.138062
 21
29.939720
  0
LINE
  8
0
  6
CONTINUOUS
 10
304.747437
 20
34.741001
 11
304.250763
 21
35.211601
  0
LINE
  8
0
  6
CONTINUOUS
 10
304.739563
 20
36.257500
 11
305.506256
 21
35.406681
  0
LINE
  8
0
  6
CONTINUOUS
 10
304.747437
 20
34.616871
 11
305.506256
 21
34.616871
  0
LINE
  8
0
  6
CONTINUOUS
 10
301.209351
 20
36.257500
 11
304.739563
 21
36.257500
  0
LINE
  8
0
  6
CONTINUOUS
 10
304.747437
 20
32.094410
 11
303.373444
 21
32.094410
  0
LINE
  8
0
  6
CONTINUOUS
 10
304.747437
 20
31.274099
 11
304.747437
 21
31.930349
  0
LINE
  8
0
  6
CONTINUOUS
 10
303.106842
 20
29.305349
 11
301.740356
 21
29.305349
  0
ARC
  8
0
  6
CONTINUOUS
 10
303.106842
 20
30.945971
 40
1.640625
 50
-89.999786
 51
0.000109
  0
LINE
  8
0
  6
CONTINUOUS
 10
304.747437
 20
29.010250
 11
304.747437
 21
28.382500
  0
LINE
  8
0
  6
CONTINUOUS
 10
305.506256
 20
35.406681
 11
305.506256
 21
34.616871
  0
LINE
  8
0
  6
CONTINUOUS
 10
304.747437
 20
32.094410
 11
304.747437
 21
30.945971
  0
LINE
  8
0
  6
CONTINUOUS
 10
303.373444
 20
32.955742
 11
303.373444
 21
32.094410
  0
LINE
  8
0
  6
CONTINUOUS
 10
304.747437
 20
28.382500
 11
305.506256
 21
28.382500
  0
LINE
  8
0
  6
CONTINUOUS
 10
304.747437
 20
29.010250
 11
303.999237
 21
28.382500
  0
LINE
  8
0
  6
CONTINUOUS
 10
311.227936
 20
29.243830
 11
311.556061
 21
29.243830
  0
LINE
  8
0
  6
CONTINUOUS
 10
309.853943
 20
29.243830
 11
309.853943
 21
28.382500
  0
LINE
  8
0
  6
CONTINUOUS
 10
311.556061
 20
29.243830
 11
311.556061
 21
28.382500
  0
LINE
  8
0
  6
CONTINUOUS
 10
312.833649
 20
34.616871
 11
313.381256
 21
34.616871
  0
LINE
  8
0
  6
CONTINUOUS
 10
308.131256
 20
34.616871
 11
308.714050
 21
34.616871
  0
LINE
  8
0
  6
CONTINUOUS
 10
308.131256
 20
36.257500
 11
313.381256
 21
36.257500
  0
LINE
  8
0
  6
CONTINUOUS
 10
309.853943
 20
28.382500
 11
311.556061
 21
28.382500
  0
LINE
  8
0
  6
CONTINUOUS
 10
309.853943
 20
29.243830
 11
310.243561
 21
29.243830
  0
ARC
  8
0
  6
CONTINUOUS
 10
319.154144
 20
34.155449
 40
2.102051
 50
-73.981873
 51
90.003510
  0
ARC
  8
0
  6
CONTINUOUS
 10
319.154144
 20
34.155449
 40
1.282395
 50
-82.585274
 51
62.411850
  0
LINE
  8
0
  6
CONTINUOUS
 10
316.006256
 20
36.257500
 11
319.154144
 21
36.257500
  0
LINE
  8
0
  6
CONTINUOUS
 10
316.006256
 20
36.257500
 11
316.006256
 21
35.293629
  0
LINE
  8
0
  6
CONTINUOUS
 10
317.298248
 20
35.293629
 11
317.298248
 21
32.883781
  0
LINE
  8
0
  6
CONTINUOUS
 10
319.734253
 20
32.135010
 11
321.035248
 21
29.202810
  0
LINE
  8
0
  6
CONTINUOUS
 10
318.978546
 20
32.063648
 11
320.209839
 21
29.202810
  0
LINE
  8
0
  6
CONTINUOUS
 10
316.006256
 20
29.202810
 11
316.395844
 21
29.202810
  0
LINE
  8
0
  6
CONTINUOUS
 10
317.298248
 20
29.202810
 11
317.657135
 21
29.202810
  0
LINE
  8
0
  6
CONTINUOUS
 10
317.657135
 20
28.382500
 11
316.006256
 21
28.382500
  0
LINE
  8
0
  6
CONTINUOUS
 10
320.046265
 20
29.202810
 11
320.209839
 21
29.202810
  0
LINE
  8
0
  6
CONTINUOUS
 10
321.035248
 20
29.202810
 11
321.256256
 21
29.202810
  0
LINE
  8
0
  6
CONTINUOUS
 10
320.046265
 20
28.382500
 11
321.256256
 21
28.382500
  0
LINE
  8
0
  6
CONTINUOUS
 10
321.256256
 20
29.202810
 11
321.256256
 21
28.382500
  0
LINE
  8
0
  6
CONTINUOUS
 10
320.046265
 20
29.202810
 11
320.046265
 21
28.382500
  0
LINE
  8
0
  6
CONTINUOUS
 10
317.657135
 20
29.202810
 11
317.657135
 21
28.382500
  0
LINE
  8
0
  6
CONTINUOUS
 10
316.006256
 20
29.202810
 11
316.006256
 21
28.382500
  0
LINE
  8
0
  6
CONTINUOUS
 10
308.995941
 20
35.293629
 11
308.714050
 21
34.616871
  0
LINE
  8
0
  6
CONTINUOUS
 10
312.595856
 20
35.293629
 11
312.833649
 21
34.616871
  0
LINE
  8
0
  6
CONTINUOUS
 10
311.227936
 20
35.293629
 11
312.595856
 21
35.293629
  0
LINE
  8
0
  6
CONTINUOUS
 10
310.243561
 20
35.293629
 11
308.995941
 21
35.293629
  0
LINE
  8
0
  6
CONTINUOUS
 10
316.006256
 20
35.293629
 11
316.395844
 21
35.293629
  0
LINE
  8
0
  6
CONTINUOUS
 10
317.298248
 20
35.293629
 11
319.748138
 21
35.292042
  0
LINE
  8
0
  6
CONTINUOUS
 10
304.747437
 20
34.741001
 11
304.747437
 21
34.616871
  0
LINE
  8
0
  6
CONTINUOUS
 10
301.269043
 20
28.382500
 11
303.999237
 21
28.382500
  0
LINE
  8
0
  6
CONTINUOUS
 10
317.298248
 20
32.883781
 11
319.319641
 21
32.883781
  0
LINE
  8
0
  6
CONTINUOUS
 10
317.298248
 20
32.063648
 11
318.978546
 21
32.063648
  0
LINE
  8
0
  6
CONTINUOUS
 10
303.373444
 20
32.955742
 11
305.506256
 21
32.955742
  0
LINE
  8
0
  6
CONTINUOUS
 10
288.827362
 20
7.382500
 11
333.756256
 21
7.382500
  0
LINE
  8
0
  6
CONTINUOUS
 10
270.756256
 20
25.453609
 11
270.756256
 21
70.382500
  0
LINE
  8
0
  6
CONTINUOUS
 10
350.756256
 20
24.382500
 11
350.756256
 21
69.311401
  0
ARC
  8
0
  6
CONTINUOUS
 10
273.756256
 20
70.382500
 40
3.000000
 50
109.471603
 51
180.000000
  0
ARC
  8
0
  6
CONTINUOUS
 10
287.756256
 20
84.382500
 40
3.000000
 50
98.895966
 51
169.495407
  0
ARC
  8
0
  6
CONTINUOUS
 10
332.685242
 20
82.382500
 40
5.000000
 50
45.000130
 51
74.008041
  0
ARC
  8
0
  6
CONTINUOUS
 10
345.756256
 20
69.311401
 40
5.000000
 50
0.000000
 51
45.000160
  0
ARC
  8
0
  6
CONTINUOUS
 10
347.756256
 20
24.382490
 40
3.000000
 50
-70.528526
 51
0.000000
  0
ARC
  8
0
  6
CONTINUOUS
 10
333.756256
 20
10.382490
 40
3.000000
 50
270.000000
 51
349.493500
  0
ARC
  8
0
  6
CONTINUOUS
 10
288.827362
 20
12.382500
 40
5.000000
 50
225.000000
 51
270.000000
  0
ARC
  8
0
  6
CONTINUOUS
 10
275.756256
 20
25.453609
 40
5.000000
 50
180.000000
 51
224.998398
  0
LINE
  8
0
  6
CONTINUOUS
 10
349.291748
 20
72.847000
 11
348.756256
 21
73.382500
  0
LINE
  8
0
  6
CONTINUOUS
 10
336.220764
 20
85.917999
 11
337.218140
 21
84.920601
  0
LINE
  8
0
  6
CONTINUOUS
 10
285.291748
 20
8.846970
 11
284.294464
 21
9.844280
  0
CIRCLE
  8
0
  6
CONTINUOUS
 10
310.756256
 20
58.382500
 40
17.500000
  0
LINE
  8
0
  6
CONTINUOUS
 10
183.256256
 20
252.146255
 11
183.256256
 21
176.146255
  0
LINE
  8
0
  6
CONTINUOUS
 10
69.256371
 20
176.146271
 11
69.256371
 21
189.146225
  0
LINE
  8
0
  6
CONTINUOUS
 10
69.256371
 20
252.146225
 11
183.256378
 21
252.146225
  0
LINE
  8
0
  6
CONTINUOUS
 10
69.256371
 20
176.146271
 11
183.256378
 21
176.146271
  0
LINE
  8
0
  6
CONTINUOUS
 10
175.256378
 20
250.146225
 11
175.256378
 21
237.146255
  0
ARC
  8
0
  6
CONTINUOUS
 10
177.256378
 20
250.146255
 40
2.000000
 50
90.000000
 51
180.000000
  0
ARC
  8
0
  6
CONTINUOUS
 10
177.256378
 20
178.146271
 40
2.000000
 50
180.000000
 51
270.000000
  0
LINE
  8
0
  6
CONTINUOUS
 10
59.756248
 20
252.146255
 11
69.256371
 21
252.146255
  0
LINE
  8
0
  6
CONTINUOUS
 10
59.756248
 20
176.146255
 11
69.256371
 21
176.146255
  0
LINE
  8
0
  6
CONTINUOUS
 10
110.256363
 20
237.146255
 11
175.256378
 21
237.146255
  0
LINE
  8
0
  6
CONTINUOUS
 10
60.256371
 20
237.146255
 11
59.756248
 21
237.146255
  0
LINE
  8
0
  6
CONTINUOUS
 10
110.256363
 20
191.146255
 11
175.256378
 21
191.146255
  0
LINE
  8
0
  6
CONTINUOUS
 10
60.256371
 20
191.146255
 11
59.756248
 21
191.146255
  0
LINE
  8
0
  6
CONTINUOUS
 10
175.256378
 20
191.146255
 11
175.256378
 21
178.146255
  0
LINE
  8
0
  6
CONTINUOUS
 10
69.256371
 20
239.146225
 11
69.256371
 21
252.146255
  0
LINE
  8
0
  6
CENTER
 10
-3.550000
 20
214.146255
 11
217.536255
 21
214.146255
  0
LINE
  8
0
  6
CONTINUOUS
 10
210.756256
 20
206.646255
 11
210.756256
 21
220.146255
  0
LINE
  8
0
  6
CONTINUOUS
 10
188.756256
 20
220.146255
 11
210.756256
 21
220.146255
  0
LINE
  8
0
  6
CONTINUOUS
 10
188.756256
 20
208.146255
 11
190.756256
 21
208.146255
  0
LINE
  8
0
  6
CONTINUOUS
 10
188.756256
 20
221.646255
 11
188.756256
 21
206.646255
  0
LINE
  8
0
  6
CONTINUOUS
 10
185.756256
 20
231.646255
 11
183.256256
 21
231.646255
  0
LINE
  8
0
  6
CONTINUOUS
 10
185.756256
 20
196.646255
 11
183.256256
 21
196.646255
  0
LINE
  8
0
  6
CONTINUOUS
 10
186.756256
 20
197.646255
 11
186.756256
 21
230.646255
  0
ARC
  8
0
  6
CONTINUOUS
 10
185.756256
 20
230.646255
 40
1.000000
 50
0.000000
 51
90.000000
  0
ARC
  8
0
  6
CONTINUOUS
 10
185.756256
 20
197.646255
 40
1.000000
 50
-90.000000
 51
0.000000
  0
LINE
  8
0
  6
CONTINUOUS
 10
186.756256
 20
221.646255
 11
188.756256
 21
221.646255
  0
LINE
  8
0
  6
CONTINUOUS
 10
186.756256
 20
206.646255
 11
188.756256
 21
206.646255
  0
LINE
  8
0
  6
CONTINUOUS
 10
190.756256
 20
206.646255
 11
210.756256
 21
206.646255
  0
LINE
  8
0
  6
CONTINUOUS
 10
190.756256
 20
208.489243
 11
190.756256
 21
206.646255
  0
LINE
  8
0
  6
CONTINUOUS
 10
190.756256
 20
208.489243
 11
210.756256
 21
208.489243
  0
LINE
  8
0
  6
DASHED
 10
175.256256
 20
249.396255
 11
183.256256
 21
249.396255
  0
LINE
  8
0
  6
DASHED
 10
175.256256
 20
242.896255
 11
183.256256
 21
242.896255
  0
LINE
  8
0
  6
CENTER
 10
170.256256
 20
246.146255
 11
187.006256
 21
246.146255
  0
LINE
  8
0
  6
DASHED
 10
175.256256
 20
185.396255
 11
183.256256
 21
185.396255
  0
LINE
  8
0
  6
CENTER
 10
172.006256
 20
182.146255
 11
187.756256
 21
182.146255
  0
LINE
  8
0
  6
DASHED
 10
175.256256
 20
178.896255
 11
183.256256
 21
178.896255
  0
LINE
  8
0
  6
CONTINUOUS
 10
59.756248
 20
174.146255
 11
59.756248
 21
214.146255
  0
LINE
  8
0
  6
CONTINUOUS
 10
15.756250
 20
254.146255
 11
59.756248
 21
254.146255
  0
LINE
  8
0
  6
CONTINUOUS
 10
15.756250
 20
174.146255
 11
59.756248
 21
174.146255
  0
LINE
  8
0
  6
CONTINUOUS
 10
10.756250
 20
179.146255
 11
10.756250
 21
249.146255
  0
ARC
  8
0
  6
CONTINUOUS
 10
15.756250
 20
249.146255
 40
5.000000
 50
90.000000
 51
180.000000
  0
ARC
  8
0
  6
CONTINUOUS
 10
15.756250
 20
179.146255
 40
5.000000
 50
180.000000
 51
270.000000
  0
LINE
  8
0
  6
CONTINUOUS
 10
13.256250
 20
238.146255
 11
59.756248
 21
238.146255
  0
LINE
  8
0
  6
CONTINUOUS
 10
13.256250
 20
188.146255
 11
59.756248
 21
188.146255
  0
LINE
  8
0
  6
CONTINUOUS
 10
13.256250
 20
73.382500
 11
59.756248
 21
73.382500
  0
LINE
  8
0
  6
CONTINUOUS
 10
13.256250
 20
23.382500
 11
59.756248
 21
23.382500
  0
LINE
  8
0
  6
CONTINUOUS
 10
272.220612
 20
21.918175
 11
272.756256
 21
21.382509
  0
LINE
  8
0
  6
CENTER
 10
260.809540
 20
47.382500
 11
357.754517
 21
47.382500
  0
LINE
  8
0
  6
CONTINUOUS
 10
60.256371
 20
191.146225
 11
60.256371
 21
237.146225
  0
LINE
  8
0
  6
CONTINUOUS
 10
62.256371
 20
239.146225
 11
60.256371
 21
237.146225
  0
LINE
  8
0
  6
CONTINUOUS
 10
62.256371
 20
239.146225
 11
108.256363
 21
239.146225
  0
LINE
  8
0
  6
CONTINUOUS
 10
102.756371
 20
234.646225
 11
102.756371
 21
239.146225
  0
ARC
  8
0
  6
CONTINUOUS
 10
105.756371
 20
234.646225
 40
3.000000
 50
180.000000
 51
270.000000
  0
LINE
  8
0
  6
CONTINUOUS
 10
105.756371
 20
231.646225
 11
110.256363
 21
231.646225
  0
CIRCLE
  8
0
  6
CONTINUOUS
 10
106.756371
 20
235.646225
 40
2.250000
  0
LINE
  8
0
  6
CONTINUOUS
 10
110.256363
 20
191.146225
 11
110.256363
 21
237.146225
  0
LINE
  8
0
  6
CONTINUOUS
 10
108.256363
 20
239.146225
 11
110.256363
 21
237.146225
  0
LINE
  8
0
  6
CONTINUOUS
 10
108.256363
 20
189.146225
 11
110.256363
 21
191.146225
  0
LINE
  8
0
  6
CONTINUOUS
 10
108.256363
 20
189.146225
 11
62.256371
 21
189.146225
  0
LINE
  8
0
  6
CONTINUOUS
 10
60.256371
 20
191.146225
 11
62.256371
 21
189.146225
  0
LINE
  8
0
  6
CONTINUOUS
 10
64.756371
 20
196.646225
 11
60.256382
 21
196.646225
  0
CIRCLE
  8
0
  6
CONTINUOUS
 10
63.756371
 20
192.646225
 40
2.250000
  0
ARC
  8
0
  6
CONTINUOUS
 10
64.756371
 20
193.646225
 40
3.000000
 50
0.000000
 51
90.000000
  0
LINE
  8
0
  6
CONTINUOUS
 10
67.756371
 20
193.646225
 11
67.756371
 21
189.146225
  0
LINE
  8
0
  6
CENTER
 10
85.256371
 20
181.680450
 11
85.256371
 21
245.812485
  0
LINE
  8
0
  6
CONTINUOUS
 10
61.256378
 20
196.646255
 11
61.256378
 21
231.646255
  0
LINE
  8
0
  6
CONTINUOUS
 10
102.756371
 20
238.146255
 11
67.756393
 21
238.146255
  0
LINE
  8
0
  6
CONTINUOUS
 10
109.256363
 20
231.646255
 11
109.256363
 21
196.646255
  0
LINE
  8
0
  6
CONTINUOUS
 10
67.756371
 20
190.146255
 11
102.756393
 21
190.146255
  0
LINE
  8
0
  6
CONTINUOUS
 10
59.756248
 20
214.146255
 11
59.756248
 21
254.146255
  0
LINE
  8
0
  6
CONTINUOUS
 10
64.756393
 20
231.646255
 11
60.256393
 21
231.646255
  0
ARC
  8
0
  6
CONTINUOUS
 10
64.756393
 20
234.646255
 40
3.000000
 50
-90.000000
 51
0.000000
  0
LINE
  8
0
  6
CONTINUOUS
 10
67.756393
 20
234.646255
 11
67.756393
 21
239.146240
  0
CIRCLE
  8
0
  6
CONTINUOUS
 10
63.756393
 20
235.646255
 40
2.250000
  0
LINE
  8
0
  6
CONTINUOUS
 10
102.756393
 20
193.646255
 11
102.756393
 21
189.146255
  0
ARC
  8
0
  6
CONTINUOUS
 10
105.756393
 20
193.646255
 40
3.000000
 50
90.000000
 51
180.000000
  0
LINE
  8
0
  6
CONTINUOUS
 10
105.756393
 20
196.646255
 11
110.256393
 21
196.646255
  0
CIRCLE
  8
0
  6
CONTINUOUS
 10
106.756393
 20
192.646255
 40
2.250000
  0
LINE
  8
0
  6
CONTINUOUS
 10
61.756248
 20
86.882500
 11
108.256248
 21
86.882500
  0
LINE
  8
0
  6
CONTINUOUS
 10
110.256233
 20
130.882507
 11
110.256248
 21
88.882500
  0
LINE
  8
0
  6
CONTINUOUS
 10
60.256248
 20
130.882507
 11
60.256248
 21
88.882500
  0
LINE
  8
0
  6
CONTINUOUS
 10
60.256248
 20
98.882500
 11
110.256248
 21
98.882500
  0
LINE
  8
0
  6
CONTINUOUS
 10
108.256248
 20
86.882500
 11
110.256248
 21
88.882500
  0
LINE
  8
0
  6
CONTINUOUS
 10
60.256248
 20
88.882500
 11
62.256248
 21
86.882500
  0
LINE
  8
0
  6
CONTINUOUS
 10
60.256248
 20
88.882500
 11
110.256248
 21
88.882500
  0
LINE
  8
0
  6
CONTINUOUS
 10
60.256248
 20
99.882500
 11
110.256233
 21
99.882500
  0
LINE
  8
0
  6
CONTINUOUS
 10
61.256248
 20
131.882507
 11
109.256233
 21
131.882507
  0
LINE
  8
0
  6
CONTINUOUS
 10
109.256233
 20
131.882507
 11
110.256233
 21
130.882507
  0
LINE
  8
0
  6
CONTINUOUS
 10
61.256248
 20
131.882507
 11
60.256248
 21
130.882507
  0
LINE
  8
0
  6
CONTINUOUS
 10
60.256248
 20
130.882507
 11
110.256233
 21
130.882507
  0
LINE
  8
0
  6
CENTER
 10
85.256248
 20
80.492989
 11
85.256248
 21
138.184998
  0
LINE
  8
0
  6
CENTER
 10
57.881248
 20
114.882500
 11
62.506248
 21
114.882500
  0
LINE
  8
0
  6
CONTINUOUS
 10
61.756248
 20
86.882500
 11
61.756248
 21
85.382500
  0
LINE
  8
0
  6
CONTINUOUS
 10
107.756248
 20
86.882500
 11
107.756248
 21
85.382500
  0
LINE
  8
0
  6
CONTINUOUS
 10
59.381248
 20
125.382500
 11
61.381248
 21
125.382500
  0
LINE
  8
0
  6
CONTINUOUS
 10
59.381248
 20
104.382500
 11
61.381248
 21
104.382500
  0
LINE
  8
0
  6
CONTINUOUS
 10
287.756256
 20
86.882492
 11
333.756256
 21
86.882492
  0
LINE
  8
0
  6
CONTINUOUS
 10
335.756256
 20
130.882492
 11
335.756256
 21
88.882492
  0
LINE
  8
0
  6
CONTINUOUS
 10
285.756256
 20
130.882492
 11
285.756256
 21
88.882492
  0
LINE
  8
0
  6
CONTINUOUS
 10
285.756256
 20
98.882492
 11
335.756256
 21
98.882492
  0
LINE
  8
0
  6
CONTINUOUS
 10
333.756256
 20
86.882492
 11
335.756256
 21
88.882492
  0
LINE
  8
0
  6
CONTINUOUS
 10
285.756256
 20
88.882492
 11
287.756256
 21
86.882492
  0
LINE
  8
0
  6
CONTINUOUS
 10
285.756256
 20
88.882492
 11
335.756256
 21
88.882492
  0
LINE
  8
0
  6
CONTINUOUS
 10
285.756256
 20
99.882492
 11
335.756256
 21
99.882492
  0
LINE
  8
0
  6
CONTINUOUS
 10
286.756256
 20
131.882492
 11
334.756256
 21
131.882492
  0
LINE
  8
0
  6
CONTINUOUS
 10
334.756256
 20
131.882492
 11
335.756256
 21
130.882492
  0
LINE
  8
0
  6
CONTINUOUS
 10
286.756256
 20
131.882492
 11
285.756256
 21
130.882492
  0
LINE
  8
0
  6
CONTINUOUS
 10
285.756256
 20
130.882492
 11
335.756256
 21
130.882492
  0
LINE
  8
0
  6
CONTINUOUS
 10
288.256256
 20
86.882492
 11
288.256256
 21
84.989693
  0
LINE
  8
0
  6
CONTINUOUS
 10
333.256256
 20
86.882492
 11
333.256256
 21
84.989754
  0
TEXT
  8
0
 10
-3.000000
 20
1.000000
 40
4.000000
 41
1.000000
  1
GFM-12-5~60-S40WK
 50
0.000000
  0
ENDSEC
  0
EOF
