  0
SECTION
  2
HEADER
  9
$CLAYER
  8
1
  9
$LTSCALE
 40
3.0
  0
ENDSEC
  0
SECTION
  2
TABLES
  0
TABLE
  2
LTYPE
 70
     4
  0
LTYPE
  2
CONTINUOUS
  3
solid line
 70
    64
 72
    65
 73
     0
 40
0.0
  0
LTYPE
  2
DASHED
  3
__ __ __ __ __ __ __ __ __ __ __ __ __ __ __
 70
    64
 72
    65
 73
     2
 40
0.75
 49
0.5
 49
-0.25
  0
LTYPE
  2
CENTER
  3
____ _ ____ _ ____ _ ____ _ ____ _ ____ _ ____
 70
    64
 72
    65
 73
     4
 40
2.0
 49
1.25
 49
-0.25
 49
0.25
 49
-0.25
  0
LTYPE
  2
PHANTOM
  3
_____ _ _ _____ _ _ _____ _ _ _____ _ _ ____
 70
    64
 72
    65
 73
     6
 40
2.5
 49
1.25
 49
-0.25
 49
0.25
 49
-0.25
 49
0.25
 49
-0.25
  0
ENDTAB
  0
TABLE
  2
LAYER
 70
     1
  0
LAYER
  2
0
 70
    64
 62
     7
  6
CONTINUOUS
  0
ENDTAB
  0
TABLE
  2
STYLE
 70
     1
  0
STYLE
  2
STANDARD
 70
     0
 40
0.000000
 41
1.000000
 50
0.000000
 71
     0
 42
3.000000
  3
txt
  4
BIGFONT
  0
ENDTAB
  0
ENDSEC
  0
SECTION
  2
BLOCKS
  0
ENDSEC
  0
SECTION
  2
ENTITIES
  0
LINE
  8
0
  6
CONTINUOUS
 10
4.540000
 20
12.627500
 11
4.540000
 21
76.627502
  0
LINE
  8
0
  6
CONTINUOUS
 10
8.504100
 20
82.627502
 11
25.040001
 21
82.627502
  0
LINE
  8
0
  6
CONTINUOUS
 10
8.504100
 20
6.627500
 11
25.040001
 21
6.627500
  0
LINE
  8
0
  6
CONTINUOUS
 10
5.040000
 20
9.627500
 11
5.040000
 21
79.627502
  0
LINE
  8
0
  6
CONTINUOUS
 10
4.540000
 20
76.627502
 11
5.040000
 21
77.127502
  0
LINE
  8
0
  6
CONTINUOUS
 10
4.540000
 20
12.627500
 11
5.040000
 21
12.127500
  0
LINE
  8
0
  6
CONTINUOUS
 10
5.906000
 20
81.127502
 11
5.040000
 21
79.627502
  0
ARC
  8
0
  6
CONTINUOUS
 10
8.504100
 20
79.627502
 40
3.000000
 50
90.000000
 51
150.000397
  0
LINE
  8
0
  6
CONTINUOUS
 10
5.906000
 20
8.127510
 11
5.040000
 21
9.627500
  0
ARC
  8
0
  6
CONTINUOUS
 10
8.504100
 20
9.627480
 40
3.000000
 50
-150.000397
 51
-90.000000
  0
LINE
  8
0
  6
CONTINUOUS
 10
6.621600
 20
74.876503
 11
25.040001
 21
74.876503
  0
LINE
  8
0
  6
CONTINUOUS
 10
25.040001
 20
14.378500
 11
6.621600
 21
14.378500
  0
LINE
  8
0
  6
CONTINUOUS
 10
25.040001
 20
6.627520
 11
25.040001
 21
82.627502
  0
LINE
  8
0
  6
CENTER
 10
-4.522500
 20
44.627499
 11
148.099533
 21
44.627499
  0
LINE
  8
0
  6
CONTINUOUS
 10
139.039993
 20
82.627502
 11
139.039993
 21
6.627520
  0
LINE
  8
0
  6
CENTER
 10
111.423698
 20
55.627499
 11
174.074402
 21
55.627499
  0
LINE
  8
0
  6
CONTINUOUS
 10
25.040001
 20
82.627502
 11
139.039993
 21
82.627502
  0
LINE
  8
0
  6
CONTINUOUS
 10
25.040001
 20
6.627520
 11
139.039993
 21
6.627520
  0
LINE
  8
0
  6
CONTINUOUS
 10
25.040001
 20
74.876503
 11
131.039993
 21
74.876503
  0
LINE
  8
0
  6
CONTINUOUS
 10
25.040001
 20
14.378530
 11
131.039993
 21
14.378530
  0
LINE
  8
0
  6
CONTINUOUS
 10
166.539993
 20
49.627499
 11
166.539993
 21
61.627499
  0
LINE
  8
0
  6
CONTINUOUS
 10
144.539993
 20
61.627499
 11
166.539993
 21
61.627499
  0
LINE
  8
0
  6
CONTINUOUS
 10
144.539993
 20
49.627499
 11
166.539993
 21
49.627499
  0
LINE
  8
0
  6
CONTINUOUS
 10
144.539993
 20
63.127499
 11
144.539993
 21
48.127499
  0
LINE
  8
0
  6
CONTINUOUS
 10
131.039993
 20
80.627502
 11
131.039993
 21
8.627500
  0
LINE
  8
0
  6
CONTINUOUS
 10
148.539993
 20
57.627499
 11
166.539993
 21
57.627499
  0
LINE
  8
0
  6
CONTINUOUS
 10
148.539993
 20
53.627499
 11
166.539993
 21
53.627499
  0
ARC
  8
0
  6
CONTINUOUS
 10
148.539993
 20
55.627499
 40
2.000000
 50
90.000000
 51
180.000000
  0
ARC
  8
0
  6
CONTINUOUS
 10
148.539993
 20
55.627499
 40
2.000000
 50
180.000000
 51
270.000000
  0
LINE
  8
0
  6
CENTER
 10
126.040001
 20
76.627502
 11
142.789993
 21
76.627502
  0
LINE
  8
0
  6
CENTER
 10
127.790001
 20
12.627500
 11
143.539993
 21
12.627500
  0
LINE
  8
0
  6
DASHED
 10
131.039993
 20
15.877500
 11
139.039993
 21
15.877500
  0
LINE
  8
0
  6
DASHED
 10
131.039993
 20
9.377500
 11
139.039993
 21
9.377500
  0
LINE
  8
0
  6
DASHED
 10
131.039993
 20
79.877502
 11
139.039993
 21
79.877502
  0
LINE
  8
0
  6
DASHED
 10
131.039993
 20
73.377502
 11
139.039993
 21
73.377502
  0
ARC
  8
0
  6
CONTINUOUS
 10
133.039993
 20
80.627502
 40
2.000000
 50
90.000000
 51
180.000000
  0
ARC
  8
0
  6
CONTINUOUS
 10
133.039993
 20
8.627520
 40
2.000000
 50
180.000000
 51
270.000000
  0
LINE
  8
0
  6
CONTINUOUS
 10
144.539993
 20
63.127499
 11
142.539993
 21
63.127499
  0
LINE
  8
0
  6
CONTINUOUS
 10
144.539993
 20
48.127499
 11
142.539993
 21
48.127499
  0
LINE
  8
0
  6
CONTINUOUS
 10
141.539993
 20
73.127502
 11
139.039993
 21
73.127502
  0
LINE
  8
0
  6
CONTINUOUS
 10
141.539993
 20
38.127499
 11
139.039993
 21
38.127499
  0
ARC
  8
0
  6
CONTINUOUS
 10
141.539993
 20
72.127502
 40
1.000000
 50
0.000000
 51
90.000000
  0
ARC
  8
0
  6
CONTINUOUS
 10
141.539993
 20
39.127499
 40
1.000000
 50
-90.000000
 51
0.000000
  0
LINE
  8
0
  6
CONTINUOUS
 10
142.539993
 20
72.127502
 11
142.539993
 21
39.127499
  0
LINE
  8
0
  6
CENTER
 10
264.540009
 20
-1.310000
 11
264.540009
 21
135.412262
  0
LINE
  8
0
  6
CONTINUOUS
 10
302.540009
 20
11.221590
 11
302.540009
 21
78.033401
  0
LINE
  8
0
  6
CONTINUOUS
 10
226.539993
 20
11.221440
 11
226.539993
 21
78.033302
  0
LINE
  8
0
  6
CONTINUOUS
 10
298.609802
 20
82.032799
 11
264.540009
 21
82.627502
  0
LINE
  8
0
  6
CONTINUOUS
 10
230.470200
 20
82.032700
 11
264.540009
 21
82.627502
  0
LINE
  8
0
  6
CONTINUOUS
 10
298.609802
 20
7.222190
 11
264.540009
 21
6.627500
  0
LINE
  8
0
  6
CONTINUOUS
 10
230.470200
 20
7.222050
 11
264.540009
 21
6.627500
  0
ARC
  8
0
  6
CONTINUOUS
 10
298.540009
 20
78.033401
 40
4.000000
 50
0.000000
 51
89.000137
  0
ARC
  8
0
  6
CONTINUOUS
 10
230.539993
 20
78.033302
 40
4.000000
 50
91.000641
 51
180.000000
  0
ARC
  8
0
  6
CONTINUOUS
 10
230.539993
 20
11.221470
 40
4.000000
 50
180.000000
 51
269.000488
  0
ARC
  8
0
  6
CONTINUOUS
 10
298.540009
 20
11.221570
 40
4.000000
 50
-88.999817
 51
0.000000
  0
LINE
  8
0
  6
CENTER
 10
301.446289
 20
76.627502
 11
290.696289
 21
76.627502
  0
LINE
  8
0
  6
CENTER
 10
296.540009
 20
81.440002
 11
296.540009
 21
70.940002
  0
CIRCLE
  8
0
  6
CONTINUOUS
 10
296.540009
 20
76.627502
 40
3.250000
  0
LINE
  8
0
  6
CENTER
 10
301.446289
 20
12.627500
 11
290.696289
 21
12.627500
  0
LINE
  8
0
  6
CENTER
 10
296.540009
 20
7.815000
 11
296.540009
 21
18.315001
  0
CIRCLE
  8
0
  6
CONTINUOUS
 10
296.540009
 20
12.627500
 40
3.250000
  0
LINE
  8
0
  6
CENTER
 10
227.633804
 20
76.627502
 11
238.383804
 21
76.627502
  0
LINE
  8
0
  6
CENTER
 10
232.539993
 20
81.440002
 11
232.539993
 21
70.940002
  0
CIRCLE
  8
0
  6
CONTINUOUS
 10
232.539993
 20
76.627502
 40
3.250000
  0
LINE
  8
0
  6
CENTER
 10
227.633804
 20
12.627500
 11
238.383804
 21
12.627500
  0
LINE
  8
0
  6
CENTER
 10
232.539993
 20
7.815000
 11
232.539993
 21
18.315001
  0
CIRCLE
  8
0
  6
CONTINUOUS
 10
232.539993
 20
12.627500
 40
3.250000
  0
LINE
  8
0
  6
CONTINUOUS
 10
257.040009
 20
57.627499
 11
257.040009
 21
53.627499
  0
LINE
  8
0
  6
CONTINUOUS
 10
261.040009
 20
53.627499
 11
261.040009
 21
57.627499
  0
LINE
  8
0
  6
CONTINUOUS
 10
261.040009
 20
57.627499
 11
257.040009
 21
57.627499
  0
LINE
  8
0
  6
CONTINUOUS
 10
261.040009
 20
53.627499
 11
257.040009
 21
53.627499
  0
ARC
  8
0
  6
CONTINUOUS
 10
264.540009
 20
55.627499
 40
6.000000
 50
-160.528793
 51
160.528793
  0
LINE
  8
0
  6
CENTER
 10
242.055618
 20
55.627499
 11
288.255951
 21
55.627499
  0
LINE
  8
0
  6
CONTINUOUS
 10
298.540009
 20
56.459702
 11
298.540009
 21
32.795349
  0
LINE
  8
0
  6
CONTINUOUS
 10
230.539993
 20
56.459702
 11
230.539993
 21
32.795341
  0
ARC
  8
0
  6
CONTINUOUS
 10
264.540009
 20
44.627499
 40
36.000000
 50
19.188120
 51
160.811905
  0
ARC
  8
0
  6
CONTINUOUS
 10
264.540009
 20
44.627499
 40
36.000000
 50
199.188095
 51
340.811890
  0
ARC
  8
0
  6
CONTINUOUS
 10
264.540009
 20
44.627499
 40
36.000000
 50
19.188120
 51
160.811905
  0
ARC
  8
0
  6
CONTINUOUS
 10
264.540009
 20
44.627499
 40
36.000000
 50
199.188095
 51
340.811890
  0
LINE
  8
0
  6
CONTINUOUS
 10
259.535706
 20
30.116911
 11
259.535706
 21
25.471081
  0
LINE
  8
0
  6
CONTINUOUS
 10
262.202393
 20
31.804411
 11
262.202393
 21
33.471081
  0
LINE
  8
0
  6
CONTINUOUS
 10
267.535706
 20
31.804411
 11
267.535706
 21
33.471081
  0
LINE
  8
0
  6
CONTINUOUS
 10
264.348206
 20
32.491909
 11
264.348206
 21
26.346081
  0
LINE
  8
0
  6
CONTINUOUS
 10
265.348206
 20
32.491909
 11
265.348206
 21
26.346081
  0
LINE
  8
0
  6
CONTINUOUS
 10
270.598206
 20
32.491909
 11
270.598206
 21
26.304411
  0
LINE
  8
0
  6
CONTINUOUS
 10
271.514893
 20
29.210661
 11
271.514893
 21
26.304411
  0
LINE
  8
0
  6
CONTINUOUS
 10
258.270294
 20
32.408581
 11
255.700394
 21
32.408581
  0
LINE
  8
0
  6
CONTINUOUS
 10
255.700394
 20
32.408581
 11
255.098206
 21
31.661909
  0
LINE
  8
0
  6
CONTINUOUS
 10
255.170593
 20
33.471081
 11
254.202393
 21
32.231239
  0
LINE
  8
0
  6
CONTINUOUS
 10
255.098206
 20
27.053020
 11
255.710007
 21
26.408581
  0
LINE
  8
0
  6
CONTINUOUS
 10
254.202393
 20
26.509180
 11
255.231201
 21
25.471081
  0
LINE
  8
0
  6
CONTINUOUS
 10
254.202393
 20
32.231239
 11
254.202393
 21
26.509180
  0
LINE
  8
0
  6
CONTINUOUS
 10
255.098206
 20
31.661909
 11
255.098206
 21
27.053020
  0
LINE
  8
0
  6
CONTINUOUS
 10
258.764893
 20
31.930510
 11
258.260315
 21
32.408581
  0
LINE
  8
0
  6
CONTINUOUS
 10
258.756897
 20
33.471081
 11
259.535706
 21
32.606750
  0
LINE
  8
0
  6
CONTINUOUS
 10
258.764893
 20
31.804411
 11
259.535706
 21
31.804411
  0
LINE
  8
0
  6
CONTINUOUS
 10
255.170593
 20
33.471081
 11
258.756897
 21
33.471081
  0
LINE
  8
0
  6
CONTINUOUS
 10
258.764893
 20
29.241911
 11
257.369110
 21
29.241911
  0
LINE
  8
0
  6
CONTINUOUS
 10
258.764893
 20
28.408581
 11
258.764893
 21
29.075251
  0
LINE
  8
0
  6
CONTINUOUS
 10
257.098206
 20
26.408581
 11
255.710007
 21
26.408581
  0
ARC
  8
0
  6
CONTINUOUS
 10
257.098206
 20
28.075239
 40
1.666667
 50
-89.999786
 51
0.000109
  0
LINE
  8
0
  6
CONTINUOUS
 10
258.764893
 20
26.108789
 11
258.764893
 21
25.471081
  0
LINE
  8
0
  6
CONTINUOUS
 10
259.535706
 20
32.606750
 11
259.535706
 21
31.804411
  0
LINE
  8
0
  6
CONTINUOUS
 10
258.764893
 20
29.241911
 11
258.764893
 21
28.075239
  0
LINE
  8
0
  6
CONTINUOUS
 10
257.369110
 20
30.116911
 11
257.369110
 21
29.241911
  0
LINE
  8
0
  6
CONTINUOUS
 10
258.764893
 20
25.471081
 11
259.535706
 21
25.471081
  0
LINE
  8
0
  6
CONTINUOUS
 10
258.764893
 20
26.108789
 11
258.004791
 21
25.471081
  0
LINE
  8
0
  6
CONTINUOUS
 10
265.348206
 20
26.346081
 11
265.681610
 21
26.346081
  0
LINE
  8
0
  6
CONTINUOUS
 10
263.952393
 20
26.346081
 11
263.952393
 21
25.471081
  0
LINE
  8
0
  6
CONTINUOUS
 10
265.681610
 20
26.346081
 11
265.681610
 21
25.471081
  0
LINE
  8
0
  6
CONTINUOUS
 10
266.979401
 20
31.804411
 11
267.535706
 21
31.804411
  0
LINE
  8
0
  6
CONTINUOUS
 10
262.202393
 20
31.804411
 11
262.794403
 21
31.804411
  0
LINE
  8
0
  6
CONTINUOUS
 10
262.202393
 20
33.471081
 11
267.535706
 21
33.471081
  0
LINE
  8
0
  6
CONTINUOUS
 10
263.952393
 20
25.471081
 11
265.681610
 21
25.471081
  0
LINE
  8
0
  6
CONTINUOUS
 10
263.952393
 20
26.346081
 11
264.348206
 21
26.346081
  0
ARC
  8
0
  6
CONTINUOUS
 10
273.400299
 20
31.335661
 40
2.135417
 50
-73.981873
 51
90.003510
  0
ARC
  8
0
  6
CONTINUOUS
 10
273.400299
 20
31.335661
 40
1.302750
 50
-82.585274
 51
62.411850
  0
LINE
  8
0
  6
CONTINUOUS
 10
270.202393
 20
33.471081
 11
273.400299
 21
33.471081
  0
LINE
  8
0
  6
CONTINUOUS
 10
270.202393
 20
33.471081
 11
270.202393
 21
32.491909
  0
LINE
  8
0
  6
CONTINUOUS
 10
271.514893
 20
32.491909
 11
271.514893
 21
30.043810
  0
LINE
  8
0
  6
CONTINUOUS
 10
273.989594
 20
29.283150
 11
275.311188
 21
26.304411
  0
LINE
  8
0
  6
CONTINUOUS
 10
273.221893
 20
29.210661
 11
274.472687
 21
26.304411
  0
LINE
  8
0
  6
CONTINUOUS
 10
270.202393
 20
26.304411
 11
270.598206
 21
26.304411
  0
LINE
  8
0
  6
CONTINUOUS
 10
271.514893
 20
26.304411
 11
271.879486
 21
26.304411
  0
LINE
  8
0
  6
CONTINUOUS
 10
271.879486
 20
25.471081
 11
270.202393
 21
25.471081
  0
LINE
  8
0
  6
CONTINUOUS
 10
274.306488
 20
26.304411
 11
274.472687
 21
26.304411
  0
LINE
  8
0
  6
CONTINUOUS
 10
275.311188
 20
26.304411
 11
275.535706
 21
26.304411
  0
LINE
  8
0
  6
CONTINUOUS
 10
274.306488
 20
25.471081
 11
275.535706
 21
25.471081
  0
LINE
  8
0
  6
CONTINUOUS
 10
275.535706
 20
26.304411
 11
275.535706
 21
25.471081
  0
LINE
  8
0
  6
CONTINUOUS
 10
274.306488
 20
26.304411
 11
274.306488
 21
25.471081
  0
LINE
  8
0
  6
CONTINUOUS
 10
271.879486
 20
26.304411
 11
271.879486
 21
25.471081
  0
LINE
  8
0
  6
CONTINUOUS
 10
270.202393
 20
26.304411
 11
270.202393
 21
25.471081
  0
LINE
  8
0
  6
CONTINUOUS
 10
263.080902
 20
32.491909
 11
262.794403
 21
31.804411
  0
LINE
  8
0
  6
CONTINUOUS
 10
266.737915
 20
32.491909
 11
266.979401
 21
31.804411
  0
LINE
  8
0
  6
CONTINUOUS
 10
265.348206
 20
32.491909
 11
266.737915
 21
32.491909
  0
LINE
  8
0
  6
CONTINUOUS
 10
264.348206
 20
32.491909
 11
263.080902
 21
32.491909
  0
LINE
  8
0
  6
CONTINUOUS
 10
270.202393
 20
32.491909
 11
270.598206
 21
32.491909
  0
LINE
  8
0
  6
CONTINUOUS
 10
271.514893
 20
32.491909
 11
274.003601
 21
32.490292
  0
LINE
  8
0
  6
CONTINUOUS
 10
258.764893
 20
31.930510
 11
258.764893
 21
31.804411
  0
LINE
  8
0
  6
CONTINUOUS
 10
255.231201
 20
25.471081
 11
258.004791
 21
25.471081
  0
LINE
  8
0
  6
CONTINUOUS
 10
271.514893
 20
30.043810
 11
273.568390
 21
30.043810
  0
LINE
  8
0
  6
CONTINUOUS
 10
271.514893
 20
29.210661
 11
273.221893
 21
29.210661
  0
LINE
  8
0
  6
CONTINUOUS
 10
257.369110
 20
30.116911
 11
259.535706
 21
30.116911
  0
CIRCLE
  8
0
  6
CONTINUOUS
 10
264.540009
 20
55.627499
 40
17.500000
  0
LINE
  8
0
  6
CONTINUOUS
 10
139.039993
 20
248.877502
 11
139.039993
 21
172.877502
  0
LINE
  8
0
  6
CONTINUOUS
 10
25.040121
 20
172.877518
 11
25.040121
 21
185.877487
  0
LINE
  8
0
  6
CONTINUOUS
 10
25.040121
 20
248.877487
 11
139.040115
 21
248.877487
  0
LINE
  8
0
  6
CONTINUOUS
 10
25.040121
 20
172.877518
 11
139.040115
 21
172.877518
  0
LINE
  8
0
  6
CONTINUOUS
 10
131.040115
 20
246.877487
 11
131.040115
 21
233.877502
  0
ARC
  8
0
  6
CONTINUOUS
 10
133.040115
 20
246.877502
 40
2.000000
 50
90.000000
 51
180.000000
  0
ARC
  8
0
  6
CONTINUOUS
 10
133.040115
 20
174.877518
 40
2.000000
 50
180.000000
 51
270.000000
  0
LINE
  8
0
  6
CONTINUOUS
 10
4.540122
 20
178.877502
 11
4.540122
 21
242.877502
  0
LINE
  8
0
  6
CONTINUOUS
 10
8.504202
 20
248.877502
 11
25.040121
 21
248.877502
  0
LINE
  8
0
  6
CONTINUOUS
 10
8.504222
 20
172.877502
 11
25.040121
 21
172.877502
  0
LINE
  8
0
  6
CONTINUOUS
 10
5.040122
 20
175.877502
 11
5.040122
 21
245.877502
  0
LINE
  8
0
  6
CONTINUOUS
 10
4.540122
 20
242.877502
 11
5.040122
 21
243.377502
  0
LINE
  8
0
  6
CONTINUOUS
 10
4.540122
 20
178.877502
 11
5.040122
 21
178.377502
  0
LINE
  8
0
  6
CONTINUOUS
 10
5.906142
 20
247.377487
 11
5.040122
 21
245.877502
  0
ARC
  8
0
  6
CONTINUOUS
 10
8.504222
 20
245.877518
 40
3.000000
 50
90.000000
 51
150.000397
  0
LINE
  8
0
  6
CONTINUOUS
 10
5.906142
 20
174.377518
 11
5.040122
 21
175.877502
  0
ARC
  8
0
  6
CONTINUOUS
 10
8.504222
 20
175.877502
 40
3.000000
 50
-150.000397
 51
-90.000000
  0
LINE
  8
0
  6
CONTINUOUS
 10
66.040115
 20
233.877502
 11
131.040115
 21
233.877502
  0
LINE
  8
0
  6
CONTINUOUS
 10
16.040121
 20
233.877502
 11
6.621752
 21
233.877502
  0
LINE
  8
0
  6
CONTINUOUS
 10
66.040115
 20
187.877502
 11
131.040115
 21
187.877502
  0
LINE
  8
0
  6
CONTINUOUS
 10
16.040121
 20
187.877502
 11
6.621752
 21
187.877502
  0
LINE
  8
0
  6
CONTINUOUS
 10
131.040115
 20
187.877502
 11
131.040115
 21
174.877502
  0
LINE
  8
0
  6
CONTINUOUS
 10
25.040121
 20
235.877487
 11
25.040121
 21
248.877502
  0
LINE
  8
0
  6
CENTER
 10
-6.635000
 20
210.877502
 11
173.320007
 21
210.877502
  0
LINE
  8
0
  6
CONTINUOUS
 10
166.539993
 20
203.377502
 11
166.539993
 21
216.877502
  0
LINE
  8
0
  6
CONTINUOUS
 10
144.539993
 20
216.877502
 11
166.539993
 21
216.877502
  0
LINE
  8
0
  6
CONTINUOUS
 10
144.539993
 20
204.877502
 11
146.539993
 21
204.877502
  0
LINE
  8
0
  6
CONTINUOUS
 10
144.539993
 20
218.377502
 11
144.539993
 21
203.377502
  0
LINE
  8
0
  6
CONTINUOUS
 10
141.539993
 20
228.377502
 11
139.039993
 21
228.377502
  0
LINE
  8
0
  6
CONTINUOUS
 10
141.539993
 20
193.377502
 11
139.039993
 21
193.377502
  0
LINE
  8
0
  6
CONTINUOUS
 10
142.539993
 20
194.377502
 11
142.539993
 21
227.377502
  0
ARC
  8
0
  6
CONTINUOUS
 10
141.539993
 20
227.377502
 40
1.000000
 50
0.000000
 51
90.000000
  0
ARC
  8
0
  6
CONTINUOUS
 10
141.539993
 20
194.377502
 40
1.000000
 50
-90.000000
 51
0.000000
  0
LINE
  8
0
  6
CONTINUOUS
 10
142.539993
 20
218.377502
 11
144.539993
 21
218.377502
  0
LINE
  8
0
  6
CONTINUOUS
 10
142.539993
 20
203.377502
 11
144.539993
 21
203.377502
  0
LINE
  8
0
  6
CONTINUOUS
 10
146.539993
 20
203.377502
 11
166.539993
 21
203.377502
  0
LINE
  8
0
  6
CONTINUOUS
 10
146.539993
 20
205.220505
 11
146.539993
 21
203.377502
  0
LINE
  8
0
  6
CONTINUOUS
 10
146.539993
 20
205.220505
 11
166.539993
 21
205.220505
  0
LINE
  8
0
  6
DASHED
 10
131.039993
 20
246.127502
 11
139.039993
 21
246.127502
  0
LINE
  8
0
  6
DASHED
 10
131.039993
 20
239.627502
 11
139.039993
 21
239.627502
  0
LINE
  8
0
  6
CENTER
 10
126.040001
 20
242.877502
 11
142.789993
 21
242.877502
  0
LINE
  8
0
  6
DASHED
 10
131.039993
 20
182.127502
 11
139.039993
 21
182.127502
  0
LINE
  8
0
  6
CENTER
 10
127.790001
 20
178.877502
 11
143.539993
 21
178.877502
  0
LINE
  8
0
  6
DASHED
 10
131.039993
 20
175.627502
 11
139.039993
 21
175.627502
  0
LINE
  8
0
  6
CENTER
 10
219.947495
 20
44.627499
 11
309.513763
 21
44.627499
  0
LINE
  8
0
  6
CONTINUOUS
 10
16.040121
 20
187.877487
 11
16.040121
 21
233.877487
  0
LINE
  8
0
  6
CONTINUOUS
 10
18.040121
 20
235.877487
 11
16.040121
 21
233.877487
  0
LINE
  8
0
  6
CONTINUOUS
 10
18.040121
 20
235.877487
 11
64.040115
 21
235.877487
  0
LINE
  8
0
  6
CONTINUOUS
 10
58.540123
 20
231.377487
 11
58.540123
 21
235.877487
  0
ARC
  8
0
  6
CONTINUOUS
 10
61.540123
 20
231.377487
 40
3.000000
 50
180.000000
 51
270.000000
  0
LINE
  8
0
  6
CONTINUOUS
 10
61.540123
 20
228.377487
 11
66.040115
 21
228.377487
  0
CIRCLE
  8
0
  6
CONTINUOUS
 10
62.540123
 20
232.377487
 40
2.250000
  0
LINE
  8
0
  6
CONTINUOUS
 10
66.040115
 20
187.877487
 11
66.040115
 21
233.877487
  0
LINE
  8
0
  6
CONTINUOUS
 10
64.040115
 20
235.877487
 11
66.040115
 21
233.877487
  0
LINE
  8
0
  6
CONTINUOUS
 10
64.040115
 20
185.877487
 11
66.040115
 21
187.877487
  0
LINE
  8
0
  6
CONTINUOUS
 10
64.040115
 20
185.877487
 11
18.040121
 21
185.877487
  0
LINE
  8
0
  6
CONTINUOUS
 10
16.040121
 20
187.877487
 11
18.040121
 21
185.877487
  0
LINE
  8
0
  6
CONTINUOUS
 10
20.540121
 20
193.377487
 11
16.040133
 21
193.377487
  0
CIRCLE
  8
0
  6
CONTINUOUS
 10
19.540121
 20
189.377487
 40
2.250000
  0
ARC
  8
0
  6
CONTINUOUS
 10
20.540121
 20
190.377487
 40
3.000000
 50
0.000000
 51
90.000000
  0
LINE
  8
0
  6
CONTINUOUS
 10
23.540121
 20
190.377487
 11
23.540121
 21
185.877487
  0
LINE
  8
0
  6
CENTER
 10
41.040123
 20
178.411697
 11
41.040123
 21
242.543732
  0
LINE
  8
0
  6
CONTINUOUS
 10
17.040129
 20
193.377502
 11
17.040129
 21
228.377502
  0
LINE
  8
0
  6
CONTINUOUS
 10
58.540123
 20
234.877502
 11
23.540142
 21
234.877502
  0
LINE
  8
0
  6
CONTINUOUS
 10
65.040115
 20
228.377502
 11
65.040115
 21
193.377502
  0
LINE
  8
0
  6
CONTINUOUS
 10
23.540121
 20
186.877502
 11
58.540142
 21
186.877502
  0
LINE
  8
0
  6
CONTINUOUS
 10
20.540142
 20
228.377502
 11
16.040142
 21
228.377502
  0
ARC
  8
0
  6
CONTINUOUS
 10
20.540142
 20
231.377502
 40
3.000000
 50
-90.000000
 51
0.000000
  0
LINE
  8
0
  6
CONTINUOUS
 10
23.540142
 20
231.377502
 11
23.540142
 21
235.877487
  0
CIRCLE
  8
0
  6
CONTINUOUS
 10
19.540142
 20
232.377502
 40
2.250000
  0
LINE
  8
0
  6
CONTINUOUS
 10
58.540142
 20
190.377502
 11
58.540142
 21
185.877502
  0
ARC
  8
0
  6
CONTINUOUS
 10
61.540142
 20
190.377502
 40
3.000000
 50
90.000000
 51
180.000000
  0
LINE
  8
0
  6
CONTINUOUS
 10
61.540142
 20
193.377502
 11
66.040138
 21
193.377502
  0
CIRCLE
  8
0
  6
CONTINUOUS
 10
62.540142
 20
189.377502
 40
2.250000
  0
LINE
  8
0
  6
CONTINUOUS
 10
17.540001
 20
84.127502
 11
64.040001
 21
84.127502
  0
LINE
  8
0
  6
CONTINUOUS
 10
66.039978
 20
128.127502
 11
66.040001
 21
86.127502
  0
LINE
  8
0
  6
CONTINUOUS
 10
16.040001
 20
128.127502
 11
16.040001
 21
86.127502
  0
LINE
  8
0
  6
CONTINUOUS
 10
16.040001
 20
96.127502
 11
66.040001
 21
96.127502
  0
LINE
  8
0
  6
CONTINUOUS
 10
64.040001
 20
84.127502
 11
66.040001
 21
86.127502
  0
LINE
  8
0
  6
CONTINUOUS
 10
16.040001
 20
86.127502
 11
18.040001
 21
84.127502
  0
LINE
  8
0
  6
CONTINUOUS
 10
16.040001
 20
86.127502
 11
66.040001
 21
86.127502
  0
LINE
  8
0
  6
CONTINUOUS
 10
16.040001
 20
97.127502
 11
66.039978
 21
97.127502
  0
LINE
  8
0
  6
CONTINUOUS
 10
17.040001
 20
129.127502
 11
65.039978
 21
129.127502
  0
LINE
  8
0
  6
CONTINUOUS
 10
65.039978
 20
129.127502
 11
66.039978
 21
128.127502
  0
LINE
  8
0
  6
CONTINUOUS
 10
17.040001
 20
129.127502
 11
16.040001
 21
128.127502
  0
LINE
  8
0
  6
CONTINUOUS
 10
16.040001
 20
128.127502
 11
66.039978
 21
128.127502
  0
LINE
  8
0
  6
CENTER
 10
41.040001
 20
77.737991
 11
41.040001
 21
135.429993
  0
LINE
  8
0
  6
CENTER
 10
13.665000
 20
112.127502
 11
18.290001
 21
112.127502
  0
LINE
  8
0
  6
CONTINUOUS
 10
17.540001
 20
84.127502
 11
17.540001
 21
82.627502
  0
LINE
  8
0
  6
CONTINUOUS
 10
63.540001
 20
84.127502
 11
63.540001
 21
82.627502
  0
LINE
  8
0
  6
CONTINUOUS
 10
15.165000
 20
122.627502
 11
17.165001
 21
122.627502
  0
LINE
  8
0
  6
CONTINUOUS
 10
15.165000
 20
101.627502
 11
17.165001
 21
101.627502
  0
LINE
  8
0
  6
CONTINUOUS
 10
241.539993
 20
84.127487
 11
287.540009
 21
84.127487
  0
LINE
  8
0
  6
CONTINUOUS
 10
289.540009
 20
128.127487
 11
289.540009
 21
86.127487
  0
LINE
  8
0
  6
CONTINUOUS
 10
239.539993
 20
128.127487
 11
239.539993
 21
86.127487
  0
LINE
  8
0
  6
CONTINUOUS
 10
239.539993
 20
96.127487
 11
289.540009
 21
96.127487
  0
LINE
  8
0
  6
CONTINUOUS
 10
287.540009
 20
84.127487
 11
289.540009
 21
86.127487
  0
LINE
  8
0
  6
CONTINUOUS
 10
239.539993
 20
86.127487
 11
241.539993
 21
84.127487
  0
LINE
  8
0
  6
CONTINUOUS
 10
239.539993
 20
86.127487
 11
289.540009
 21
86.127487
  0
LINE
  8
0
  6
CONTINUOUS
 10
239.539993
 20
97.127487
 11
289.540009
 21
97.127487
  0
LINE
  8
0
  6
CONTINUOUS
 10
240.539993
 20
129.127487
 11
288.540009
 21
129.127487
  0
LINE
  8
0
  6
CONTINUOUS
 10
288.540009
 20
129.127487
 11
289.540009
 21
128.127487
  0
LINE
  8
0
  6
CONTINUOUS
 10
240.539993
 20
129.127487
 11
239.539993
 21
128.127487
  0
LINE
  8
0
  6
CONTINUOUS
 10
239.539993
 20
128.127487
 11
289.540009
 21
128.127487
  0
LINE
  8
0
  6
CONTINUOUS
 10
242.039993
 20
84.127487
 11
242.039993
 21
82.234688
  0
LINE
  8
0
  6
CONTINUOUS
 10
287.040009
 20
84.127487
 11
287.040009
 21
82.234756
  0
TEXT
  8
0
 10
-6.000000
 20
-1.000000
 40
4.000000
 41
1.000000
  1
GFM-12-5~240-T15K
 50
0.000000
  0
ENDSEC
  0
EOF
