  0
SECTION
  2
HEADER
  9
$CLAYER
  8
1
  9
$LTSCALE
 40
3.0
  0
ENDSEC
  0
SECTION
  2
TABLES
  0
TABLE
  2
LTYPE
 70
     4
  0
LTYPE
  2
CONTINUOUS
  3
solid line
 70
    64
 72
    65
 73
     0
 40
0.0
  0
LTYPE
  2
DASHED
  3
__ __ __ __ __ __ __ __ __ __ __ __ __ __ __
 70
    64
 72
    65
 73
     2
 40
0.75
 49
0.5
 49
-0.25
  0
LTYPE
  2
CENTER
  3
____ _ ____ _ ____ _ ____ _ ____ _ ____ _ ____
 70
    64
 72
    65
 73
     4
 40
2.0
 49
1.25
 49
-0.25
 49
0.25
 49
-0.25
  0
LTYPE
  2
PHANTOM
  3
_____ _ _ _____ _ _ _____ _ _ _____ _ _ ____
 70
    64
 72
    65
 73
     6
 40
2.5
 49
1.25
 49
-0.25
 49
0.25
 49
-0.25
 49
0.25
 49
-0.25
  0
ENDTAB
  0
TABLE
  2
LAYER
 70
     1
  0
LAYER
  2
0
 70
    64
 62
     7
  6
CONTINUOUS
  0
ENDTAB
  0
TABLE
  2
STYLE
 70
     1
  0
STYLE
  2
STANDARD
 70
     0
 40
0.000000
 41
1.000000
 50
0.000000
 71
     0
 42
3.000000
  3
txt
  4
BIGFONT
  0
ENDTAB
  0
ENDSEC
  0
SECTION
  2
BLOCKS
  0
ENDSEC
  0
SECTION
  2
ENTITIES
  0
LINE
  8
0
  6
CONTINUOUS
 10
6.240625
 20
7.525625
 11
6.240625
 21
71.525627
  0
LINE
  8
0
  6
CONTINUOUS
 10
10.204725
 20
77.525627
 11
26.740625
 21
77.525627
  0
LINE
  8
0
  6
CONTINUOUS
 10
10.204725
 20
1.525625
 11
26.740625
 21
1.525625
  0
LINE
  8
0
  6
CONTINUOUS
 10
6.740625
 20
4.525625
 11
6.740625
 21
74.525627
  0
LINE
  8
0
  6
CONTINUOUS
 10
6.240625
 20
71.525627
 11
6.740625
 21
72.025627
  0
LINE
  8
0
  6
CONTINUOUS
 10
6.240625
 20
7.525625
 11
6.740625
 21
7.025625
  0
LINE
  8
0
  6
CONTINUOUS
 10
7.606625
 20
76.025627
 11
6.740625
 21
74.525627
  0
ARC
  8
0
  6
CONTINUOUS
 10
10.204725
 20
74.525627
 40
3.000000
 50
90.000000
 51
150.000397
  0
LINE
  8
0
  6
CONTINUOUS
 10
7.606625
 20
3.025635
 11
6.740625
 21
4.525625
  0
ARC
  8
0
  6
CONTINUOUS
 10
10.204725
 20
4.525605
 40
3.000000
 50
-150.000397
 51
-90.000000
  0
LINE
  8
0
  6
CONTINUOUS
 10
8.322225
 20
69.774628
 11
26.740625
 21
69.774628
  0
LINE
  8
0
  6
CONTINUOUS
 10
26.740625
 20
9.276625
 11
8.322225
 21
9.276625
  0
LINE
  8
0
  6
CONTINUOUS
 10
26.740625
 20
1.525645
 11
26.740625
 21
77.525627
  0
LINE
  8
0
  6
CENTER
 10
-2.821875
 20
39.525623
 11
149.800156
 21
39.525623
  0
LINE
  8
0
  6
CONTINUOUS
 10
140.740631
 20
77.525627
 11
140.740631
 21
1.525645
  0
LINE
  8
0
  6
CENTER
 10
113.124329
 20
50.525623
 11
175.775024
 21
50.525623
  0
LINE
  8
0
  6
CONTINUOUS
 10
26.740625
 20
77.525627
 11
140.740631
 21
77.525627
  0
LINE
  8
0
  6
CONTINUOUS
 10
26.740625
 20
1.525645
 11
140.740631
 21
1.525645
  0
LINE
  8
0
  6
CONTINUOUS
 10
26.740625
 20
69.774628
 11
132.740631
 21
69.774628
  0
LINE
  8
0
  6
CONTINUOUS
 10
26.740625
 20
9.276655
 11
132.740631
 21
9.276655
  0
LINE
  8
0
  6
CONTINUOUS
 10
168.240631
 20
44.525623
 11
168.240631
 21
56.525623
  0
LINE
  8
0
  6
CONTINUOUS
 10
146.240631
 20
56.525623
 11
168.240631
 21
56.525623
  0
LINE
  8
0
  6
CONTINUOUS
 10
146.240631
 20
44.525623
 11
168.240631
 21
44.525623
  0
LINE
  8
0
  6
CONTINUOUS
 10
146.240631
 20
58.025623
 11
146.240631
 21
43.025623
  0
LINE
  8
0
  6
CONTINUOUS
 10
132.740631
 20
75.525627
 11
132.740631
 21
3.525625
  0
LINE
  8
0
  6
CONTINUOUS
 10
150.240631
 20
52.525623
 11
168.240631
 21
52.525623
  0
LINE
  8
0
  6
CONTINUOUS
 10
150.240631
 20
48.525623
 11
168.240631
 21
48.525623
  0
ARC
  8
0
  6
CONTINUOUS
 10
150.240631
 20
50.525623
 40
2.000000
 50
90.000000
 51
180.000000
  0
ARC
  8
0
  6
CONTINUOUS
 10
150.240631
 20
50.525623
 40
2.000000
 50
180.000000
 51
270.000000
  0
LINE
  8
0
  6
CENTER
 10
127.740623
 20
71.525627
 11
144.490631
 21
71.525627
  0
LINE
  8
0
  6
CENTER
 10
129.490631
 20
7.525625
 11
145.240631
 21
7.525625
  0
LINE
  8
0
  6
DASHED
 10
132.740631
 20
10.775625
 11
140.740631
 21
10.775625
  0
LINE
  8
0
  6
DASHED
 10
132.740631
 20
4.275625
 11
140.740631
 21
4.275625
  0
LINE
  8
0
  6
DASHED
 10
132.740631
 20
74.775627
 11
140.740631
 21
74.775627
  0
LINE
  8
0
  6
DASHED
 10
132.740631
 20
68.275627
 11
140.740631
 21
68.275627
  0
ARC
  8
0
  6
CONTINUOUS
 10
134.740631
 20
75.525627
 40
2.000000
 50
90.000000
 51
180.000000
  0
ARC
  8
0
  6
CONTINUOUS
 10
134.740631
 20
3.525645
 40
2.000000
 50
180.000000
 51
270.000000
  0
LINE
  8
0
  6
CONTINUOUS
 10
146.240631
 20
58.025623
 11
144.240631
 21
58.025623
  0
LINE
  8
0
  6
CONTINUOUS
 10
146.240631
 20
43.025623
 11
144.240631
 21
43.025623
  0
LINE
  8
0
  6
CONTINUOUS
 10
143.240631
 20
68.025627
 11
140.740631
 21
68.025627
  0
LINE
  8
0
  6
CONTINUOUS
 10
143.240631
 20
33.025623
 11
140.740631
 21
33.025623
  0
ARC
  8
0
  6
CONTINUOUS
 10
143.240631
 20
67.025627
 40
1.000000
 50
0.000000
 51
90.000000
  0
ARC
  8
0
  6
CONTINUOUS
 10
143.240631
 20
34.025623
 40
1.000000
 50
-90.000000
 51
0.000000
  0
LINE
  8
0
  6
CONTINUOUS
 10
144.240631
 20
67.025627
 11
144.240631
 21
34.025623
  0
LINE
  8
0
  6
CENTER
 10
266.240631
 20
-6.411875
 11
266.240631
 21
115.457344
  0
LINE
  8
0
  6
CONTINUOUS
 10
304.240631
 20
6.119715
 11
304.240631
 21
72.931526
  0
LINE
  8
0
  6
CONTINUOUS
 10
228.240631
 20
6.119565
 11
228.240631
 21
72.931427
  0
LINE
  8
0
  6
CONTINUOUS
 10
300.310425
 20
76.930923
 11
266.240631
 21
77.525627
  0
LINE
  8
0
  6
CONTINUOUS
 10
232.170822
 20
76.930824
 11
266.240631
 21
77.525627
  0
LINE
  8
0
  6
CONTINUOUS
 10
300.310425
 20
2.120315
 11
266.240631
 21
1.525625
  0
LINE
  8
0
  6
CONTINUOUS
 10
232.170822
 20
2.120175
 11
266.240631
 21
1.525625
  0
ARC
  8
0
  6
CONTINUOUS
 10
300.240631
 20
72.931526
 40
4.000000
 50
0.000000
 51
89.000137
  0
ARC
  8
0
  6
CONTINUOUS
 10
232.240631
 20
72.931427
 40
4.000000
 50
91.000641
 51
180.000000
  0
ARC
  8
0
  6
CONTINUOUS
 10
232.240631
 20
6.119595
 40
4.000000
 50
180.000000
 51
269.000488
  0
ARC
  8
0
  6
CONTINUOUS
 10
300.240631
 20
6.119695
 40
4.000000
 50
-88.999817
 51
0.000000
  0
LINE
  8
0
  6
CENTER
 10
303.146912
 20
71.525627
 11
292.396912
 21
71.525627
  0
LINE
  8
0
  6
CENTER
 10
298.240631
 20
76.338127
 11
298.240631
 21
65.838127
  0
CIRCLE
  8
0
  6
CONTINUOUS
 10
298.240631
 20
71.525627
 40
3.250000
  0
LINE
  8
0
  6
CENTER
 10
303.146912
 20
7.525625
 11
292.396912
 21
7.525625
  0
LINE
  8
0
  6
CENTER
 10
298.240631
 20
2.713125
 11
298.240631
 21
13.213125
  0
CIRCLE
  8
0
  6
CONTINUOUS
 10
298.240631
 20
7.525625
 40
3.250000
  0
LINE
  8
0
  6
CENTER
 10
229.334427
 20
71.525627
 11
240.084427
 21
71.525627
  0
LINE
  8
0
  6
CENTER
 10
234.240631
 20
76.338127
 11
234.240631
 21
65.838127
  0
CIRCLE
  8
0
  6
CONTINUOUS
 10
234.240631
 20
71.525627
 40
3.250000
  0
LINE
  8
0
  6
CENTER
 10
229.334427
 20
7.525625
 11
240.084427
 21
7.525625
  0
LINE
  8
0
  6
CENTER
 10
234.240631
 20
2.713125
 11
234.240631
 21
13.213125
  0
CIRCLE
  8
0
  6
CONTINUOUS
 10
234.240631
 20
7.525625
 40
3.250000
  0
LINE
  8
0
  6
CONTINUOUS
 10
258.740631
 20
52.525623
 11
258.740631
 21
48.525623
  0
LINE
  8
0
  6
CONTINUOUS
 10
262.740631
 20
48.525623
 11
262.740631
 21
52.525623
  0
LINE
  8
0
  6
CONTINUOUS
 10
262.740631
 20
52.525623
 11
258.740631
 21
52.525623
  0
LINE
  8
0
  6
CONTINUOUS
 10
262.740631
 20
48.525623
 11
258.740631
 21
48.525623
  0
ARC
  8
0
  6
CONTINUOUS
 10
266.240631
 20
50.525623
 40
6.000000
 50
-160.528793
 51
160.528793
  0
LINE
  8
0
  6
CENTER
 10
243.654999
 20
50.525623
 11
288.355011
 21
50.525623
  0
LINE
  8
0
  6
CONTINUOUS
 10
300.240631
 20
51.357826
 11
300.240631
 21
27.693476
  0
LINE
  8
0
  6
CONTINUOUS
 10
232.240631
 20
51.357826
 11
232.240631
 21
27.693464
  0
ARC
  8
0
  6
CONTINUOUS
 10
266.240631
 20
39.525623
 40
36.000000
 50
19.188120
 51
160.811905
  0
ARC
  8
0
  6
CONTINUOUS
 10
266.240631
 20
39.525623
 40
36.000000
 50
199.188095
 51
340.811890
  0
ARC
  8
0
  6
CONTINUOUS
 10
266.240631
 20
39.525623
 40
36.000000
 50
19.188120
 51
160.811905
  0
ARC
  8
0
  6
CONTINUOUS
 10
266.240631
 20
39.525623
 40
36.000000
 50
199.188095
 51
340.811890
  0
LINE
  8
0
  6
CONTINUOUS
 10
261.236328
 20
25.015036
 11
261.236328
 21
20.369205
  0
LINE
  8
0
  6
CONTINUOUS
 10
263.903015
 20
26.702536
 11
263.903015
 21
28.369205
  0
LINE
  8
0
  6
CONTINUOUS
 10
269.236328
 20
26.702536
 11
269.236328
 21
28.369205
  0
LINE
  8
0
  6
CONTINUOUS
 10
266.048828
 20
27.390036
 11
266.048828
 21
21.244205
  0
LINE
  8
0
  6
CONTINUOUS
 10
267.048828
 20
27.390036
 11
267.048828
 21
21.244205
  0
LINE
  8
0
  6
CONTINUOUS
 10
272.298828
 20
27.390036
 11
272.298828
 21
21.202536
  0
LINE
  8
0
  6
CONTINUOUS
 10
273.215515
 20
24.108786
 11
273.215515
 21
21.202536
  0
LINE
  8
0
  6
CONTINUOUS
 10
259.970917
 20
27.306705
 11
257.401031
 21
27.306705
  0
LINE
  8
0
  6
CONTINUOUS
 10
257.401031
 20
27.306705
 11
256.798828
 21
26.560036
  0
LINE
  8
0
  6
CONTINUOUS
 10
256.871216
 20
28.369205
 11
255.903030
 21
27.129366
  0
LINE
  8
0
  6
CONTINUOUS
 10
256.798828
 20
21.951145
 11
257.410614
 21
21.306705
  0
LINE
  8
0
  6
CONTINUOUS
 10
255.903030
 20
21.407305
 11
256.931824
 21
20.369205
  0
LINE
  8
0
  6
CONTINUOUS
 10
255.903030
 20
27.129366
 11
255.903030
 21
21.407305
  0
LINE
  8
0
  6
CONTINUOUS
 10
256.798828
 20
26.560036
 11
256.798828
 21
21.951145
  0
LINE
  8
0
  6
CONTINUOUS
 10
260.465515
 20
26.828634
 11
259.960938
 21
27.306705
  0
LINE
  8
0
  6
CONTINUOUS
 10
260.457520
 20
28.369205
 11
261.236328
 21
27.504875
  0
LINE
  8
0
  6
CONTINUOUS
 10
260.465515
 20
26.702536
 11
261.236328
 21
26.702536
  0
LINE
  8
0
  6
CONTINUOUS
 10
256.871216
 20
28.369205
 11
260.457520
 21
28.369205
  0
LINE
  8
0
  6
CONTINUOUS
 10
260.465515
 20
24.140036
 11
259.069733
 21
24.140036
  0
LINE
  8
0
  6
CONTINUOUS
 10
260.465515
 20
23.306705
 11
260.465515
 21
23.973375
  0
LINE
  8
0
  6
CONTINUOUS
 10
258.798828
 20
21.306705
 11
257.410614
 21
21.306705
  0
ARC
  8
0
  6
CONTINUOUS
 10
258.798828
 20
22.973366
 40
1.666667
 50
-89.999786
 51
0.000109
  0
LINE
  8
0
  6
CONTINUOUS
 10
260.465515
 20
21.006914
 11
260.465515
 21
20.369205
  0
LINE
  8
0
  6
CONTINUOUS
 10
261.236328
 20
27.504875
 11
261.236328
 21
26.702536
  0
LINE
  8
0
  6
CONTINUOUS
 10
260.465515
 20
24.140036
 11
260.465515
 21
22.973366
  0
LINE
  8
0
  6
CONTINUOUS
 10
259.069733
 20
25.015036
 11
259.069733
 21
24.140036
  0
LINE
  8
0
  6
CONTINUOUS
 10
260.465515
 20
20.369205
 11
261.236328
 21
20.369205
  0
LINE
  8
0
  6
CONTINUOUS
 10
260.465515
 20
21.006914
 11
259.705414
 21
20.369205
  0
LINE
  8
0
  6
CONTINUOUS
 10
267.048828
 20
21.244205
 11
267.382233
 21
21.244205
  0
LINE
  8
0
  6
CONTINUOUS
 10
265.653015
 20
21.244205
 11
265.653015
 21
20.369205
  0
LINE
  8
0
  6
CONTINUOUS
 10
267.382233
 20
21.244205
 11
267.382233
 21
20.369205
  0
LINE
  8
0
  6
CONTINUOUS
 10
268.680023
 20
26.702536
 11
269.236328
 21
26.702536
  0
LINE
  8
0
  6
CONTINUOUS
 10
263.903015
 20
26.702536
 11
264.495026
 21
26.702536
  0
LINE
  8
0
  6
CONTINUOUS
 10
263.903015
 20
28.369205
 11
269.236328
 21
28.369205
  0
LINE
  8
0
  6
CONTINUOUS
 10
265.653015
 20
20.369205
 11
267.382233
 21
20.369205
  0
LINE
  8
0
  6
CONTINUOUS
 10
265.653015
 20
21.244205
 11
266.048828
 21
21.244205
  0
ARC
  8
0
  6
CONTINUOUS
 10
275.100922
 20
26.233786
 40
2.135417
 50
-73.981873
 51
90.003510
  0
ARC
  8
0
  6
CONTINUOUS
 10
275.100922
 20
26.233786
 40
1.302750
 50
-82.585274
 51
62.411850
  0
LINE
  8
0
  6
CONTINUOUS
 10
271.903015
 20
28.369205
 11
275.100922
 21
28.369205
  0
LINE
  8
0
  6
CONTINUOUS
 10
271.903015
 20
28.369205
 11
271.903015
 21
27.390036
  0
LINE
  8
0
  6
CONTINUOUS
 10
273.215515
 20
27.390036
 11
273.215515
 21
24.941935
  0
LINE
  8
0
  6
CONTINUOUS
 10
275.690216
 20
24.181274
 11
277.011810
 21
21.202536
  0
LINE
  8
0
  6
CONTINUOUS
 10
274.922516
 20
24.108786
 11
276.173340
 21
21.202536
  0
LINE
  8
0
  6
CONTINUOUS
 10
271.903015
 20
21.202536
 11
272.298828
 21
21.202536
  0
LINE
  8
0
  6
CONTINUOUS
 10
273.215515
 20
21.202536
 11
273.580139
 21
21.202536
  0
LINE
  8
0
  6
CONTINUOUS
 10
273.580139
 20
20.369205
 11
271.903015
 21
20.369205
  0
LINE
  8
0
  6
CONTINUOUS
 10
276.007111
 20
21.202536
 11
276.173340
 21
21.202536
  0
LINE
  8
0
  6
CONTINUOUS
 10
277.011810
 20
21.202536
 11
277.236328
 21
21.202536
  0
LINE
  8
0
  6
CONTINUOUS
 10
276.007111
 20
20.369205
 11
277.236328
 21
20.369205
  0
LINE
  8
0
  6
CONTINUOUS
 10
277.236328
 20
21.202536
 11
277.236328
 21
20.369205
  0
LINE
  8
0
  6
CONTINUOUS
 10
276.007111
 20
21.202536
 11
276.007111
 21
20.369205
  0
LINE
  8
0
  6
CONTINUOUS
 10
273.580139
 20
21.202536
 11
273.580139
 21
20.369205
  0
LINE
  8
0
  6
CONTINUOUS
 10
271.903015
 20
21.202536
 11
271.903015
 21
20.369205
  0
LINE
  8
0
  6
CONTINUOUS
 10
264.781525
 20
27.390036
 11
264.495026
 21
26.702536
  0
LINE
  8
0
  6
CONTINUOUS
 10
268.438538
 20
27.390036
 11
268.680023
 21
26.702536
  0
LINE
  8
0
  6
CONTINUOUS
 10
267.048828
 20
27.390036
 11
268.438538
 21
27.390036
  0
LINE
  8
0
  6
CONTINUOUS
 10
266.048828
 20
27.390036
 11
264.781525
 21
27.390036
  0
LINE
  8
0
  6
CONTINUOUS
 10
271.903015
 20
27.390036
 11
272.298828
 21
27.390036
  0
LINE
  8
0
  6
CONTINUOUS
 10
273.215515
 20
27.390036
 11
275.704224
 21
27.388414
  0
LINE
  8
0
  6
CONTINUOUS
 10
260.465515
 20
26.828634
 11
260.465515
 21
26.702536
  0
LINE
  8
0
  6
CONTINUOUS
 10
256.931824
 20
20.369205
 11
259.705414
 21
20.369205
  0
LINE
  8
0
  6
CONTINUOUS
 10
273.215515
 20
24.941935
 11
275.269012
 21
24.941935
  0
LINE
  8
0
  6
CONTINUOUS
 10
273.215515
 20
24.108786
 11
274.922516
 21
24.108786
  0
LINE
  8
0
  6
CONTINUOUS
 10
259.069733
 20
25.015036
 11
261.236328
 21
25.015036
  0
CIRCLE
  8
0
  6
CONTINUOUS
 10
266.240631
 20
50.525623
 40
17.500000
  0
LINE
  8
0
  6
CONTINUOUS
 10
140.740631
 20
229.921478
 11
140.740631
 21
153.921478
  0
LINE
  8
0
  6
CONTINUOUS
 10
26.740747
 20
153.921494
 11
26.740747
 21
166.921448
  0
LINE
  8
0
  6
CONTINUOUS
 10
26.740747
 20
229.921448
 11
140.740753
 21
229.921448
  0
LINE
  8
0
  6
CONTINUOUS
 10
26.740747
 20
153.921494
 11
140.740753
 21
153.921494
  0
LINE
  8
0
  6
CONTINUOUS
 10
132.740753
 20
227.921448
 11
132.740753
 21
214.921478
  0
ARC
  8
0
  6
CONTINUOUS
 10
134.740753
 20
227.921478
 40
2.000000
 50
90.000000
 51
180.000000
  0
ARC
  8
0
  6
CONTINUOUS
 10
134.740753
 20
155.921494
 40
2.000000
 50
180.000000
 51
270.000000
  0
LINE
  8
0
  6
CONTINUOUS
 10
6.240747
 20
159.921478
 11
6.240747
 21
223.921478
  0
LINE
  8
0
  6
CONTINUOUS
 10
10.204827
 20
229.921478
 11
26.740747
 21
229.921478
  0
LINE
  8
0
  6
CONTINUOUS
 10
10.204847
 20
153.921478
 11
26.740747
 21
153.921478
  0
LINE
  8
0
  6
CONTINUOUS
 10
6.740747
 20
156.921478
 11
6.740747
 21
226.921478
  0
LINE
  8
0
  6
CONTINUOUS
 10
6.240747
 20
223.921478
 11
6.740747
 21
224.421478
  0
LINE
  8
0
  6
CONTINUOUS
 10
6.240747
 20
159.921478
 11
6.740747
 21
159.421478
  0
LINE
  8
0
  6
CONTINUOUS
 10
7.606767
 20
228.421448
 11
6.740747
 21
226.921478
  0
ARC
  8
0
  6
CONTINUOUS
 10
10.204847
 20
226.921494
 40
3.000000
 50
90.000000
 51
150.000397
  0
LINE
  8
0
  6
CONTINUOUS
 10
7.606767
 20
155.421494
 11
6.740747
 21
156.921478
  0
ARC
  8
0
  6
CONTINUOUS
 10
10.204847
 20
156.921478
 40
3.000000
 50
-150.000397
 51
-90.000000
  0
LINE
  8
0
  6
CONTINUOUS
 10
67.740738
 20
214.921478
 11
132.740753
 21
214.921478
  0
LINE
  8
0
  6
CONTINUOUS
 10
17.740747
 20
214.921478
 11
8.322377
 21
214.921478
  0
LINE
  8
0
  6
CONTINUOUS
 10
67.740738
 20
168.921478
 11
132.740753
 21
168.921478
  0
LINE
  8
0
  6
CONTINUOUS
 10
17.740747
 20
168.921478
 11
8.322377
 21
168.921478
  0
LINE
  8
0
  6
CONTINUOUS
 10
132.740753
 20
168.921478
 11
132.740753
 21
155.921478
  0
LINE
  8
0
  6
CONTINUOUS
 10
26.740747
 20
216.921448
 11
26.740747
 21
229.921478
  0
LINE
  8
0
  6
CENTER
 10
-4.934375
 20
191.921478
 11
175.020630
 21
191.921478
  0
LINE
  8
0
  6
CONTINUOUS
 10
168.240631
 20
184.421478
 11
168.240631
 21
197.921478
  0
LINE
  8
0
  6
CONTINUOUS
 10
146.240631
 20
197.921478
 11
168.240631
 21
197.921478
  0
LINE
  8
0
  6
CONTINUOUS
 10
146.240631
 20
185.921478
 11
148.240631
 21
185.921478
  0
LINE
  8
0
  6
CONTINUOUS
 10
146.240631
 20
199.421478
 11
146.240631
 21
184.421478
  0
LINE
  8
0
  6
CONTINUOUS
 10
143.240631
 20
209.421478
 11
140.740631
 21
209.421478
  0
LINE
  8
0
  6
CONTINUOUS
 10
143.240631
 20
174.421478
 11
140.740631
 21
174.421478
  0
LINE
  8
0
  6
CONTINUOUS
 10
144.240631
 20
175.421478
 11
144.240631
 21
208.421478
  0
ARC
  8
0
  6
CONTINUOUS
 10
143.240631
 20
208.421478
 40
1.000000
 50
0.000000
 51
90.000000
  0
ARC
  8
0
  6
CONTINUOUS
 10
143.240631
 20
175.421478
 40
1.000000
 50
-90.000000
 51
0.000000
  0
LINE
  8
0
  6
CONTINUOUS
 10
144.240631
 20
199.421478
 11
146.240631
 21
199.421478
  0
LINE
  8
0
  6
CONTINUOUS
 10
144.240631
 20
184.421478
 11
146.240631
 21
184.421478
  0
LINE
  8
0
  6
CONTINUOUS
 10
148.240631
 20
184.421478
 11
168.240631
 21
184.421478
  0
LINE
  8
0
  6
CONTINUOUS
 10
148.240631
 20
186.264481
 11
148.240631
 21
184.421478
  0
LINE
  8
0
  6
CONTINUOUS
 10
148.240631
 20
186.264481
 11
168.240631
 21
186.264481
  0
LINE
  8
0
  6
DASHED
 10
132.740631
 20
227.171478
 11
140.740631
 21
227.171478
  0
LINE
  8
0
  6
DASHED
 10
132.740631
 20
220.671478
 11
140.740631
 21
220.671478
  0
LINE
  8
0
  6
CENTER
 10
127.740623
 20
223.921478
 11
144.490631
 21
223.921478
  0
LINE
  8
0
  6
DASHED
 10
132.740631
 20
163.171478
 11
140.740631
 21
163.171478
  0
LINE
  8
0
  6
CENTER
 10
129.490631
 20
159.921478
 11
145.240631
 21
159.921478
  0
LINE
  8
0
  6
DASHED
 10
132.740631
 20
156.671478
 11
140.740631
 21
156.671478
  0
LINE
  8
0
  6
CENTER
 10
222.050003
 20
39.525623
 11
310.891235
 21
39.525623
  0
LINE
  8
0
  6
CONTINUOUS
 10
19.240625
 20
79.025627
 11
65.740623
 21
79.025627
  0
LINE
  8
0
  6
CONTINUOUS
 10
67.740616
 20
109.025627
 11
67.740623
 21
81.025627
  0
LINE
  8
0
  6
CONTINUOUS
 10
17.740625
 20
109.025627
 11
17.740625
 21
81.025627
  0
LINE
  8
0
  6
CONTINUOUS
 10
15.740625
 20
91.025627
 11
67.740623
 21
91.025627
  0
LINE
  8
0
  6
CONTINUOUS
 10
65.740623
 20
79.025627
 11
67.740623
 21
81.025627
  0
LINE
  8
0
  6
CONTINUOUS
 10
17.740625
 20
81.025627
 11
19.740625
 21
79.025627
  0
LINE
  8
0
  6
CONTINUOUS
 10
17.740625
 20
81.025627
 11
67.740623
 21
81.025627
  0
LINE
  8
0
  6
CONTINUOUS
 10
18.740625
 20
110.025627
 11
66.740616
 21
110.025627
  0
LINE
  8
0
  6
CONTINUOUS
 10
66.740616
 20
110.025627
 11
67.740616
 21
109.025627
  0
LINE
  8
0
  6
CONTINUOUS
 10
18.740625
 20
110.025627
 11
17.740625
 21
109.025627
  0
LINE
  8
0
  6
CONTINUOUS
 10
17.740625
 20
109.025627
 11
67.740616
 21
109.025627
  0
LINE
  8
0
  6
CENTER
 10
9.796869
 20
100.525627
 11
21.871876
 21
100.525627
  0
LINE
  8
0
  6
CONTINUOUS
 10
15.740640
 20
107.025627
 11
15.740625
 21
91.025627
  0
LINE
  8
0
  6
CONTINUOUS
 10
16.740625
 20
108.025627
 11
17.740625
 21
108.025627
  0
ARC
  8
0
  6
CONTINUOUS
 10
16.740644
 20
107.025627
 40
1.000000
 50
90.000000
 51
180.000000
  0
LINE
  8
0
  6
CONTINUOUS
 10
12.240640
 20
104.525627
 11
12.240640
 21
96.525627
  0
LINE
  8
0
  6
CONTINUOUS
 10
12.240640
 20
104.525627
 11
15.740640
 21
106.025627
  0
LINE
  8
0
  6
CONTINUOUS
 10
12.240625
 20
96.525627
 11
15.740625
 21
95.025627
  0
LINE
  8
0
  6
CENTER
 10
42.740623
 20
74.331879
 11
42.740623
 21
115.413124
  0
LINE
  8
0
  6
CONTINUOUS
 10
19.240625
 20
79.025627
 11
19.240625
 21
77.525627
  0
LINE
  8
0
  6
CONTINUOUS
 10
65.240623
 20
79.025627
 11
65.240623
 21
77.525627
  0
LINE
  8
0
  6
CONTINUOUS
 10
243.240631
 20
79.025612
 11
289.240631
 21
79.025612
  0
LINE
  8
0
  6
CONTINUOUS
 10
291.240631
 20
109.025612
 11
291.240631
 21
81.025612
  0
LINE
  8
0
  6
CONTINUOUS
 10
241.240631
 20
109.025612
 11
241.240631
 21
81.025612
  0
LINE
  8
0
  6
CONTINUOUS
 10
241.240631
 20
91.025612
 11
291.240631
 21
91.025612
  0
LINE
  8
0
  6
CONTINUOUS
 10
289.240631
 20
79.025612
 11
291.240631
 21
81.025612
  0
LINE
  8
0
  6
CONTINUOUS
 10
241.240631
 20
81.025612
 11
243.240631
 21
79.025612
  0
LINE
  8
0
  6
CONTINUOUS
 10
241.240631
 20
81.025612
 11
291.240631
 21
81.025612
  0
LINE
  8
0
  6
CONTINUOUS
 10
242.240631
 20
110.025612
 11
290.240631
 21
110.025612
  0
LINE
  8
0
  6
CONTINUOUS
 10
290.240631
 20
110.025612
 11
291.240631
 21
109.025612
  0
LINE
  8
0
  6
CONTINUOUS
 10
242.240631
 20
110.025612
 11
241.240631
 21
109.025612
  0
LINE
  8
0
  6
CONTINUOUS
 10
241.240631
 20
109.025612
 11
291.240631
 21
109.025612
  0
LINE
  8
0
  6
CONTINUOUS
 10
288.740631
 20
79.025612
 11
288.740631
 21
77.132881
  0
LINE
  8
0
  6
CONTINUOUS
 10
243.740631
 20
79.025612
 11
243.740631
 21
77.132812
  0
LINE
  8
0
  6
CONTINUOUS
 10
16.740747
 20
199.421448
 11
17.740747
 21
199.421448
  0
ARC
  8
0
  6
CONTINUOUS
 10
16.740767
 20
198.421448
 40
1.000000
 50
90.000000
 51
180.000000
  0
LINE
  8
0
  6
CONTINUOUS
 10
12.240762
 20
195.921448
 11
12.240762
 21
187.921448
  0
LINE
  8
0
  6
CONTINUOUS
 10
12.240762
 20
195.921448
 11
15.740762
 21
197.421448
  0
LINE
  8
0
  6
CONTINUOUS
 10
12.240747
 20
187.921448
 11
15.740747
 21
186.421448
  0
LINE
  8
0
  6
CONTINUOUS
 10
15.740762
 20
198.421448
 11
15.740762
 21
185.421448
  0
LINE
  8
0
  6
CONTINUOUS
 10
16.740747
 20
184.421448
 11
17.740747
 21
184.421448
  0
ARC
  8
0
  6
CONTINUOUS
 10
16.740767
 20
185.421448
 40
1.000000
 50
-180.000000
 51
-90.000000
  0
LINE
  8
0
  6
CONTINUOUS
 10
17.740747
 20
168.921448
 11
17.740747
 21
214.921448
  0
LINE
  8
0
  6
CONTINUOUS
 10
19.740747
 20
216.921448
 11
17.740747
 21
214.921448
  0
LINE
  8
0
  6
CONTINUOUS
 10
19.740747
 20
216.921448
 11
65.740738
 21
216.921448
  0
LINE
  8
0
  6
CONTINUOUS
 10
60.240746
 20
212.421448
 11
60.240746
 21
216.921448
  0
ARC
  8
0
  6
CONTINUOUS
 10
63.240746
 20
212.421448
 40
3.000000
 50
180.000000
 51
270.000000
  0
LINE
  8
0
  6
CONTINUOUS
 10
63.240746
 20
209.421448
 11
67.740738
 21
209.421448
  0
CIRCLE
  8
0
  6
CONTINUOUS
 10
64.240746
 20
213.421448
 40
2.250000
  0
LINE
  8
0
  6
CONTINUOUS
 10
67.740738
 20
168.921448
 11
67.740738
 21
214.921448
  0
LINE
  8
0
  6
CONTINUOUS
 10
65.740738
 20
216.921448
 11
67.740738
 21
214.921448
  0
LINE
  8
0
  6
CONTINUOUS
 10
65.740738
 20
166.921448
 11
67.740738
 21
168.921448
  0
LINE
  8
0
  6
CONTINUOUS
 10
65.740738
 20
166.921448
 11
19.740747
 21
166.921448
  0
LINE
  8
0
  6
CONTINUOUS
 10
17.740747
 20
168.921448
 11
19.740747
 21
166.921448
  0
LINE
  8
0
  6
CONTINUOUS
 10
22.240747
 20
174.421448
 11
17.740757
 21
174.421448
  0
CIRCLE
  8
0
  6
CONTINUOUS
 10
21.240747
 20
170.421448
 40
2.250000
  0
ARC
  8
0
  6
CONTINUOUS
 10
22.240747
 20
171.421448
 40
3.000000
 50
0.000000
 51
90.000000
  0
LINE
  8
0
  6
CONTINUOUS
 10
25.240747
 20
171.421448
 11
25.240747
 21
166.921448
  0
LINE
  8
0
  6
CENTER
 10
42.740746
 20
159.455673
 11
42.740746
 21
223.587708
  0
LINE
  8
0
  6
CONTINUOUS
 10
20.154966
 20
215.921478
 11
18.740753
 21
214.507263
  0
LINE
  8
0
  6
CONTINUOUS
 10
18.740753
 20
174.421478
 11
18.740753
 21
214.507263
  0
LINE
  8
0
  6
CONTINUOUS
 10
60.240746
 20
215.921478
 11
20.154966
 21
215.921478
  0
LINE
  8
0
  6
CONTINUOUS
 10
66.740738
 20
209.421478
 11
66.740738
 21
169.335693
  0
LINE
  8
0
  6
CONTINUOUS
 10
25.240747
 20
167.921478
 11
65.326530
 21
167.921478
  0
LINE
  8
0
  6
CONTINUOUS
 10
65.326530
 20
167.921478
 11
66.740738
 21
169.335693
  0
TEXT
  8
0
 10
-4.000000
 20
-6.000000
 40
4.000000
 41
1.000000
  1
GFM-12-5~60-T40T
 50
0.000000
  0
ENDSEC
  0
EOF
