  0
SECTION
  2
HEADER
  9
$CLAYER
  8
1
  9
$LTSCALE
 40
3.0
  0
ENDSEC
  0
SECTION
  2
TABLES
  0
TABLE
  2
LTYPE
 70
     4
  0
LTYPE
  2
CONTINUOUS
  3
solid line
 70
    64
 72
    65
 73
     0
 40
0.0
  0
LTYPE
  2
DASHED
  3
__ __ __ __ __ __ __ __ __ __ __ __ __ __ __
 70
    64
 72
    65
 73
     2
 40
0.75
 49
0.5
 49
-0.25
  0
LTYPE
  2
CENTER
  3
____ _ ____ _ ____ _ ____ _ ____ _ ____ _ ____
 70
    64
 72
    65
 73
     4
 40
2.0
 49
1.25
 49
-0.25
 49
0.25
 49
-0.25
  0
LTYPE
  2
PHANTOM
  3
_____ _ _ _____ _ _ _____ _ _ _____ _ _ ____
 70
    64
 72
    65
 73
     6
 40
2.5
 49
1.25
 49
-0.25
 49
0.25
 49
-0.25
 49
0.25
 49
-0.25
  0
ENDTAB
  0
TABLE
  2
LAYER
 70
     1
  0
LAYER
  2
0
 70
    64
 62
     7
  6
CONTINUOUS
  0
ENDTAB
  0
TABLE
  2
STYLE
 70
     1
  0
STYLE
  2
STANDARD
 70
     0
 40
0.000000
 41
1.000000
 50
0.000000
 71
     0
 42
3.000000
  3
txt
  4
BIGFONT
  0
ENDTAB
  0
ENDSEC
  0
SECTION
  2
BLOCKS
  0
ENDSEC
  0
SECTION
  2
ENTITIES
  0
LINE
  8
0
  6
CONTINUOUS
 10
55.788124
 20
79.146873
 11
65.288124
 21
79.146873
  0
LINE
  8
0
  6
CONTINUOUS
 10
55.788124
 20
3.146875
 11
65.288124
 21
3.146875
  0
LINE
  8
0
  6
CONTINUOUS
 10
55.788124
 20
1.146875
 11
55.788124
 21
81.146873
  0
LINE
  8
0
  6
CONTINUOUS
 10
55.788124
 20
71.395874
 11
65.288124
 21
71.395874
  0
LINE
  8
0
  6
CONTINUOUS
 10
55.788124
 20
10.897875
 11
65.288124
 21
10.897875
  0
LINE
  8
0
  6
CONTINUOUS
 10
11.788125
 20
81.146873
 11
55.788124
 21
81.146873
  0
LINE
  8
0
  6
CONTINUOUS
 10
11.788125
 20
1.146875
 11
55.788124
 21
1.146875
  0
LINE
  8
0
  6
CONTINUOUS
 10
6.788125
 20
6.146875
 11
6.788125
 21
76.146873
  0
ARC
  8
0
  6
CONTINUOUS
 10
11.788145
 20
76.146873
 40
5.000000
 50
90.000000
 51
180.000000
  0
ARC
  8
0
  6
CONTINUOUS
 10
11.788125
 20
6.146875
 40
5.000000
 50
180.000000
 51
270.000000
  0
LINE
  8
0
  6
CONTINUOUS
 10
65.288124
 20
3.146895
 11
65.288124
 21
79.146873
  0
LINE
  8
0
  6
CENTER
 10
-2.218906
 20
41.146873
 11
187.469528
 21
41.146873
  0
LINE
  8
0
  6
CONTINUOUS
 10
179.288132
 20
79.146873
 11
179.288132
 21
3.146895
  0
LINE
  8
0
  6
CENTER
 10
151.671829
 20
52.146873
 11
214.322525
 21
52.146873
  0
LINE
  8
0
  6
CONTINUOUS
 10
65.288124
 20
79.146873
 11
179.288132
 21
79.146873
  0
LINE
  8
0
  6
CONTINUOUS
 10
65.288124
 20
3.146895
 11
179.288132
 21
3.146895
  0
LINE
  8
0
  6
CONTINUOUS
 10
65.288124
 20
71.395874
 11
171.288132
 21
71.395874
  0
LINE
  8
0
  6
CONTINUOUS
 10
65.288124
 20
10.897905
 11
171.288132
 21
10.897905
  0
LINE
  8
0
  6
CONTINUOUS
 10
206.788132
 20
46.146873
 11
206.788132
 21
58.146873
  0
LINE
  8
0
  6
CONTINUOUS
 10
184.788132
 20
58.146873
 11
206.788132
 21
58.146873
  0
LINE
  8
0
  6
CONTINUOUS
 10
184.788132
 20
46.146873
 11
206.788132
 21
46.146873
  0
LINE
  8
0
  6
CONTINUOUS
 10
184.788132
 20
59.646873
 11
184.788132
 21
44.646873
  0
LINE
  8
0
  6
CONTINUOUS
 10
171.288132
 20
77.146873
 11
171.288132
 21
5.146875
  0
LINE
  8
0
  6
CONTINUOUS
 10
188.788132
 20
54.146873
 11
206.788132
 21
54.146873
  0
LINE
  8
0
  6
CONTINUOUS
 10
188.788132
 20
50.146873
 11
206.788132
 21
50.146873
  0
ARC
  8
0
  6
CONTINUOUS
 10
188.788132
 20
52.146873
 40
2.000000
 50
90.000000
 51
180.000000
  0
ARC
  8
0
  6
CONTINUOUS
 10
188.788132
 20
52.146873
 40
2.000000
 50
180.000000
 51
270.000000
  0
LINE
  8
0
  6
CENTER
 10
166.288132
 20
73.146873
 11
183.038132
 21
73.146873
  0
LINE
  8
0
  6
CENTER
 10
168.038132
 20
9.146875
 11
183.788132
 21
9.146875
  0
LINE
  8
0
  6
DASHED
 10
171.288132
 20
12.396875
 11
179.288132
 21
12.396875
  0
LINE
  8
0
  6
DASHED
 10
171.288132
 20
5.896875
 11
179.288132
 21
5.896875
  0
LINE
  8
0
  6
DASHED
 10
171.288132
 20
76.396873
 11
179.288132
 21
76.396873
  0
LINE
  8
0
  6
DASHED
 10
171.288132
 20
69.896873
 11
179.288132
 21
69.896873
  0
ARC
  8
0
  6
CONTINUOUS
 10
173.288132
 20
77.146873
 40
2.000000
 50
90.000000
 51
180.000000
  0
ARC
  8
0
  6
CONTINUOUS
 10
173.288132
 20
5.146895
 40
2.000000
 50
180.000000
 51
270.000000
  0
LINE
  8
0
  6
CONTINUOUS
 10
184.788132
 20
59.646873
 11
182.788132
 21
59.646873
  0
LINE
  8
0
  6
CONTINUOUS
 10
184.788132
 20
44.646873
 11
182.788132
 21
44.646873
  0
LINE
  8
0
  6
CONTINUOUS
 10
181.788132
 20
69.646873
 11
179.288132
 21
69.646873
  0
LINE
  8
0
  6
CONTINUOUS
 10
181.788132
 20
34.646873
 11
179.288132
 21
34.646873
  0
ARC
  8
0
  6
CONTINUOUS
 10
181.788132
 20
68.646873
 40
1.000000
 50
0.000000
 51
90.000000
  0
ARC
  8
0
  6
CONTINUOUS
 10
181.788132
 20
35.646873
 40
1.000000
 50
-90.000000
 51
0.000000
  0
LINE
  8
0
  6
CONTINUOUS
 10
182.788132
 20
68.646873
 11
182.788132
 21
35.646873
  0
LINE
  8
0
  6
CENTER
 10
306.788116
 20
-4.790625
 11
306.788116
 21
121.202034
  0
LINE
  8
0
  6
CONTINUOUS
 10
344.788116
 20
7.740965
 11
344.788116
 21
74.552773
  0
LINE
  8
0
  6
CONTINUOUS
 10
268.788116
 20
64.759575
 11
268.788116
 21
74.552673
  0
LINE
  8
0
  6
CONTINUOUS
 10
306.788116
 20
79.146873
 11
340.857910
 21
78.552177
  0
LINE
  8
0
  6
CONTINUOUS
 10
272.718323
 20
78.552078
 11
306.788116
 21
79.146873
  0
LINE
  8
0
  6
CONTINUOUS
 10
340.857910
 20
3.741565
 11
306.788116
 21
3.146875
  0
LINE
  8
0
  6
CONTINUOUS
 10
272.718323
 20
3.741425
 11
306.788116
 21
3.146875
  0
ARC
  8
0
  6
CONTINUOUS
 10
340.788116
 20
74.552773
 40
4.000000
 50
0.000000
 51
89.000137
  0
ARC
  8
0
  6
CONTINUOUS
 10
272.788116
 20
74.552673
 40
4.000000
 50
91.000641
 51
180.000000
  0
ARC
  8
0
  6
CONTINUOUS
 10
272.788116
 20
7.740845
 40
4.000000
 50
180.000000
 51
269.000488
  0
ARC
  8
0
  6
CONTINUOUS
 10
340.788116
 20
7.740945
 40
4.000000
 50
-88.999817
 51
0.000000
  0
LINE
  8
0
  6
CENTER
 10
343.694427
 20
73.146873
 11
332.944427
 21
73.146873
  0
LINE
  8
0
  6
CENTER
 10
338.788116
 20
77.959373
 11
338.788116
 21
67.459373
  0
CIRCLE
  8
0
  6
CONTINUOUS
 10
338.788116
 20
73.146873
 40
3.250000
  0
LINE
  8
0
  6
CENTER
 10
343.694427
 20
9.146875
 11
332.944427
 21
9.146875
  0
LINE
  8
0
  6
CENTER
 10
338.788116
 20
4.334375
 11
338.788116
 21
14.834375
  0
CIRCLE
  8
0
  6
CONTINUOUS
 10
338.788116
 20
9.146875
 40
3.250000
  0
LINE
  8
0
  6
CENTER
 10
269.881927
 20
73.146873
 11
280.631927
 21
73.146873
  0
LINE
  8
0
  6
CENTER
 10
274.788116
 20
77.959373
 11
274.788116
 21
67.459373
  0
CIRCLE
  8
0
  6
CONTINUOUS
 10
274.788116
 20
73.146873
 40
3.250000
  0
LINE
  8
0
  6
CENTER
 10
269.881927
 20
9.146875
 11
280.631927
 21
9.146875
  0
LINE
  8
0
  6
CENTER
 10
274.788116
 20
4.334375
 11
274.788116
 21
14.834375
  0
CIRCLE
  8
0
  6
CONTINUOUS
 10
274.788116
 20
9.146875
 40
3.250000
  0
LINE
  8
0
  6
CONTINUOUS
 10
299.288116
 20
54.146873
 11
299.288116
 21
50.146873
  0
LINE
  8
0
  6
CONTINUOUS
 10
303.288116
 20
50.146873
 11
303.288116
 21
54.146873
  0
LINE
  8
0
  6
CONTINUOUS
 10
303.288116
 20
54.146873
 11
299.288116
 21
54.146873
  0
LINE
  8
0
  6
CONTINUOUS
 10
303.288116
 20
50.146873
 11
299.288116
 21
50.146873
  0
ARC
  8
0
  6
CONTINUOUS
 10
306.788116
 20
52.146873
 40
6.000000
 50
-160.528793
 51
160.528793
  0
LINE
  8
0
  6
CENTER
 10
284.584991
 20
52.146873
 11
329.038116
 21
52.146873
  0
LINE
  8
0
  6
CONTINUOUS
 10
340.788116
 20
52.979076
 11
340.788116
 21
29.314726
  0
LINE
  8
0
  6
CONTINUOUS
 10
272.788116
 20
52.979076
 11
272.788116
 21
29.314714
  0
ARC
  8
0
  6
CONTINUOUS
 10
306.788116
 20
41.146873
 40
36.000000
 50
19.188120
 51
160.811905
  0
ARC
  8
0
  6
CONTINUOUS
 10
306.788116
 20
41.146873
 40
36.000000
 50
199.188095
 51
340.811890
  0
ARC
  8
0
  6
CONTINUOUS
 10
306.788116
 20
41.146873
 40
36.000000
 50
19.188120
 51
160.811905
  0
ARC
  8
0
  6
CONTINUOUS
 10
306.788116
 20
41.146873
 40
36.000000
 50
199.188095
 51
340.811890
  0
LINE
  8
0
  6
CONTINUOUS
 10
268.788116
 20
7.740815
 11
268.788116
 21
65.075775
  0
LINE
  8
0
  6
CONTINUOUS
 10
301.538116
 20
26.720116
 11
301.538116
 21
22.146875
  0
LINE
  8
0
  6
CONTINUOUS
 10
304.163116
 20
28.381245
 11
304.163116
 21
30.021875
  0
LINE
  8
0
  6
CONTINUOUS
 10
309.413116
 20
28.381245
 11
309.413116
 21
30.021875
  0
LINE
  8
0
  6
CONTINUOUS
 10
306.275421
 20
29.058004
 11
306.275421
 21
23.008205
  0
LINE
  8
0
  6
CONTINUOUS
 10
307.259827
 20
29.058004
 11
307.259827
 21
23.008205
  0
LINE
  8
0
  6
CONTINUOUS
 10
312.427734
 20
29.058004
 11
312.427734
 21
22.967184
  0
LINE
  8
0
  6
CONTINUOUS
 10
313.330139
 20
25.828026
 11
313.330139
 21
22.967184
  0
LINE
  8
0
  6
CONTINUOUS
 10
300.292511
 20
28.975975
 11
297.762726
 21
28.975975
  0
LINE
  8
0
  6
CONTINUOUS
 10
297.762726
 20
28.975975
 11
297.169922
 21
28.240974
  0
LINE
  8
0
  6
CONTINUOUS
 10
297.241211
 20
30.021875
 11
296.288116
 21
28.801405
  0
LINE
  8
0
  6
CONTINUOUS
 10
297.169922
 20
23.704096
 11
297.772217
 21
23.069725
  0
LINE
  8
0
  6
CONTINUOUS
 10
296.288116
 20
23.168755
 11
297.300934
 21
22.146875
  0
LINE
  8
0
  6
CONTINUOUS
 10
296.288116
 20
28.801405
 11
296.288116
 21
23.168755
  0
LINE
  8
0
  6
CONTINUOUS
 10
297.169922
 20
28.240974
 11
297.169922
 21
23.704096
  0
LINE
  8
0
  6
CONTINUOUS
 10
300.779327
 20
28.505375
 11
300.282623
 21
28.975975
  0
LINE
  8
0
  6
CONTINUOUS
 10
300.771423
 20
30.021875
 11
301.538116
 21
29.171055
  0
LINE
  8
0
  6
CONTINUOUS
 10
300.779327
 20
28.381245
 11
301.538116
 21
28.381245
  0
LINE
  8
0
  6
CONTINUOUS
 10
297.241211
 20
30.021875
 11
300.771423
 21
30.021875
  0
LINE
  8
0
  6
CONTINUOUS
 10
300.779327
 20
25.858786
 11
299.405334
 21
25.858786
  0
LINE
  8
0
  6
CONTINUOUS
 10
300.779327
 20
25.038475
 11
300.779327
 21
25.694725
  0
LINE
  8
0
  6
CONTINUOUS
 10
299.138733
 20
23.069725
 11
297.772217
 21
23.069725
  0
ARC
  8
0
  6
CONTINUOUS
 10
299.138733
 20
24.710344
 40
1.640625
 50
-89.999786
 51
0.000109
  0
LINE
  8
0
  6
CONTINUOUS
 10
300.779327
 20
22.774626
 11
300.779327
 21
22.146875
  0
LINE
  8
0
  6
CONTINUOUS
 10
301.538116
 20
29.171055
 11
301.538116
 21
28.381245
  0
LINE
  8
0
  6
CONTINUOUS
 10
300.779327
 20
25.858786
 11
300.779327
 21
24.710344
  0
LINE
  8
0
  6
CONTINUOUS
 10
299.405334
 20
26.720116
 11
299.405334
 21
25.858786
  0
LINE
  8
0
  6
CONTINUOUS
 10
300.779327
 20
22.146875
 11
301.538116
 21
22.146875
  0
LINE
  8
0
  6
CONTINUOUS
 10
300.779327
 20
22.774626
 11
300.031128
 21
22.146875
  0
LINE
  8
0
  6
CONTINUOUS
 10
307.259827
 20
23.008205
 11
307.587921
 21
23.008205
  0
LINE
  8
0
  6
CONTINUOUS
 10
305.885834
 20
23.008205
 11
305.885834
 21
22.146875
  0
LINE
  8
0
  6
CONTINUOUS
 10
307.587921
 20
23.008205
 11
307.587921
 21
22.146875
  0
LINE
  8
0
  6
CONTINUOUS
 10
308.865540
 20
28.381245
 11
309.413116
 21
28.381245
  0
LINE
  8
0
  6
CONTINUOUS
 10
304.163116
 20
28.381245
 11
304.745911
 21
28.381245
  0
LINE
  8
0
  6
CONTINUOUS
 10
304.163116
 20
30.021875
 11
309.413116
 21
30.021875
  0
LINE
  8
0
  6
CONTINUOUS
 10
305.885834
 20
22.146875
 11
307.587921
 21
22.146875
  0
LINE
  8
0
  6
CONTINUOUS
 10
305.885834
 20
23.008205
 11
306.275421
 21
23.008205
  0
ARC
  8
0
  6
CONTINUOUS
 10
315.186035
 20
27.919825
 40
2.102051
 50
-73.981873
 51
90.003510
  0
ARC
  8
0
  6
CONTINUOUS
 10
315.186035
 20
27.919825
 40
1.282395
 50
-82.585274
 51
62.411850
  0
LINE
  8
0
  6
CONTINUOUS
 10
312.038116
 20
30.021875
 11
315.186035
 21
30.021875
  0
LINE
  8
0
  6
CONTINUOUS
 10
312.038116
 20
30.021875
 11
312.038116
 21
29.058004
  0
LINE
  8
0
  6
CONTINUOUS
 10
313.330139
 20
29.058004
 11
313.330139
 21
26.648155
  0
LINE
  8
0
  6
CONTINUOUS
 10
315.766113
 20
25.899385
 11
317.067139
 21
22.967184
  0
LINE
  8
0
  6
CONTINUOUS
 10
315.010437
 20
25.828026
 11
316.241730
 21
22.967184
  0
LINE
  8
0
  6
CONTINUOUS
 10
312.038116
 20
22.967184
 11
312.427734
 21
22.967184
  0
LINE
  8
0
  6
CONTINUOUS
 10
313.330139
 20
22.967184
 11
313.689026
 21
22.967184
  0
LINE
  8
0
  6
CONTINUOUS
 10
313.689026
 20
22.146875
 11
312.038116
 21
22.146875
  0
LINE
  8
0
  6
CONTINUOUS
 10
316.078125
 20
22.967184
 11
316.241730
 21
22.967184
  0
LINE
  8
0
  6
CONTINUOUS
 10
317.067139
 20
22.967184
 11
317.288116
 21
22.967184
  0
LINE
  8
0
  6
CONTINUOUS
 10
316.078125
 20
22.146875
 11
317.288116
 21
22.146875
  0
LINE
  8
0
  6
CONTINUOUS
 10
317.288116
 20
22.967184
 11
317.288116
 21
22.146875
  0
LINE
  8
0
  6
CONTINUOUS
 10
316.078125
 20
22.967184
 11
316.078125
 21
22.146875
  0
LINE
  8
0
  6
CONTINUOUS
 10
313.689026
 20
22.967184
 11
313.689026
 21
22.146875
  0
LINE
  8
0
  6
CONTINUOUS
 10
312.038116
 20
22.967184
 11
312.038116
 21
22.146875
  0
LINE
  8
0
  6
CONTINUOUS
 10
305.027832
 20
29.058004
 11
304.745911
 21
28.381245
  0
LINE
  8
0
  6
CONTINUOUS
 10
308.627716
 20
29.058004
 11
308.865540
 21
28.381245
  0
LINE
  8
0
  6
CONTINUOUS
 10
307.259827
 20
29.058004
 11
308.627716
 21
29.058004
  0
LINE
  8
0
  6
CONTINUOUS
 10
306.275421
 20
29.058004
 11
305.027832
 21
29.058004
  0
LINE
  8
0
  6
CONTINUOUS
 10
312.038116
 20
29.058004
 11
312.427734
 21
29.058004
  0
LINE
  8
0
  6
CONTINUOUS
 10
313.330139
 20
29.058004
 11
315.780029
 21
29.056416
  0
LINE
  8
0
  6
CONTINUOUS
 10
300.779327
 20
28.505375
 11
300.779327
 21
28.381245
  0
LINE
  8
0
  6
CONTINUOUS
 10
297.300934
 20
22.146875
 11
300.031128
 21
22.146875
  0
LINE
  8
0
  6
CONTINUOUS
 10
313.330139
 20
26.648155
 11
315.351532
 21
26.648155
  0
LINE
  8
0
  6
CONTINUOUS
 10
313.330139
 20
25.828026
 11
315.010437
 21
25.828026
  0
LINE
  8
0
  6
CONTINUOUS
 10
299.405334
 20
26.720116
 11
301.538116
 21
26.720116
  0
LINE
  8
0
  6
CONTINUOUS
 10
284.859222
 20
1.146875
 11
329.788116
 21
1.146875
  0
LINE
  8
0
  6
CONTINUOUS
 10
266.788116
 20
19.217985
 11
266.788116
 21
64.146873
  0
LINE
  8
0
  6
CONTINUOUS
 10
346.788116
 20
18.146875
 11
346.788116
 21
63.075775
  0
ARC
  8
0
  6
CONTINUOUS
 10
269.788116
 20
64.146873
 40
3.000000
 50
109.471603
 51
180.000000
  0
ARC
  8
0
  6
CONTINUOUS
 10
283.788116
 20
78.146873
 40
3.000000
 50
98.895966
 51
169.495407
  0
ARC
  8
0
  6
CONTINUOUS
 10
328.717133
 20
76.146873
 40
5.000000
 50
45.000130
 51
74.008041
  0
ARC
  8
0
  6
CONTINUOUS
 10
341.788116
 20
63.075775
 40
5.000000
 50
0.000000
 51
45.000160
  0
ARC
  8
0
  6
CONTINUOUS
 10
343.788116
 20
18.146866
 40
3.000000
 50
-70.528526
 51
0.000000
  0
ARC
  8
0
  6
CONTINUOUS
 10
329.788116
 20
4.146865
 40
3.000000
 50
270.000000
 51
349.493500
  0
ARC
  8
0
  6
CONTINUOUS
 10
284.859222
 20
6.146875
 40
5.000000
 50
225.000000
 51
270.000000
  0
ARC
  8
0
  6
CONTINUOUS
 10
271.788116
 20
19.217985
 40
5.000000
 50
180.000000
 51
224.998398
  0
LINE
  8
0
  6
CONTINUOUS
 10
345.323639
 20
66.611374
 11
344.788116
 21
67.146873
  0
LINE
  8
0
  6
CONTINUOUS
 10
332.252625
 20
79.682373
 11
333.250031
 21
78.684975
  0
LINE
  8
0
  6
CONTINUOUS
 10
281.323639
 20
2.611345
 11
280.326324
 21
3.608655
  0
CIRCLE
  8
0
  6
CONTINUOUS
 10
306.788116
 20
52.146873
 40
17.500000
  0
LINE
  8
0
  6
CONTINUOUS
 10
179.288132
 20
245.910629
 11
179.288132
 21
169.910629
  0
LINE
  8
0
  6
CONTINUOUS
 10
65.288246
 20
169.910645
 11
65.288246
 21
182.910599
  0
LINE
  8
0
  6
CONTINUOUS
 10
65.288246
 20
245.910599
 11
179.288254
 21
245.910599
  0
LINE
  8
0
  6
CONTINUOUS
 10
65.288246
 20
169.910645
 11
179.288254
 21
169.910645
  0
LINE
  8
0
  6
CONTINUOUS
 10
171.288254
 20
243.910599
 11
171.288254
 21
230.910629
  0
ARC
  8
0
  6
CONTINUOUS
 10
173.288254
 20
243.910629
 40
2.000000
 50
90.000000
 51
180.000000
  0
ARC
  8
0
  6
CONTINUOUS
 10
173.288254
 20
171.910645
 40
2.000000
 50
180.000000
 51
270.000000
  0
LINE
  8
0
  6
CONTINUOUS
 10
55.788124
 20
245.910629
 11
65.288246
 21
245.910629
  0
LINE
  8
0
  6
CONTINUOUS
 10
55.788124
 20
169.910629
 11
65.288246
 21
169.910629
  0
LINE
  8
0
  6
CONTINUOUS
 10
106.288239
 20
230.910629
 11
171.288254
 21
230.910629
  0
LINE
  8
0
  6
CONTINUOUS
 10
56.288246
 20
230.910629
 11
55.788124
 21
230.910629
  0
LINE
  8
0
  6
CONTINUOUS
 10
106.288239
 20
184.910629
 11
171.288254
 21
184.910629
  0
LINE
  8
0
  6
CONTINUOUS
 10
56.288246
 20
184.910629
 11
55.788124
 21
184.910629
  0
LINE
  8
0
  6
CONTINUOUS
 10
171.288254
 20
184.910629
 11
171.288254
 21
171.910629
  0
LINE
  8
0
  6
CONTINUOUS
 10
65.288246
 20
232.910599
 11
65.288246
 21
245.910629
  0
LINE
  8
0
  6
CENTER
 10
-7.518125
 20
207.910629
 11
213.568130
 21
207.910629
  0
LINE
  8
0
  6
CONTINUOUS
 10
206.788132
 20
200.410629
 11
206.788132
 21
213.910629
  0
LINE
  8
0
  6
CONTINUOUS
 10
184.788132
 20
213.910629
 11
206.788132
 21
213.910629
  0
LINE
  8
0
  6
CONTINUOUS
 10
184.788132
 20
201.910629
 11
186.788132
 21
201.910629
  0
LINE
  8
0
  6
CONTINUOUS
 10
184.788132
 20
215.410629
 11
184.788132
 21
200.410629
  0
LINE
  8
0
  6
CONTINUOUS
 10
181.788132
 20
225.410629
 11
179.288132
 21
225.410629
  0
LINE
  8
0
  6
CONTINUOUS
 10
181.788132
 20
190.410629
 11
179.288132
 21
190.410629
  0
LINE
  8
0
  6
CONTINUOUS
 10
182.788132
 20
191.410629
 11
182.788132
 21
224.410629
  0
ARC
  8
0
  6
CONTINUOUS
 10
181.788132
 20
224.410629
 40
1.000000
 50
0.000000
 51
90.000000
  0
ARC
  8
0
  6
CONTINUOUS
 10
181.788132
 20
191.410629
 40
1.000000
 50
-90.000000
 51
0.000000
  0
LINE
  8
0
  6
CONTINUOUS
 10
182.788132
 20
215.410629
 11
184.788132
 21
215.410629
  0
LINE
  8
0
  6
CONTINUOUS
 10
182.788132
 20
200.410629
 11
184.788132
 21
200.410629
  0
LINE
  8
0
  6
CONTINUOUS
 10
186.788132
 20
200.410629
 11
206.788132
 21
200.410629
  0
LINE
  8
0
  6
CONTINUOUS
 10
186.788132
 20
202.253632
 11
186.788132
 21
200.410629
  0
LINE
  8
0
  6
CONTINUOUS
 10
186.788132
 20
202.253632
 11
206.788132
 21
202.253632
  0
LINE
  8
0
  6
DASHED
 10
171.288132
 20
243.160629
 11
179.288132
 21
243.160629
  0
LINE
  8
0
  6
DASHED
 10
171.288132
 20
236.660629
 11
179.288132
 21
236.660629
  0
LINE
  8
0
  6
CENTER
 10
166.288132
 20
239.910629
 11
183.038132
 21
239.910629
  0
LINE
  8
0
  6
DASHED
 10
171.288132
 20
179.160629
 11
179.288132
 21
179.160629
  0
LINE
  8
0
  6
CENTER
 10
168.038132
 20
175.910629
 11
183.788132
 21
175.910629
  0
LINE
  8
0
  6
DASHED
 10
171.288132
 20
172.660629
 11
179.288132
 21
172.660629
  0
LINE
  8
0
  6
CONTINUOUS
 10
55.788124
 20
167.910629
 11
55.788124
 21
200.410599
  0
LINE
  8
0
  6
CONTINUOUS
 10
11.788125
 20
247.910629
 11
55.788124
 21
247.910629
  0
LINE
  8
0
  6
CONTINUOUS
 10
11.788125
 20
167.910629
 11
55.788124
 21
167.910629
  0
LINE
  8
0
  6
CONTINUOUS
 10
6.788125
 20
172.910629
 11
6.788125
 21
242.910629
  0
ARC
  8
0
  6
CONTINUOUS
 10
11.788125
 20
242.910629
 40
5.000000
 50
90.000000
 51
180.000000
  0
ARC
  8
0
  6
CONTINUOUS
 10
11.788125
 20
172.910629
 40
5.000000
 50
180.000000
 51
270.000000
  0
LINE
  8
0
  6
CONTINUOUS
 10
9.288125
 20
231.910629
 11
55.788124
 21
231.910629
  0
LINE
  8
0
  6
CONTINUOUS
 10
9.288125
 20
181.910629
 11
55.788124
 21
181.910629
  0
LINE
  8
0
  6
CONTINUOUS
 10
9.288125
 20
67.146873
 11
55.788124
 21
67.146873
  0
LINE
  8
0
  6
CONTINUOUS
 10
9.288125
 20
17.146875
 11
55.788124
 21
17.146875
  0
LINE
  8
0
  6
CONTINUOUS
 10
268.252502
 20
15.682549
 11
268.788116
 21
15.146885
  0
LINE
  8
0
  6
CENTER
 10
260.176239
 20
41.146873
 11
351.974365
 21
41.146873
  0
LINE
  8
0
  6
CONTINUOUS
 10
57.788124
 20
80.646873
 11
104.288124
 21
80.646873
  0
LINE
  8
0
  6
CONTINUOUS
 10
106.288116
 20
110.646873
 11
106.288124
 21
82.646873
  0
LINE
  8
0
  6
CONTINUOUS
 10
56.288124
 20
110.646873
 11
56.288124
 21
82.646873
  0
LINE
  8
0
  6
CONTINUOUS
 10
54.288124
 20
92.646873
 11
106.288124
 21
92.646873
  0
LINE
  8
0
  6
CONTINUOUS
 10
104.288124
 20
80.646873
 11
106.288124
 21
82.646873
  0
LINE
  8
0
  6
CONTINUOUS
 10
56.288124
 20
82.646873
 11
58.288124
 21
80.646873
  0
LINE
  8
0
  6
CONTINUOUS
 10
56.288124
 20
82.646873
 11
106.288124
 21
82.646873
  0
LINE
  8
0
  6
CONTINUOUS
 10
57.288124
 20
111.646873
 11
105.288116
 21
111.646873
  0
LINE
  8
0
  6
CONTINUOUS
 10
105.288116
 20
111.646873
 11
106.288116
 21
110.646873
  0
LINE
  8
0
  6
CONTINUOUS
 10
57.288124
 20
111.646873
 11
56.288124
 21
110.646873
  0
LINE
  8
0
  6
CONTINUOUS
 10
56.288124
 20
110.646873
 11
106.288116
 21
110.646873
  0
LINE
  8
0
  6
CENTER
 10
48.344368
 20
102.146873
 11
60.419376
 21
102.146873
  0
LINE
  8
0
  6
CONTINUOUS
 10
54.288139
 20
108.646873
 11
54.288124
 21
92.646873
  0
LINE
  8
0
  6
CONTINUOUS
 10
55.288124
 20
109.646873
 11
56.288124
 21
109.646873
  0
ARC
  8
0
  6
CONTINUOUS
 10
55.288143
 20
108.646873
 40
1.000000
 50
90.000000
 51
180.000000
  0
LINE
  8
0
  6
CONTINUOUS
 10
50.788139
 20
106.146873
 11
50.788139
 21
98.146873
  0
LINE
  8
0
  6
CONTINUOUS
 10
50.788139
 20
106.146873
 11
54.288139
 21
107.646873
  0
LINE
  8
0
  6
CONTINUOUS
 10
50.788124
 20
98.146873
 11
54.288124
 21
96.646873
  0
LINE
  8
0
  6
CENTER
 10
81.288124
 20
75.953125
 11
81.288124
 21
117.034378
  0
LINE
  8
0
  6
CONTINUOUS
 10
57.788124
 20
80.646873
 11
57.788124
 21
79.146873
  0
LINE
  8
0
  6
CONTINUOUS
 10
103.788124
 20
80.646873
 11
103.788124
 21
79.146873
  0
LINE
  8
0
  6
CONTINUOUS
 10
283.788116
 20
80.646866
 11
329.788116
 21
80.646866
  0
LINE
  8
0
  6
CONTINUOUS
 10
331.788116
 20
110.646866
 11
331.788116
 21
82.646866
  0
LINE
  8
0
  6
CONTINUOUS
 10
281.788116
 20
110.646866
 11
281.788116
 21
82.646866
  0
LINE
  8
0
  6
CONTINUOUS
 10
281.788116
 20
92.646866
 11
331.788116
 21
92.646866
  0
LINE
  8
0
  6
CONTINUOUS
 10
329.788116
 20
80.646866
 11
331.788116
 21
82.646866
  0
LINE
  8
0
  6
CONTINUOUS
 10
281.788116
 20
82.646866
 11
283.788116
 21
80.646866
  0
LINE
  8
0
  6
CONTINUOUS
 10
281.788116
 20
82.646866
 11
331.788116
 21
82.646866
  0
LINE
  8
0
  6
CONTINUOUS
 10
282.788116
 20
111.646866
 11
330.788116
 21
111.646866
  0
LINE
  8
0
  6
CONTINUOUS
 10
330.788116
 20
111.646866
 11
331.788116
 21
110.646866
  0
LINE
  8
0
  6
CONTINUOUS
 10
282.788116
 20
111.646866
 11
281.788116
 21
110.646866
  0
LINE
  8
0
  6
CONTINUOUS
 10
281.788116
 20
110.646866
 11
331.788116
 21
110.646866
  0
LINE
  8
0
  6
CONTINUOUS
 10
329.288116
 20
80.646866
 11
329.288116
 21
78.754128
  0
LINE
  8
0
  6
CONTINUOUS
 10
284.288116
 20
80.646866
 11
284.288116
 21
78.754066
  0
LINE
  8
0
  6
CONTINUOUS
 10
55.288246
 20
215.410599
 11
56.288246
 21
215.410599
  0
ARC
  8
0
  6
CONTINUOUS
 10
55.288265
 20
214.410599
 40
1.000000
 50
90.000000
 51
180.000000
  0
LINE
  8
0
  6
CONTINUOUS
 10
50.788261
 20
211.910599
 11
50.788261
 21
203.910599
  0
LINE
  8
0
  6
CONTINUOUS
 10
50.788261
 20
211.910599
 11
54.288261
 21
213.410599
  0
LINE
  8
0
  6
CONTINUOUS
 10
50.788246
 20
203.910599
 11
54.288246
 21
202.410599
  0
LINE
  8
0
  6
CONTINUOUS
 10
54.288261
 20
214.410599
 11
54.288261
 21
201.410599
  0
LINE
  8
0
  6
CONTINUOUS
 10
55.288246
 20
200.410599
 11
56.288246
 21
200.410599
  0
ARC
  8
0
  6
CONTINUOUS
 10
55.288265
 20
201.410599
 40
1.000000
 50
-180.000000
 51
-90.000000
  0
LINE
  8
0
  6
CONTINUOUS
 10
56.288246
 20
184.910599
 11
56.288246
 21
230.910599
  0
LINE
  8
0
  6
CONTINUOUS
 10
58.288246
 20
232.910599
 11
56.288246
 21
230.910599
  0
LINE
  8
0
  6
CONTINUOUS
 10
58.288246
 20
232.910599
 11
104.288239
 21
232.910599
  0
LINE
  8
0
  6
CONTINUOUS
 10
98.788246
 20
228.410599
 11
98.788246
 21
232.910599
  0
ARC
  8
0
  6
CONTINUOUS
 10
101.788246
 20
228.410599
 40
3.000000
 50
180.000000
 51
270.000000
  0
LINE
  8
0
  6
CONTINUOUS
 10
101.788246
 20
225.410599
 11
106.288239
 21
225.410599
  0
CIRCLE
  8
0
  6
CONTINUOUS
 10
102.788246
 20
229.410599
 40
2.250000
  0
LINE
  8
0
  6
CONTINUOUS
 10
106.288239
 20
184.910599
 11
106.288239
 21
230.910599
  0
LINE
  8
0
  6
CONTINUOUS
 10
104.288239
 20
232.910599
 11
106.288239
 21
230.910599
  0
LINE
  8
0
  6
CONTINUOUS
 10
104.288239
 20
182.910599
 11
106.288239
 21
184.910599
  0
LINE
  8
0
  6
CONTINUOUS
 10
104.288239
 20
182.910599
 11
58.288246
 21
182.910599
  0
LINE
  8
0
  6
CONTINUOUS
 10
56.288246
 20
184.910599
 11
58.288246
 21
182.910599
  0
LINE
  8
0
  6
CONTINUOUS
 10
60.788246
 20
190.410599
 11
56.288258
 21
190.410599
  0
CIRCLE
  8
0
  6
CONTINUOUS
 10
59.788246
 20
186.410599
 40
2.250000
  0
ARC
  8
0
  6
CONTINUOUS
 10
60.788246
 20
187.410599
 40
3.000000
 50
0.000000
 51
90.000000
  0
LINE
  8
0
  6
CONTINUOUS
 10
63.788246
 20
187.410599
 11
63.788246
 21
182.910599
  0
LINE
  8
0
  6
CENTER
 10
81.288246
 20
175.444824
 11
81.288246
 21
239.576859
  0
LINE
  8
0
  6
CONTINUOUS
 10
58.702465
 20
231.910629
 11
57.288254
 21
230.496414
  0
LINE
  8
0
  6
CONTINUOUS
 10
57.288254
 20
190.410629
 11
57.288254
 21
230.496414
  0
LINE
  8
0
  6
CONTINUOUS
 10
98.788246
 20
231.910629
 11
58.702465
 21
231.910629
  0
LINE
  8
0
  6
CONTINUOUS
 10
105.288239
 20
225.410629
 11
105.288239
 21
185.324844
  0
LINE
  8
0
  6
CONTINUOUS
 10
63.788246
 20
183.910629
 11
103.874031
 21
183.910629
  0
LINE
  8
0
  6
CONTINUOUS
 10
103.874031
 20
183.910629
 11
105.288239
 21
185.324844
  0
LINE
  8
0
  6
CONTINUOUS
 10
55.788124
 20
215.410599
 11
55.788124
 21
247.910629
  0
TEXT
  8
0
 10
-7.000000
 20
-4.000000
 40
4.000000
 41
1.000000
  1
GFM-12-5~30-T60T
 50
0.000000
  0
ENDSEC
  0
EOF
