  0
SECTION
  2
HEADER
  9
$CLAYER
  8
1
  9
$LTSCALE
 40
3.0
  0
ENDSEC
  0
SECTION
  2
TABLES
  0
TABLE
  2
LTYPE
 70
     4
  0
LTYPE
  2
CONTINUOUS
  3
solid line
 70
    64
 72
    65
 73
     0
 40
0.0
  0
LTYPE
  2
DASHED
  3
__ __ __ __ __ __ __ __ __ __ __ __ __ __ __
 70
    64
 72
    65
 73
     2
 40
0.75
 49
0.5
 49
-0.25
  0
LTYPE
  2
CENTER
  3
____ _ ____ _ ____ _ ____ _ ____ _ ____ _ ____
 70
    64
 72
    65
 73
     4
 40
2.0
 49
1.25
 49
-0.25
 49
0.25
 49
-0.25
  0
LTYPE
  2
PHANTOM
  3
_____ _ _ _____ _ _ _____ _ _ _____ _ _ ____
 70
    64
 72
    65
 73
     6
 40
2.5
 49
1.25
 49
-0.25
 49
0.25
 49
-0.25
 49
0.25
 49
-0.25
  0
ENDTAB
  0
TABLE
  2
LAYER
 70
     1
  0
LAYER
  2
0
 70
    64
 62
     7
  6
CONTINUOUS
  0
ENDTAB
  0
TABLE
  2
STYLE
 70
     1
  0
STYLE
  2
STANDARD
 70
     0
 40
0.000000
 41
1.000000
 50
0.000000
 71
     0
 42
3.000000
  3
txt
  4
BIGFONT
  0
ENDTAB
  0
ENDSEC
  0
SECTION
  2
BLOCKS
  0
ENDSEC
  0
SECTION
  2
ENTITIES
  0
LINE
  8
0
  6
CONTINUOUS
 10
12.415625
 20
13.895000
 11
12.415625
 21
83.894997
  0
LINE
  8
0
  6
CONTINUOUS
 10
16.957075
 20
93.894997
 11
32.915627
 21
93.894997
  0
LINE
  8
0
  6
CONTINUOUS
 10
12.915625
 20
90.894997
 11
12.915625
 21
6.895000
  0
LINE
  8
0
  6
CONTINUOUS
 10
32.915627
 20
83.304298
 11
14.665625
 21
83.304298
  0
LINE
  8
0
  6
CONTINUOUS
 10
13.492965
 20
91.894997
 11
12.915625
 21
90.894997
  0
ARC
  8
0
  6
CONTINUOUS
 10
16.957094
 20
89.894997
 40
4.000000
 50
90.000000
 51
150.000397
  0
LINE
  8
0
  6
CONTINUOUS
 10
16.957075
 20
3.895000
 11
32.915627
 21
3.895000
  0
LINE
  8
0
  6
CONTINUOUS
 10
32.915627
 20
14.485700
 11
14.665625
 21
14.485700
  0
LINE
  8
0
  6
CONTINUOUS
 10
13.492965
 20
5.895010
 11
12.915625
 21
6.895000
  0
ARC
  8
0
  6
CONTINUOUS
 10
16.957094
 20
7.894990
 40
4.000000
 50
-150.000397
 51
-90.000000
  0
LINE
  8
0
  6
CONTINUOUS
 10
12.415625
 20
83.894997
 11
12.915625
 21
84.394997
  0
LINE
  8
0
  6
CONTINUOUS
 10
12.415625
 20
13.895000
 11
12.915625
 21
13.395020
  0
LINE
  8
0
  6
CONTINUOUS
 10
32.915627
 20
3.895000
 11
32.915627
 21
93.894997
  0
LINE
  8
0
  6
CONTINUOUS
 10
151.915619
 20
93.894997
 11
151.915619
 21
3.895000
  0
LINE
  8
0
  6
CONTINUOUS
 10
142.915619
 20
91.894997
 11
142.915619
 21
5.894990
  0
LINE
  8
0
  6
CONTINUOUS
 10
32.915627
 20
93.894997
 11
151.915619
 21
93.894997
  0
LINE
  8
0
  6
CONTINUOUS
 10
32.915627
 20
3.895000
 11
151.915619
 21
3.895000
  0
LINE
  8
0
  6
CONTINUOUS
 10
154.915619
 20
81.894997
 11
151.915619
 21
81.894997
  0
LINE
  8
0
  6
CONTINUOUS
 10
154.915619
 20
41.895000
 11
151.915619
 21
41.895000
  0
LINE
  8
0
  6
CONTINUOUS
 10
155.915619
 20
42.895000
 11
155.915619
 21
80.894997
  0
ARC
  8
0
  6
CONTINUOUS
 10
154.915619
 20
80.894997
 40
1.000000
 50
0.000000
 51
90.000000
  0
ARC
  8
0
  6
CONTINUOUS
 10
154.915619
 20
42.895000
 40
1.000000
 50
-90.000000
 51
0.000000
  0
ARC
  8
0
  6
CONTINUOUS
 10
154.915619
 20
42.895000
 40
1.000000
 50
-90.000000
 51
0.000000
  0
LINE
  8
0
  6
CONTINUOUS
 10
157.915619
 20
70.394997
 11
157.915619
 21
53.395000
  0
LINE
  8
0
  6
CONTINUOUS
 10
184.915619
 20
69.394997
 11
184.915619
 21
54.395000
  0
LINE
  8
0
  6
CONTINUOUS
 10
157.915619
 20
69.394997
 11
184.915619
 21
69.394997
  0
LINE
  8
0
  6
CONTINUOUS
 10
157.915619
 20
54.395000
 11
184.915619
 21
54.395000
  0
LINE
  8
0
  6
CONTINUOUS
 10
155.915619
 20
70.394997
 11
157.915619
 21
70.394997
  0
LINE
  8
0
  6
CONTINUOUS
 10
155.915619
 20
53.395000
 11
157.915619
 21
53.395000
  0
LINE
  8
0
  6
CONTINUOUS
 10
163.415619
 20
64.394997
 11
184.915619
 21
64.394997
  0
LINE
  8
0
  6
CONTINUOUS
 10
163.415619
 20
59.395000
 11
184.915619
 21
59.395000
  0
ARC
  8
0
  6
CONTINUOUS
 10
163.415619
 20
61.895000
 40
2.500000
 50
90.000000
 51
180.000000
  0
ARC
  8
0
  6
CONTINUOUS
 10
163.415619
 20
61.895000
 40
2.500000
 50
180.000000
 51
270.000000
  0
LINE
  8
0
  6
CENTER
 10
-3.351875
 20
48.895000
 11
161.809067
 21
48.895000
  0
LINE
  8
0
  6
DASHED
 10
142.915619
 20
90.144997
 11
151.915619
 21
90.144997
  0
LINE
  8
0
  6
DASHED
 10
142.915619
 20
83.644997
 11
151.915619
 21
83.644997
  0
LINE
  8
0
  6
DASHED
 10
142.915619
 20
14.145000
 11
151.915619
 21
14.145000
  0
LINE
  8
0
  6
DASHED
 10
142.915619
 20
7.645000
 11
151.915619
 21
7.645000
  0
LINE
  8
0
  6
PHANTOM
 10
141.115631
 20
86.894997
 11
153.595627
 21
86.894997
  0
LINE
  8
0
  6
PHANTOM
 10
139.915619
 20
10.895000
 11
154.795624
 21
10.895000
  0
LINE
  8
0
  6
CENTER
 10
130.355774
 20
61.895000
 11
191.657928
 21
61.895000
  0
LINE
  8
0
  6
CONTINUOUS
 10
32.915627
 20
83.304298
 11
142.411530
 21
83.304298
  0
LINE
  8
0
  6
CONTINUOUS
 10
32.915627
 20
14.485700
 11
142.411530
 21
14.485700
  0
ARC
  8
0
  6
CONTINUOUS
 10
144.915619
 20
91.894997
 40
2.000000
 50
90.000000
 51
180.000000
  0
ARC
  8
0
  6
CONTINUOUS
 10
144.915619
 20
5.895000
 40
2.000000
 50
180.000000
 51
270.000000
  0
LINE
  8
0
  6
CENTER
 10
302.415619
 20
-3.517500
 11
302.415619
 21
132.448593
  0
LINE
  8
0
  6
CONTINUOUS
 10
257.415619
 20
9.593810
 11
257.415619
 21
88.195900
  0
LINE
  8
0
  6
CONTINUOUS
 10
347.415619
 20
9.593960
 11
347.415619
 21
88.195999
  0
LINE
  8
0
  6
CONTINUOUS
 10
342.502838
 20
93.195297
 11
302.415619
 21
93.894997
  0
LINE
  8
0
  6
CONTINUOUS
 10
342.502838
 20
4.594720
 11
302.415619
 21
3.895000
  0
LINE
  8
0
  6
CONTINUOUS
 10
262.328339
 20
93.195099
 11
302.415619
 21
93.894997
  0
LINE
  8
0
  6
CONTINUOUS
 10
262.328430
 20
4.594570
 11
302.415619
 21
3.895000
  0
ARC
  8
0
  6
CONTINUOUS
 10
342.415619
 20
88.195999
 40
5.000000
 50
0.000000
 51
89.000092
  0
ARC
  8
0
  6
CONTINUOUS
 10
262.415619
 20
88.195900
 40
5.000000
 50
91.000610
 51
180.000000
  0
ARC
  8
0
  6
CONTINUOUS
 10
262.415619
 20
9.593840
 40
5.000000
 50
180.000000
 51
269.000488
  0
ARC
  8
0
  6
CONTINUOUS
 10
342.415619
 20
9.593950
 40
5.000000
 50
-88.999817
 51
0.000000
  0
CIRCLE
  8
0
  6
CONTINUOUS
 10
340.415619
 20
86.894997
 40
3.250000
  0
CIRCLE
  8
0
  6
CONTINUOUS
 10
264.415619
 20
86.894997
 40
3.250000
  0
CIRCLE
  8
0
  6
CONTINUOUS
 10
340.415619
 20
10.895000
 40
3.250000
  0
CIRCLE
  8
0
  6
CONTINUOUS
 10
264.415619
 20
10.895000
 40
3.250000
  0
CIRCLE
  8
0
  6
CONTINUOUS
 10
302.415619
 20
61.895000
 40
20.000000
  0
LINE
  8
0
  6
CONTINUOUS
 10
342.415619
 20
63.256401
 11
342.415619
 21
34.533588
  0
ARC
  8
0
  6
CONTINUOUS
 10
302.415619
 20
48.895000
 40
42.500000
 50
270.000000
 51
340.250092
  0
ARC
  8
0
  6
CONTINUOUS
 10
302.415619
 20
48.895000
 40
42.500000
 50
19.749901
 51
90.000000
  0
LINE
  8
0
  6
CONTINUOUS
 10
262.415619
 20
63.256401
 11
262.415619
 21
34.533588
  0
ARC
  8
0
  6
CONTINUOUS
 10
302.415619
 20
48.895000
 40
42.500000
 50
-160.250107
 51
-90.000000
  0
ARC
  8
0
  6
CONTINUOUS
 10
302.415619
 20
48.895000
 40
42.500000
 50
90.000000
 51
160.250107
  0
LINE
  8
0
  6
CENTER
 10
340.415619
 20
92.688797
 11
340.415619
 21
81.138802
  0
LINE
  8
0
  6
CENTER
 10
340.415619
 20
5.801250
 11
340.415619
 21
16.432510
  0
LINE
  8
0
  6
CENTER
 10
264.415619
 20
92.426300
 11
264.415619
 21
80.351196
  0
LINE
  8
0
  6
CENTER
 10
264.415619
 20
5.801250
 11
264.415619
 21
16.826250
  0
LINE
  8
0
  6
CENTER
 10
259.365631
 20
10.895000
 11
269.078125
 21
10.895000
  0
LINE
  8
0
  6
CENTER
 10
346.646912
 20
10.895000
 11
334.834412
 21
10.895000
  0
LINE
  8
0
  6
CENTER
 10
258.840637
 20
86.894997
 11
269.865631
 21
86.894997
  0
LINE
  8
0
  6
CENTER
 10
346.384430
 20
86.894997
 11
334.834412
 21
86.894997
  0
LINE
  8
0
  6
CONTINUOUS
 10
292.915619
 20
64.394997
 11
297.915619
 21
64.394997
  0
LINE
  8
0
  6
CONTINUOUS
 10
292.915619
 20
59.395000
 11
297.915619
 21
59.395000
  0
LINE
  8
0
  6
CONTINUOUS
 10
292.915619
 20
64.394997
 11
292.915619
 21
59.395000
  0
LINE
  8
0
  6
CONTINUOUS
 10
297.915619
 20
59.395000
 11
297.915619
 21
64.394997
  0
ARC
  8
0
  6
CONTINUOUS
 10
302.415619
 20
61.895000
 40
7.500000
 50
-160.528793
 51
160.528793
  0
LINE
  8
0
  6
CENTER
 10
276.179993
 20
61.895000
 11
329.714996
 21
61.895000
  0
LINE
  8
0
  6
CONTINUOUS
 10
296.040619
 20
31.448219
 11
296.040619
 21
25.895000
  0
LINE
  8
0
  6
CONTINUOUS
 10
299.228119
 20
33.465309
 11
299.228119
 21
35.457500
  0
LINE
  8
0
  6
CONTINUOUS
 10
305.603119
 20
33.465309
 11
305.603119
 21
35.457500
  0
LINE
  8
0
  6
CONTINUOUS
 10
301.793030
 20
34.287090
 11
301.793030
 21
26.940901
  0
LINE
  8
0
  6
CONTINUOUS
 10
302.988434
 20
34.287090
 11
302.988434
 21
26.940901
  0
LINE
  8
0
  6
CONTINUOUS
 10
309.263733
 20
34.287090
 11
309.263733
 21
26.891081
  0
LINE
  8
0
  6
CONTINUOUS
 10
310.359436
 20
30.364969
 11
310.359436
 21
26.891081
  0
LINE
  8
0
  6
CONTINUOUS
 10
294.528137
 20
34.187481
 11
291.456238
 21
34.187481
  0
LINE
  8
0
  6
CONTINUOUS
 10
291.456238
 20
34.187481
 11
290.736420
 21
33.294979
  0
LINE
  8
0
  6
CONTINUOUS
 10
290.823029
 20
35.457500
 11
289.665619
 21
33.975498
  0
LINE
  8
0
  6
CONTINUOUS
 10
290.736420
 20
27.785919
 11
291.467712
 21
27.015610
  0
LINE
  8
0
  6
CONTINUOUS
 10
289.665619
 20
27.135851
 11
290.895416
 21
25.895000
  0
LINE
  8
0
  6
CONTINUOUS
 10
289.665619
 20
33.975498
 11
289.665619
 21
27.135851
  0
LINE
  8
0
  6
CONTINUOUS
 10
290.736420
 20
33.294979
 11
290.736420
 21
27.785919
  0
LINE
  8
0
  6
CONTINUOUS
 10
295.119232
 20
33.616039
 11
294.516022
 21
34.187481
  0
LINE
  8
0
  6
CONTINUOUS
 10
295.109619
 20
35.457500
 11
296.040619
 21
34.424358
  0
LINE
  8
0
  6
CONTINUOUS
 10
295.119232
 20
33.465309
 11
296.040619
 21
33.465309
  0
LINE
  8
0
  6
CONTINUOUS
 10
290.823029
 20
35.457500
 11
295.109619
 21
35.457500
  0
LINE
  8
0
  6
CONTINUOUS
 10
295.119232
 20
30.402321
 11
293.450836
 21
30.402321
  0
LINE
  8
0
  6
CONTINUOUS
 10
295.119232
 20
29.406231
 11
295.119232
 21
30.203110
  0
LINE
  8
0
  6
CONTINUOUS
 10
293.127014
 20
27.015610
 11
291.467712
 21
27.015610
  0
ARC
  8
0
  6
CONTINUOUS
 10
293.127014
 20
29.007790
 40
1.992187
 50
-89.999786
 51
0.000109
  0
LINE
  8
0
  6
CONTINUOUS
 10
295.119232
 20
26.657261
 11
295.119232
 21
25.895000
  0
LINE
  8
0
  6
CONTINUOUS
 10
296.040619
 20
34.424358
 11
296.040619
 21
33.465309
  0
LINE
  8
0
  6
CONTINUOUS
 10
295.119232
 20
30.402321
 11
295.119232
 21
29.007790
  0
LINE
  8
0
  6
CONTINUOUS
 10
293.450836
 20
31.448219
 11
293.450836
 21
30.402321
  0
LINE
  8
0
  6
CONTINUOUS
 10
295.119232
 20
25.895000
 11
296.040619
 21
25.895000
  0
LINE
  8
0
  6
CONTINUOUS
 10
295.119232
 20
26.657261
 11
294.210632
 21
25.895000
  0
LINE
  8
0
  6
CONTINUOUS
 10
302.988434
 20
26.940901
 11
303.386810
 21
26.940901
  0
LINE
  8
0
  6
CONTINUOUS
 10
301.319916
 20
26.940901
 11
301.319916
 21
25.895000
  0
LINE
  8
0
  6
CONTINUOUS
 10
303.386810
 20
26.940901
 11
303.386810
 21
25.895000
  0
LINE
  8
0
  6
CONTINUOUS
 10
304.938232
 20
33.465309
 11
305.603119
 21
33.465309
  0
LINE
  8
0
  6
CONTINUOUS
 10
299.228119
 20
33.465309
 11
299.935730
 21
33.465309
  0
LINE
  8
0
  6
CONTINUOUS
 10
299.228119
 20
35.457500
 11
305.603119
 21
35.457500
  0
LINE
  8
0
  6
CONTINUOUS
 10
301.319916
 20
25.895000
 11
303.386810
 21
25.895000
  0
LINE
  8
0
  6
CONTINUOUS
 10
301.319916
 20
26.940901
 11
301.793030
 21
26.940901
  0
ARC
  8
0
  6
CONTINUOUS
 10
312.613129
 20
32.905010
 40
2.552490
 50
-73.981873
 51
90.003510
  0
ARC
  8
0
  6
CONTINUOUS
 10
312.613129
 20
32.905010
 40
1.557193
 50
-82.585274
 51
62.411850
  0
LINE
  8
0
  6
CONTINUOUS
 10
308.790619
 20
35.457500
 11
312.613129
 21
35.457500
  0
LINE
  8
0
  6
CONTINUOUS
 10
308.790619
 20
35.457500
 11
308.790619
 21
34.287090
  0
LINE
  8
0
  6
CONTINUOUS
 10
310.359436
 20
34.287090
 11
310.359436
 21
31.360840
  0
LINE
  8
0
  6
CONTINUOUS
 10
313.317535
 20
30.451620
 11
314.897339
 21
26.891081
  0
LINE
  8
0
  6
CONTINUOUS
 10
312.399933
 20
30.364969
 11
313.894928
 21
26.891081
  0
LINE
  8
0
  6
CONTINUOUS
 10
308.790619
 20
26.891081
 11
309.263733
 21
26.891081
  0
LINE
  8
0
  6
CONTINUOUS
 10
310.359436
 20
26.891081
 11
310.795227
 21
26.891081
  0
LINE
  8
0
  6
CONTINUOUS
 10
310.795227
 20
25.895000
 11
308.790619
 21
25.895000
  0
LINE
  8
0
  6
CONTINUOUS
 10
313.696411
 20
26.891081
 11
313.894928
 21
26.891081
  0
LINE
  8
0
  6
CONTINUOUS
 10
314.897339
 20
26.891081
 11
315.165619
 21
26.891081
  0
LINE
  8
0
  6
CONTINUOUS
 10
313.696411
 20
25.895000
 11
315.165619
 21
25.895000
  0
LINE
  8
0
  6
CONTINUOUS
 10
315.165619
 20
26.891081
 11
315.165619
 21
25.895000
  0
LINE
  8
0
  6
CONTINUOUS
 10
313.696411
 20
26.891081
 11
313.696411
 21
25.895000
  0
LINE
  8
0
  6
CONTINUOUS
 10
310.795227
 20
26.891081
 11
310.795227
 21
25.895000
  0
LINE
  8
0
  6
CONTINUOUS
 10
308.790619
 20
26.891081
 11
308.790619
 21
25.895000
  0
LINE
  8
0
  6
CONTINUOUS
 10
300.278137
 20
34.287090
 11
299.935730
 21
33.465309
  0
LINE
  8
0
  6
CONTINUOUS
 10
304.649414
 20
34.287090
 11
304.938232
 21
33.465309
  0
LINE
  8
0
  6
CONTINUOUS
 10
302.988434
 20
34.287090
 11
304.649414
 21
34.287090
  0
LINE
  8
0
  6
CONTINUOUS
 10
301.793030
 20
34.287090
 11
300.278137
 21
34.287090
  0
LINE
  8
0
  6
CONTINUOUS
 10
308.790619
 20
34.287090
 11
309.263733
 21
34.287090
  0
LINE
  8
0
  6
CONTINUOUS
 10
310.359436
 20
34.287090
 11
313.334320
 21
34.285149
  0
LINE
  8
0
  6
CONTINUOUS
 10
295.119232
 20
33.616039
 11
295.119232
 21
33.465309
  0
LINE
  8
0
  6
CONTINUOUS
 10
290.895416
 20
25.895000
 11
294.210632
 21
25.895000
  0
LINE
  8
0
  6
CONTINUOUS
 10
310.359436
 20
31.360840
 11
312.814117
 21
31.360840
  0
LINE
  8
0
  6
CONTINUOUS
 10
310.359436
 20
30.364969
 11
312.399933
 21
30.364969
  0
LINE
  8
0
  6
CONTINUOUS
 10
293.450836
 20
31.448219
 11
296.040619
 21
31.448219
  0
LINE
  8
0
  6
CONTINUOUS
 10
151.915619
 20
271.722351
 11
151.915619
 21
181.722351
  0
LINE
  8
0
  6
CONTINUOUS
 10
142.915710
 20
255.722351
 11
142.915710
 21
269.722351
  0
LINE
  8
0
  6
CONTINUOUS
 10
32.915703
 20
271.722351
 11
151.915710
 21
271.722351
  0
LINE
  8
0
  6
CONTINUOUS
 10
32.915703
 20
181.722351
 11
151.915710
 21
181.722351
  0
LINE
  8
0
  6
CONTINUOUS
 10
32.915703
 20
271.722351
 11
32.915703
 21
251.722321
  0
LINE
  8
0
  6
CONTINUOUS
 10
142.915710
 20
255.722351
 11
32.915703
 21
255.722351
  0
ARC
  8
0
  6
CONTINUOUS
 10
144.915710
 20
269.722351
 40
2.000000
 50
90.000000
 51
180.000000
  0
ARC
  8
0
  6
CONTINUOUS
 10
144.915710
 20
183.722351
 40
2.000000
 50
180.000000
 51
270.000000
  0
LINE
  8
0
  6
CONTINUOUS
 10
12.415704
 20
191.722351
 11
12.415704
 21
261.722351
  0
LINE
  8
0
  6
CONTINUOUS
 10
16.957144
 20
271.722351
 11
32.915703
 21
271.722351
  0
LINE
  8
0
  6
CONTINUOUS
 10
12.915704
 20
268.722351
 11
12.915704
 21
184.722351
  0
LINE
  8
0
  6
CONTINUOUS
 10
32.915703
 20
255.722351
 11
14.665704
 21
255.722351
  0
LINE
  8
0
  6
CONTINUOUS
 10
13.493044
 20
269.722321
 11
12.915704
 21
268.722351
  0
ARC
  8
0
  6
CONTINUOUS
 10
16.957165
 20
267.722351
 40
4.000000
 50
90.000000
 51
150.000397
  0
LINE
  8
0
  6
CONTINUOUS
 10
16.957144
 20
181.722351
 11
32.915703
 21
181.722351
  0
LINE
  8
0
  6
CONTINUOUS
 10
13.493044
 20
183.722351
 11
12.915704
 21
184.722351
  0
ARC
  8
0
  6
CONTINUOUS
 10
16.957165
 20
185.722321
 40
4.000000
 50
-150.000397
 51
-90.000000
  0
LINE
  8
0
  6
CONTINUOUS
 10
12.415704
 20
261.722351
 11
12.915704
 21
262.222351
  0
LINE
  8
0
  6
CONTINUOUS
 10
12.415704
 20
191.722351
 11
12.915704
 21
191.222351
  0
LINE
  8
0
  6
CONTINUOUS
 10
142.915710
 20
197.722351
 11
32.915703
 21
197.722351
  0
LINE
  8
0
  6
CONTINUOUS
 10
32.915703
 20
197.722351
 11
14.665704
 21
197.722351
  0
LINE
  8
0
  6
CONTINUOUS
 10
142.915710
 20
197.722351
 11
142.915710
 21
183.722321
  0
LINE
  8
0
  6
CONTINUOUS
 10
32.915703
 20
201.722321
 11
32.915703
 21
181.722351
  0
LINE
  8
0
  6
CENTER
 10
195.965836
 20
226.722351
 11
-3.880413
 21
226.722351
  0
LINE
  8
0
  6
CONTINUOUS
 10
184.915619
 20
234.222351
 11
184.915619
 21
217.222351
  0
LINE
  8
0
  6
CONTINUOUS
 10
157.915619
 20
235.222351
 11
157.915619
 21
218.222351
  0
LINE
  8
0
  6
CONTINUOUS
 10
157.915619
 20
234.222351
 11
184.915619
 21
234.222351
  0
LINE
  8
0
  6
CONTINUOUS
 10
157.915619
 20
219.222351
 11
160.915619
 21
219.222351
  0
LINE
  8
0
  6
CONTINUOUS
 10
154.915619
 20
246.722351
 11
151.915619
 21
246.722351
  0
LINE
  8
0
  6
CONTINUOUS
 10
154.915619
 20
206.722351
 11
151.915619
 21
206.722351
  0
LINE
  8
0
  6
CONTINUOUS
 10
155.915619
 20
207.722351
 11
155.915619
 21
245.722351
  0
ARC
  8
0
  6
CONTINUOUS
 10
154.915619
 20
245.722351
 40
1.000000
 50
0.000000
 51
90.000000
  0
ARC
  8
0
  6
CONTINUOUS
 10
154.915619
 20
207.722351
 40
1.000000
 50
-90.000000
 51
0.000000
  0
LINE
  8
0
  6
CONTINUOUS
 10
155.915619
 20
235.222351
 11
157.915619
 21
235.222351
  0
LINE
  8
0
  6
CONTINUOUS
 10
155.915619
 20
218.222351
 11
157.915619
 21
218.222351
  0
LINE
  8
0
  6
CONTINUOUS
 10
160.915619
 20
219.651337
 11
160.915619
 21
217.222351
  0
LINE
  8
0
  6
CONTINUOUS
 10
160.915619
 20
217.222351
 11
184.915619
 21
217.222351
  0
LINE
  8
0
  6
CONTINUOUS
 10
160.915619
 20
219.651337
 11
184.915619
 21
219.651337
  0
LINE
  8
0
  6
DASHED
 10
142.915619
 20
267.972351
 11
151.915619
 21
267.972351
  0
LINE
  8
0
  6
DASHED
 10
142.915619
 20
261.472351
 11
151.915619
 21
261.472351
  0
LINE
  8
0
  6
PHANTOM
 10
141.115631
 20
264.722351
 11
153.595627
 21
264.722351
  0
LINE
  8
0
  6
DASHED
 10
142.915619
 20
191.972351
 11
151.915619
 21
191.972351
  0
LINE
  8
0
  6
PHANTOM
 10
139.915619
 20
188.722351
 11
154.795624
 21
188.722351
  0
LINE
  8
0
  6
DASHED
 10
142.915619
 20
185.472351
 11
151.915619
 21
185.472351
  0
LINE
  8
0
  6
CENTER
 10
249.520004
 20
48.895000
 11
354.010010
 21
48.895000
  0
LINE
  8
0
  6
CONTINUOUS
 10
25.415625
 20
95.394997
 11
71.915627
 21
95.394997
  0
LINE
  8
0
  6
CONTINUOUS
 10
73.915611
 20
125.394997
 11
73.915627
 21
97.394997
  0
LINE
  8
0
  6
CONTINUOUS
 10
23.915625
 20
125.394997
 11
23.915625
 21
97.394997
  0
LINE
  8
0
  6
CONTINUOUS
 10
21.915625
 20
107.394997
 11
73.915627
 21
107.394997
  0
LINE
  8
0
  6
CONTINUOUS
 10
71.915627
 20
95.394997
 11
73.915627
 21
97.394997
  0
LINE
  8
0
  6
CONTINUOUS
 10
23.915625
 20
97.394997
 11
25.915625
 21
95.394997
  0
LINE
  8
0
  6
CONTINUOUS
 10
23.915625
 20
97.394997
 11
73.915627
 21
97.394997
  0
LINE
  8
0
  6
CONTINUOUS
 10
24.915625
 20
126.394997
 11
72.915611
 21
126.394997
  0
LINE
  8
0
  6
CONTINUOUS
 10
72.915611
 20
126.394997
 11
73.915611
 21
125.394997
  0
LINE
  8
0
  6
CONTINUOUS
 10
24.915625
 20
126.394997
 11
23.915625
 21
125.394997
  0
LINE
  8
0
  6
CONTINUOUS
 10
23.915625
 20
125.394997
 11
73.915611
 21
125.394997
  0
LINE
  8
0
  6
CENTER
 10
15.971877
 20
116.894997
 11
28.046875
 21
116.894997
  0
LINE
  8
0
  6
CONTINUOUS
 10
21.915632
 20
123.394997
 11
21.915625
 21
107.394997
  0
LINE
  8
0
  6
CONTINUOUS
 10
22.915625
 20
124.394997
 11
23.915625
 21
124.394997
  0
ARC
  8
0
  6
CONTINUOUS
 10
22.915634
 20
123.394997
 40
1.000000
 50
90.000000
 51
180.000000
  0
LINE
  8
0
  6
CONTINUOUS
 10
18.415632
 20
120.894997
 11
18.415632
 21
112.894997
  0
LINE
  8
0
  6
CONTINUOUS
 10
18.415632
 20
120.894997
 11
21.915632
 21
122.394997
  0
LINE
  8
0
  6
CONTINUOUS
 10
18.415625
 20
112.894997
 11
21.915625
 21
111.394997
  0
LINE
  8
0
  6
CENTER
 10
48.915627
 20
90.701248
 11
48.915627
 21
131.782501
  0
LINE
  8
0
  6
CONTINUOUS
 10
25.415625
 20
95.394997
 11
25.415625
 21
93.894997
  0
LINE
  8
0
  6
CONTINUOUS
 10
71.415627
 20
95.394997
 11
71.415627
 21
93.894997
  0
LINE
  8
0
  6
CONTINUOUS
 10
279.415619
 20
95.394997
 11
325.415619
 21
95.394997
  0
LINE
  8
0
  6
CONTINUOUS
 10
327.415619
 20
125.394997
 11
327.415619
 21
97.394997
  0
LINE
  8
0
  6
CONTINUOUS
 10
277.415619
 20
125.394997
 11
277.415619
 21
97.394997
  0
LINE
  8
0
  6
CONTINUOUS
 10
277.415619
 20
107.394997
 11
327.415619
 21
107.394997
  0
LINE
  8
0
  6
CONTINUOUS
 10
325.415619
 20
95.394997
 11
327.415619
 21
97.394997
  0
LINE
  8
0
  6
CONTINUOUS
 10
277.415619
 20
97.394997
 11
279.415619
 21
95.394997
  0
LINE
  8
0
  6
CONTINUOUS
 10
277.415619
 20
97.394997
 11
327.415619
 21
97.394997
  0
LINE
  8
0
  6
CONTINUOUS
 10
278.415619
 20
126.394997
 11
326.415619
 21
126.394997
  0
LINE
  8
0
  6
CONTINUOUS
 10
326.415619
 20
126.394997
 11
327.415619
 21
125.394997
  0
LINE
  8
0
  6
CONTINUOUS
 10
278.415619
 20
126.394997
 11
277.415619
 21
125.394997
  0
LINE
  8
0
  6
CONTINUOUS
 10
277.415619
 20
125.394997
 11
327.415619
 21
125.394997
  0
LINE
  8
0
  6
CONTINUOUS
 10
324.915619
 20
95.394997
 11
324.915619
 21
93.502274
  0
LINE
  8
0
  6
CONTINUOUS
 10
279.915619
 20
95.394997
 11
279.915619
 21
93.502274
  0
LINE
  8
0
  6
CONTINUOUS
 10
22.915625
 20
234.222321
 11
23.915625
 21
234.222321
  0
ARC
  8
0
  6
CONTINUOUS
 10
22.915646
 20
233.222321
 40
1.000000
 50
90.000000
 51
180.000000
  0
LINE
  8
0
  6
CONTINUOUS
 10
18.415640
 20
230.722321
 11
18.415640
 21
222.722321
  0
LINE
  8
0
  6
CONTINUOUS
 10
18.415640
 20
230.722321
 11
21.915640
 21
232.222321
  0
LINE
  8
0
  6
CONTINUOUS
 10
18.415625
 20
222.722321
 11
21.915625
 21
221.222321
  0
LINE
  8
0
  6
CONTINUOUS
 10
21.915640
 20
233.222321
 11
21.915640
 21
220.222321
  0
LINE
  8
0
  6
CONTINUOUS
 10
22.915625
 20
219.222321
 11
23.915625
 21
219.222321
  0
ARC
  8
0
  6
CONTINUOUS
 10
22.915646
 20
220.222321
 40
1.000000
 50
-180.000000
 51
-90.000000
  0
LINE
  8
0
  6
CONTINUOUS
 10
23.915625
 20
203.722321
 11
23.915625
 21
249.722321
  0
LINE
  8
0
  6
CONTINUOUS
 10
25.915625
 20
251.722321
 11
23.915625
 21
249.722321
  0
LINE
  8
0
  6
CONTINUOUS
 10
25.915625
 20
251.722321
 11
71.915611
 21
251.722321
  0
LINE
  8
0
  6
CONTINUOUS
 10
66.415627
 20
247.222321
 11
66.415627
 21
251.722321
  0
ARC
  8
0
  6
CONTINUOUS
 10
69.415627
 20
247.222321
 40
3.000000
 50
180.000000
 51
270.000000
  0
LINE
  8
0
  6
CONTINUOUS
 10
69.415627
 20
244.222321
 11
73.915611
 21
244.222321
  0
CIRCLE
  8
0
  6
CONTINUOUS
 10
70.415627
 20
248.222321
 40
2.250000
  0
LINE
  8
0
  6
CONTINUOUS
 10
73.915619
 20
203.722321
 11
73.915611
 21
249.722321
  0
LINE
  8
0
  6
CONTINUOUS
 10
71.915611
 20
251.722321
 11
73.915611
 21
249.722321
  0
LINE
  8
0
  6
CONTINUOUS
 10
71.915619
 20
201.722321
 11
73.915619
 21
203.722321
  0
LINE
  8
0
  6
CONTINUOUS
 10
71.915619
 20
201.722321
 11
25.915625
 21
201.722321
  0
LINE
  8
0
  6
CONTINUOUS
 10
23.915625
 20
203.722321
 11
25.915625
 21
201.722321
  0
LINE
  8
0
  6
CONTINUOUS
 10
28.415625
 20
209.222321
 11
23.915634
 21
209.222321
  0
CIRCLE
  8
0
  6
CONTINUOUS
 10
27.415625
 20
205.222321
 40
2.250000
  0
ARC
  8
0
  6
CONTINUOUS
 10
28.415625
 20
206.222321
 40
3.000000
 50
0.000000
 51
90.000000
  0
LINE
  8
0
  6
CONTINUOUS
 10
31.415625
 20
206.222321
 11
31.415625
 21
201.722321
  0
LINE
  8
0
  6
CENTER
 10
48.915627
 20
194.256546
 11
48.915627
 21
258.388580
  0
LINE
  8
0
  6
CONTINUOUS
 10
26.329844
 20
250.722351
 11
24.915630
 21
249.308136
  0
LINE
  8
0
  6
CONTINUOUS
 10
24.915630
 20
209.222351
 11
24.915630
 21
249.308136
  0
LINE
  8
0
  6
CONTINUOUS
 10
66.415627
 20
250.722351
 11
26.329844
 21
250.722351
  0
LINE
  8
0
  6
CONTINUOUS
 10
72.915619
 20
244.222351
 11
72.915619
 21
204.136551
  0
LINE
  8
0
  6
CONTINUOUS
 10
31.415625
 20
202.722351
 11
71.501404
 21
202.722351
  0
LINE
  8
0
  6
CONTINUOUS
 10
71.501404
 20
202.722351
 11
72.915619
 21
204.136551
  0
TEXT
  8
0
 10
-3.000000
 20
-3.000000
 40
4.000000
 41
1.000000
  1
GFM-15-160~240-S25T
 50
0.000000
  0
ENDSEC
  0
EOF
