  0
SECTION
  2
HEADER
  9
$CLAYER
  8
1
  9
$LTSCALE
 40
3.0
  0
ENDSEC
  0
SECTION
  2
TABLES
  0
TABLE
  2
LTYPE
 70
     4
  0
LTYPE
  2
CONTINUOUS
  3
solid line
 70
    64
 72
    65
 73
     0
 40
0.0
  0
LTYPE
  2
DASHED
  3
__ __ __ __ __ __ __ __ __ __ __ __ __ __ __
 70
    64
 72
    65
 73
     2
 40
0.75
 49
0.5
 49
-0.25
  0
LTYPE
  2
CENTER
  3
____ _ ____ _ ____ _ ____ _ ____ _ ____ _ ____
 70
    64
 72
    65
 73
     4
 40
2.0
 49
1.25
 49
-0.25
 49
0.25
 49
-0.25
  0
LTYPE
  2
PHANTOM
  3
_____ _ _ _____ _ _ _____ _ _ _____ _ _ ____
 70
    64
 72
    65
 73
     6
 40
2.5
 49
1.25
 49
-0.25
 49
0.25
 49
-0.25
 49
0.25
 49
-0.25
  0
ENDTAB
  0
TABLE
  2
LAYER
 70
     1
  0
LAYER
  2
0
 70
    64
 62
     7
  6
CONTINUOUS
  0
ENDTAB
  0
TABLE
  2
STYLE
 70
     1
  0
STYLE
  2
STANDARD
 70
     0
 40
0.000000
 41
1.000000
 50
0.000000
 71
     0
 42
3.000000
  3
txt
  4
BIGFONT
  0
ENDTAB
  0
ENDSEC
  0
SECTION
  2
BLOCKS
  0
ENDSEC
  0
SECTION
  2
ENTITIES
  0
LINE
  8
0
  6
CONTINUOUS
 10
53.467499
 20
94.649063
 11
62.967499
 21
94.649063
  0
LINE
  8
0
  6
CONTINUOUS
 10
62.967499
 20
84.058365
 11
53.467499
 21
84.058365
  0
LINE
  8
0
  6
CONTINUOUS
 10
53.467499
 20
4.649062
 11
62.967499
 21
4.649062
  0
LINE
  8
0
  6
CONTINUOUS
 10
62.967499
 20
15.239762
 11
53.467499
 21
15.239762
  0
LINE
  8
0
  6
CONTINUOUS
 10
53.467499
 20
96.649063
 11
53.467499
 21
2.649062
  0
LINE
  8
0
  6
CONTINUOUS
 10
53.467499
 20
78.649063
 11
9.492490
 21
78.649063
  0
LINE
  8
0
  6
CONTINUOUS
 10
53.467499
 20
20.649063
 11
9.492490
 21
20.649063
  0
LINE
  8
0
  6
CONTINUOUS
 10
10.967500
 20
96.649063
 11
53.467499
 21
96.649063
  0
LINE
  8
0
  6
CONTINUOUS
 10
10.967500
 20
2.649062
 11
53.467499
 21
2.649062
  0
ARC
  8
0
  6
CONTINUOUS
 10
10.967500
 20
91.649063
 40
5.000000
 50
90.000000
 51
180.000000
  0
ARC
  8
0
  6
CONTINUOUS
 10
10.967500
 20
7.649062
 40
5.000000
 50
180.000000
 51
270.000000
  0
LINE
  8
0
  6
CONTINUOUS
 10
5.967500
 20
91.649063
 11
5.967500
 21
7.649052
  0
LINE
  8
0
  6
CONTINUOUS
 10
62.967499
 20
49.649063
 11
62.967499
 21
94.649063
  0
LINE
  8
0
  6
CONTINUOUS
 10
62.967499
 20
49.649063
 11
62.967499
 21
4.649062
  0
LINE
  8
0
  6
CONTINUOUS
 10
181.967499
 20
94.649063
 11
181.967499
 21
4.649062
  0
LINE
  8
0
  6
CONTINUOUS
 10
172.967499
 20
92.649063
 11
172.967499
 21
6.649052
  0
LINE
  8
0
  6
CONTINUOUS
 10
62.967499
 20
94.649063
 11
181.967499
 21
94.649063
  0
LINE
  8
0
  6
CONTINUOUS
 10
62.967499
 20
4.649062
 11
181.967499
 21
4.649062
  0
LINE
  8
0
  6
CONTINUOUS
 10
184.967499
 20
82.649063
 11
181.967499
 21
82.649063
  0
LINE
  8
0
  6
CONTINUOUS
 10
184.967499
 20
42.649063
 11
181.967499
 21
42.649063
  0
LINE
  8
0
  6
CONTINUOUS
 10
185.967499
 20
43.649063
 11
185.967499
 21
81.649063
  0
ARC
  8
0
  6
CONTINUOUS
 10
184.967499
 20
81.649063
 40
1.000000
 50
0.000000
 51
90.000000
  0
ARC
  8
0
  6
CONTINUOUS
 10
184.967499
 20
43.649063
 40
1.000000
 50
-90.000000
 51
0.000000
  0
ARC
  8
0
  6
CONTINUOUS
 10
184.967499
 20
43.649063
 40
1.000000
 50
-90.000000
 51
0.000000
  0
LINE
  8
0
  6
CONTINUOUS
 10
187.967499
 20
71.149063
 11
187.967499
 21
54.149063
  0
LINE
  8
0
  6
CONTINUOUS
 10
214.967499
 20
70.149063
 11
214.967499
 21
55.149063
  0
LINE
  8
0
  6
CONTINUOUS
 10
187.967499
 20
70.149063
 11
214.967499
 21
70.149063
  0
LINE
  8
0
  6
CONTINUOUS
 10
187.967499
 20
55.149063
 11
214.967499
 21
55.149063
  0
LINE
  8
0
  6
CONTINUOUS
 10
185.967499
 20
71.149063
 11
187.967499
 21
71.149063
  0
LINE
  8
0
  6
CONTINUOUS
 10
185.967499
 20
54.149063
 11
187.967499
 21
54.149063
  0
LINE
  8
0
  6
CONTINUOUS
 10
193.467499
 20
65.149063
 11
214.967499
 21
65.149063
  0
LINE
  8
0
  6
CONTINUOUS
 10
193.467499
 20
60.149063
 11
214.967499
 21
60.149063
  0
ARC
  8
0
  6
CONTINUOUS
 10
193.467499
 20
62.649063
 40
2.500000
 50
90.000000
 51
180.000000
  0
ARC
  8
0
  6
CONTINUOUS
 10
193.467499
 20
62.649063
 40
2.500000
 50
180.000000
 51
270.000000
  0
LINE
  8
0
  6
CENTER
 10
-6.346875
 20
49.649063
 11
194.008743
 21
49.649063
  0
LINE
  8
0
  6
DASHED
 10
172.967499
 20
90.899063
 11
181.967499
 21
90.899063
  0
LINE
  8
0
  6
DASHED
 10
172.967499
 20
84.399063
 11
181.967499
 21
84.399063
  0
LINE
  8
0
  6
DASHED
 10
172.967499
 20
14.899062
 11
181.967499
 21
14.899062
  0
LINE
  8
0
  6
DASHED
 10
172.967499
 20
8.399062
 11
181.967499
 21
8.399062
  0
LINE
  8
0
  6
PHANTOM
 10
171.167496
 20
87.649063
 11
183.647507
 21
87.649063
  0
LINE
  8
0
  6
PHANTOM
 10
169.967499
 20
11.649062
 11
184.847504
 21
11.649062
  0
LINE
  8
0
  6
CENTER
 10
155.368118
 20
62.649063
 11
221.709793
 21
62.649063
  0
LINE
  8
0
  6
CONTINUOUS
 10
62.967499
 20
84.058365
 11
172.463394
 21
84.058365
  0
LINE
  8
0
  6
CONTINUOUS
 10
62.967499
 20
15.239762
 11
172.463394
 21
15.239762
  0
ARC
  8
0
  6
CONTINUOUS
 10
174.967499
 20
92.649063
 40
2.000000
 50
90.000000
 51
180.000000
  0
ARC
  8
0
  6
CONTINUOUS
 10
174.967499
 20
6.649062
 40
2.000000
 50
180.000000
 51
270.000000
  0
LINE
  8
0
  6
CENTER
 10
325.967499
 20
-4.382188
 11
325.967499
 21
147.194839
  0
LINE
  8
0
  6
CONTINUOUS
 10
280.967499
 20
10.347872
 11
280.967499
 21
88.949959
  0
LINE
  8
0
  6
CONTINUOUS
 10
370.967499
 20
10.348012
 11
370.967499
 21
88.950066
  0
LINE
  8
0
  6
CONTINUOUS
 10
366.054688
 20
93.949364
 11
325.967499
 21
94.649063
  0
LINE
  8
0
  6
CONTINUOUS
 10
366.054688
 20
5.348782
 11
325.967499
 21
4.649062
  0
LINE
  8
0
  6
CONTINUOUS
 10
285.880188
 20
93.949165
 11
325.967499
 21
94.649063
  0
LINE
  8
0
  6
CONTINUOUS
 10
285.880310
 20
5.348632
 11
325.967499
 21
4.649062
  0
ARC
  8
0
  6
CONTINUOUS
 10
365.967499
 20
88.950066
 40
5.000000
 50
0.000000
 51
89.000092
  0
ARC
  8
0
  6
CONTINUOUS
 10
285.967499
 20
88.949959
 40
5.000000
 50
91.000610
 51
180.000000
  0
ARC
  8
0
  6
CONTINUOUS
 10
285.967499
 20
10.347902
 40
5.000000
 50
180.000000
 51
269.000488
  0
ARC
  8
0
  6
CONTINUOUS
 10
365.967499
 20
10.348012
 40
5.000000
 50
-88.999817
 51
0.000000
  0
CIRCLE
  8
0
  6
CONTINUOUS
 10
363.967499
 20
87.649063
 40
3.250000
  0
CIRCLE
  8
0
  6
CONTINUOUS
 10
287.967499
 20
87.649063
 40
3.250000
  0
CIRCLE
  8
0
  6
CONTINUOUS
 10
363.967499
 20
11.649062
 40
3.250000
  0
CIRCLE
  8
0
  6
CONTINUOUS
 10
287.967499
 20
11.649062
 40
3.250000
  0
CIRCLE
  8
0
  6
CONTINUOUS
 10
325.967499
 20
62.649063
 40
20.000000
  0
LINE
  8
0
  6
CONTINUOUS
 10
365.967499
 20
64.010460
 11
365.967499
 21
35.287651
  0
ARC
  8
0
  6
CONTINUOUS
 10
325.967499
 20
49.649063
 40
42.500000
 50
270.000000
 51
340.250092
  0
ARC
  8
0
  6
CONTINUOUS
 10
325.967499
 20
49.649063
 40
42.500000
 50
19.749901
 51
90.000000
  0
LINE
  8
0
  6
CONTINUOUS
 10
285.967499
 20
64.010460
 11
285.967499
 21
35.287651
  0
ARC
  8
0
  6
CONTINUOUS
 10
325.967499
 20
49.649063
 40
42.500000
 50
-160.250107
 51
-90.000000
  0
ARC
  8
0
  6
CONTINUOUS
 10
325.967499
 20
49.649063
 40
42.500000
 50
90.000000
 51
160.250107
  0
LINE
  8
0
  6
CENTER
 10
363.967499
 20
93.442764
 11
363.967499
 21
81.892860
  0
LINE
  8
0
  6
CENTER
 10
363.967499
 20
6.555312
 11
363.967499
 21
17.186562
  0
LINE
  8
0
  6
CENTER
 10
287.967499
 20
93.180359
 11
287.967499
 21
81.105362
  0
LINE
  8
0
  6
CENTER
 10
287.967499
 20
6.555312
 11
287.967499
 21
17.580313
  0
LINE
  8
0
  6
CENTER
 10
282.917511
 20
11.649062
 11
292.630005
 21
11.649062
  0
LINE
  8
0
  6
CENTER
 10
370.198792
 20
11.649062
 11
358.386292
 21
11.649062
  0
LINE
  8
0
  6
CENTER
 10
282.392487
 20
87.649063
 11
293.417511
 21
87.649063
  0
LINE
  8
0
  6
CENTER
 10
369.936310
 20
87.649063
 11
358.386292
 21
87.649063
  0
LINE
  8
0
  6
CONTINUOUS
 10
316.467499
 20
65.149063
 11
321.467499
 21
65.149063
  0
LINE
  8
0
  6
CONTINUOUS
 10
316.467499
 20
60.149063
 11
321.467499
 21
60.149063
  0
LINE
  8
0
  6
CONTINUOUS
 10
316.467499
 20
65.149063
 11
316.467499
 21
60.149063
  0
LINE
  8
0
  6
CONTINUOUS
 10
321.467499
 20
60.149063
 11
321.467499
 21
65.149063
  0
ARC
  8
0
  6
CONTINUOUS
 10
325.967499
 20
62.649063
 40
7.500000
 50
-160.528793
 51
160.528793
  0
LINE
  8
0
  6
CENTER
 10
298.933746
 20
62.649063
 11
353.183746
 21
62.649063
  0
LINE
  8
0
  6
CONTINUOUS
 10
319.592499
 20
32.202282
 11
319.592499
 21
26.649061
  0
LINE
  8
0
  6
CONTINUOUS
 10
322.779999
 20
34.219372
 11
322.779999
 21
36.211563
  0
LINE
  8
0
  6
CONTINUOUS
 10
329.154999
 20
34.219372
 11
329.154999
 21
36.211563
  0
LINE
  8
0
  6
CONTINUOUS
 10
325.344910
 20
35.041153
 11
325.344910
 21
27.694962
  0
LINE
  8
0
  6
CONTINUOUS
 10
326.540314
 20
35.041153
 11
326.540314
 21
27.694962
  0
LINE
  8
0
  6
CONTINUOUS
 10
332.815613
 20
35.041153
 11
332.815613
 21
27.645151
  0
LINE
  8
0
  6
CONTINUOUS
 10
333.911285
 20
31.119032
 11
333.911285
 21
27.645151
  0
LINE
  8
0
  6
CONTINUOUS
 10
318.079987
 20
34.941544
 11
315.008087
 21
34.941544
  0
LINE
  8
0
  6
CONTINUOUS
 10
315.008087
 20
34.941544
 11
314.288300
 21
34.049042
  0
LINE
  8
0
  6
CONTINUOUS
 10
314.374908
 20
36.211563
 11
313.217499
 21
34.729561
  0
LINE
  8
0
  6
CONTINUOUS
 10
314.288300
 20
28.539982
 11
315.019592
 21
27.769672
  0
LINE
  8
0
  6
CONTINUOUS
 10
313.217499
 20
27.889912
 11
314.447296
 21
26.649061
  0
LINE
  8
0
  6
CONTINUOUS
 10
313.217499
 20
34.729561
 11
313.217499
 21
27.889912
  0
LINE
  8
0
  6
CONTINUOUS
 10
314.288300
 20
34.049042
 11
314.288300
 21
28.539982
  0
LINE
  8
0
  6
CONTINUOUS
 10
318.671112
 20
34.370102
 11
318.067902
 21
34.941544
  0
LINE
  8
0
  6
CONTINUOUS
 10
318.661499
 20
36.211563
 11
319.592499
 21
35.178421
  0
LINE
  8
0
  6
CONTINUOUS
 10
318.671112
 20
34.219372
 11
319.592499
 21
34.219372
  0
LINE
  8
0
  6
CONTINUOUS
 10
314.374908
 20
36.211563
 11
318.661499
 21
36.211563
  0
LINE
  8
0
  6
CONTINUOUS
 10
318.671112
 20
31.156382
 11
317.002686
 21
31.156382
  0
LINE
  8
0
  6
CONTINUOUS
 10
318.671112
 20
30.160292
 11
318.671112
 21
30.957172
  0
LINE
  8
0
  6
CONTINUOUS
 10
316.678894
 20
27.769672
 11
315.019592
 21
27.769672
  0
ARC
  8
0
  6
CONTINUOUS
 10
316.678894
 20
29.761852
 40
1.992188
 50
-89.999786
 51
0.000109
  0
LINE
  8
0
  6
CONTINUOUS
 10
318.671112
 20
27.411322
 11
318.671112
 21
26.649061
  0
LINE
  8
0
  6
CONTINUOUS
 10
319.592499
 20
35.178421
 11
319.592499
 21
34.219372
  0
LINE
  8
0
  6
CONTINUOUS
 10
318.671112
 20
31.156382
 11
318.671112
 21
29.761852
  0
LINE
  8
0
  6
CONTINUOUS
 10
317.002686
 20
32.202282
 11
317.002686
 21
31.156382
  0
LINE
  8
0
  6
CONTINUOUS
 10
318.671112
 20
26.649061
 11
319.592499
 21
26.649061
  0
LINE
  8
0
  6
CONTINUOUS
 10
318.671112
 20
27.411322
 11
317.762512
 21
26.649061
  0
LINE
  8
0
  6
CONTINUOUS
 10
326.540314
 20
27.694962
 11
326.938690
 21
27.694962
  0
LINE
  8
0
  6
CONTINUOUS
 10
324.871796
 20
27.694962
 11
324.871796
 21
26.649061
  0
LINE
  8
0
  6
CONTINUOUS
 10
326.938690
 20
27.694962
 11
326.938690
 21
26.649061
  0
LINE
  8
0
  6
CONTINUOUS
 10
328.490112
 20
34.219372
 11
329.154999
 21
34.219372
  0
LINE
  8
0
  6
CONTINUOUS
 10
322.779999
 20
34.219372
 11
323.487610
 21
34.219372
  0
LINE
  8
0
  6
CONTINUOUS
 10
322.779999
 20
36.211563
 11
329.154999
 21
36.211563
  0
LINE
  8
0
  6
CONTINUOUS
 10
324.871796
 20
26.649061
 11
326.938690
 21
26.649061
  0
LINE
  8
0
  6
CONTINUOUS
 10
324.871796
 20
27.694962
 11
325.344910
 21
27.694962
  0
ARC
  8
0
  6
CONTINUOUS
 10
336.165009
 20
33.659073
 40
2.552490
 50
-73.981873
 51
90.003510
  0
ARC
  8
0
  6
CONTINUOUS
 10
336.165009
 20
33.659073
 40
1.557192
 50
-82.585274
 51
62.411850
  0
LINE
  8
0
  6
CONTINUOUS
 10
332.342499
 20
36.211563
 11
336.165009
 21
36.211563
  0
LINE
  8
0
  6
CONTINUOUS
 10
332.342499
 20
36.211563
 11
332.342499
 21
35.041153
  0
LINE
  8
0
  6
CONTINUOUS
 10
333.911285
 20
35.041153
 11
333.911285
 21
32.114902
  0
LINE
  8
0
  6
CONTINUOUS
 10
336.869385
 20
31.205683
 11
338.449188
 21
27.645151
  0
LINE
  8
0
  6
CONTINUOUS
 10
335.951813
 20
31.119032
 11
337.446808
 21
27.645151
  0
LINE
  8
0
  6
CONTINUOUS
 10
332.342499
 20
27.645151
 11
332.815613
 21
27.645151
  0
LINE
  8
0
  6
CONTINUOUS
 10
333.911285
 20
27.645151
 11
334.347107
 21
27.645151
  0
LINE
  8
0
  6
CONTINUOUS
 10
334.347107
 20
26.649061
 11
332.342499
 21
26.649061
  0
LINE
  8
0
  6
CONTINUOUS
 10
337.248291
 20
27.645151
 11
337.446808
 21
27.645151
  0
LINE
  8
0
  6
CONTINUOUS
 10
338.449188
 20
27.645151
 11
338.717499
 21
27.645151
  0
LINE
  8
0
  6
CONTINUOUS
 10
337.248291
 20
26.649061
 11
338.717499
 21
26.649061
  0
LINE
  8
0
  6
CONTINUOUS
 10
338.717499
 20
27.645151
 11
338.717499
 21
26.649061
  0
LINE
  8
0
  6
CONTINUOUS
 10
337.248291
 20
27.645151
 11
337.248291
 21
26.649061
  0
LINE
  8
0
  6
CONTINUOUS
 10
334.347107
 20
27.645151
 11
334.347107
 21
26.649061
  0
LINE
  8
0
  6
CONTINUOUS
 10
332.342499
 20
27.645151
 11
332.342499
 21
26.649061
  0
LINE
  8
0
  6
CONTINUOUS
 10
323.829987
 20
35.041153
 11
323.487610
 21
34.219372
  0
LINE
  8
0
  6
CONTINUOUS
 10
328.201294
 20
35.041153
 11
328.490112
 21
34.219372
  0
LINE
  8
0
  6
CONTINUOUS
 10
326.540314
 20
35.041153
 11
328.201294
 21
35.041153
  0
LINE
  8
0
  6
CONTINUOUS
 10
325.344910
 20
35.041153
 11
323.829987
 21
35.041153
  0
LINE
  8
0
  6
CONTINUOUS
 10
332.342499
 20
35.041153
 11
332.815613
 21
35.041153
  0
LINE
  8
0
  6
CONTINUOUS
 10
333.911285
 20
35.041153
 11
336.886200
 21
35.039211
  0
LINE
  8
0
  6
CONTINUOUS
 10
318.671112
 20
34.370102
 11
318.671112
 21
34.219372
  0
LINE
  8
0
  6
CONTINUOUS
 10
314.447296
 20
26.649061
 11
317.762512
 21
26.649061
  0
LINE
  8
0
  6
CONTINUOUS
 10
333.911285
 20
32.114902
 11
336.365997
 21
32.114902
  0
LINE
  8
0
  6
CONTINUOUS
 10
333.911285
 20
31.119032
 11
335.951813
 21
31.119032
  0
LINE
  8
0
  6
CONTINUOUS
 10
317.002686
 20
32.202282
 11
319.592499
 21
32.202282
  0
LINE
  8
0
  6
CONTINUOUS
 10
299.867004
 20
96.649063
 11
302.467499
 21
96.649063
  0
LINE
  8
0
  6
CONTINUOUS
 10
299.867004
 20
2.649062
 11
352.067993
 21
2.649062
  0
LINE
  8
0
  6
CONTINUOUS
 10
278.967499
 20
75.749565
 11
278.967499
 21
23.548552
  0
LINE
  8
0
  6
CONTINUOUS
 10
372.967499
 20
23.548561
 11
372.967499
 21
75.749565
  0
LINE
  8
0
  6
CONTINUOUS
 10
357.518188
 20
94.098366
 11
357.017792
 21
94.598862
  0
LINE
  8
0
  6
CONTINUOUS
 10
294.416687
 20
94.098259
 11
294.917206
 21
94.598862
  0
LINE
  8
0
  6
CONTINUOUS
 10
294.416901
 20
5.199652
 11
294.917206
 21
4.699312
  0
LINE
  8
0
  6
CONTINUOUS
 10
357.017792
 20
4.699312
 11
357.518188
 21
5.199772
  0
ARC
  8
0
  6
CONTINUOUS
 10
352.067993
 20
89.649063
 40
7.000000
 50
45.000141
 51
90.000000
  0
ARC
  8
0
  6
CONTINUOUS
 10
365.967499
 20
75.749565
 40
7.000000
 50
0.000000
 51
44.415531
  0
ARC
  8
0
  6
CONTINUOUS
 10
365.967499
 20
23.548542
 40
7.000000
 50
-44.415192
 51
0.000000
  0
ARC
  8
0
  6
CONTINUOUS
 10
352.067993
 20
9.649062
 40
7.000000
 50
270.000000
 51
315.000000
  0
ARC
  8
0
  6
CONTINUOUS
 10
299.867004
 20
9.649062
 40
7.000000
 50
224.999893
 51
270.000000
  0
ARC
  8
0
  6
CONTINUOUS
 10
285.967499
 20
23.548613
 40
7.000000
 50
180.000000
 51
224.415497
  0
ARC
  8
0
  6
CONTINUOUS
 10
299.867004
 20
89.649063
 40
7.000000
 50
90.000000
 51
135.000198
  0
ARC
  8
0
  6
CONTINUOUS
 10
285.967499
 20
75.749565
 40
7.000000
 50
135.585205
 51
180.000000
  0
LINE
  8
0
  6
CENTER
 10
270.394989
 20
49.649063
 11
385.695007
 21
49.649063
  0
LINE
  8
0
  6
CONTINUOUS
 10
181.967499
 20
277.281555
 11
181.967499
 21
187.281555
  0
LINE
  8
0
  6
CONTINUOUS
 10
172.967575
 20
261.281555
 11
172.967575
 21
275.281555
  0
LINE
  8
0
  6
CONTINUOUS
 10
62.967579
 20
277.281555
 11
181.967575
 21
277.281555
  0
LINE
  8
0
  6
CONTINUOUS
 10
62.967579
 20
187.281570
 11
181.967575
 21
187.281570
  0
LINE
  8
0
  6
CONTINUOUS
 10
62.967579
 20
277.281555
 11
62.967579
 21
257.281555
  0
LINE
  8
0
  6
CONTINUOUS
 10
172.967575
 20
261.281555
 11
62.967579
 21
261.281555
  0
ARC
  8
0
  6
CONTINUOUS
 10
174.967575
 20
275.281586
 40
2.000000
 50
90.000000
 51
180.000000
  0
ARC
  8
0
  6
CONTINUOUS
 10
174.967575
 20
189.281570
 40
2.000000
 50
180.000000
 51
270.000000
  0
LINE
  8
0
  6
CONTINUOUS
 10
53.467499
 20
277.281555
 11
62.967579
 21
277.281555
  0
LINE
  8
0
  6
CONTINUOUS
 10
62.967579
 20
261.281555
 11
53.467499
 21
261.281555
  0
LINE
  8
0
  6
CONTINUOUS
 10
53.467499
 20
187.281570
 11
62.967579
 21
187.281570
  0
LINE
  8
0
  6
CONTINUOUS
 10
172.967575
 20
203.281555
 11
62.967579
 21
203.281555
  0
LINE
  8
0
  6
CONTINUOUS
 10
62.967579
 20
203.281555
 11
53.467499
 21
203.281555
  0
LINE
  8
0
  6
CONTINUOUS
 10
172.967575
 20
203.281555
 11
172.967575
 21
189.281540
  0
LINE
  8
0
  6
CONTINUOUS
 10
62.967579
 20
207.281540
 11
62.967579
 21
187.281570
  0
LINE
  8
0
  6
CENTER
 10
226.017715
 20
232.281555
 11
-7.932344
 21
232.281555
  0
LINE
  8
0
  6
CONTINUOUS
 10
214.967499
 20
239.781555
 11
214.967499
 21
222.781555
  0
LINE
  8
0
  6
CONTINUOUS
 10
187.967499
 20
240.781555
 11
187.967499
 21
223.781555
  0
LINE
  8
0
  6
CONTINUOUS
 10
187.967499
 20
239.781555
 11
214.967499
 21
239.781555
  0
LINE
  8
0
  6
CONTINUOUS
 10
187.967499
 20
224.781555
 11
190.967499
 21
224.781555
  0
LINE
  8
0
  6
CONTINUOUS
 10
184.967499
 20
252.281555
 11
181.967499
 21
252.281555
  0
LINE
  8
0
  6
CONTINUOUS
 10
184.967499
 20
212.281555
 11
181.967499
 21
212.281555
  0
LINE
  8
0
  6
CONTINUOUS
 10
185.967499
 20
213.281555
 11
185.967499
 21
251.281555
  0
ARC
  8
0
  6
CONTINUOUS
 10
184.967499
 20
251.281555
 40
1.000000
 50
0.000000
 51
90.000000
  0
ARC
  8
0
  6
CONTINUOUS
 10
184.967499
 20
213.281555
 40
1.000000
 50
-90.000000
 51
0.000000
  0
LINE
  8
0
  6
CONTINUOUS
 10
185.967499
 20
240.781555
 11
187.967499
 21
240.781555
  0
LINE
  8
0
  6
CONTINUOUS
 10
185.967499
 20
223.781555
 11
187.967499
 21
223.781555
  0
LINE
  8
0
  6
CONTINUOUS
 10
190.967499
 20
225.210556
 11
190.967499
 21
222.781555
  0
LINE
  8
0
  6
CONTINUOUS
 10
190.967499
 20
222.781555
 11
214.967499
 21
222.781555
  0
LINE
  8
0
  6
CONTINUOUS
 10
190.967499
 20
225.210556
 11
214.967499
 21
225.210556
  0
LINE
  8
0
  6
DASHED
 10
172.967499
 20
273.531555
 11
181.967499
 21
273.531555
  0
LINE
  8
0
  6
DASHED
 10
172.967499
 20
267.031555
 11
181.967499
 21
267.031555
  0
LINE
  8
0
  6
PHANTOM
 10
171.167496
 20
270.281555
 11
183.647507
 21
270.281555
  0
LINE
  8
0
  6
DASHED
 10
172.967499
 20
197.531555
 11
181.967499
 21
197.531555
  0
LINE
  8
0
  6
PHANTOM
 10
169.967499
 20
194.281555
 11
184.847504
 21
194.281555
  0
LINE
  8
0
  6
DASHED
 10
172.967499
 20
191.031555
 11
181.967499
 21
191.031555
  0
LINE
  8
0
  6
CONTINUOUS
 10
53.467499
 20
279.281555
 11
53.467499
 21
232.281555
  0
LINE
  8
0
  6
CONTINUOUS
 10
53.467499
 20
261.281555
 11
9.492490
 21
261.281555
  0
LINE
  8
0
  6
CONTINUOUS
 10
53.467499
 20
203.281570
 11
9.492490
 21
203.281570
  0
LINE
  8
0
  6
CONTINUOUS
 10
10.967500
 20
279.281555
 11
53.467499
 21
279.281555
  0
LINE
  8
0
  6
CONTINUOUS
 10
10.967500
 20
185.281555
 11
53.467499
 21
185.281555
  0
ARC
  8
0
  6
CONTINUOUS
 10
10.967500
 20
274.281555
 40
5.000000
 50
90.000000
 51
180.000000
  0
ARC
  8
0
  6
CONTINUOUS
 10
10.967500
 20
190.281555
 40
5.000000
 50
180.000000
 51
270.000000
  0
LINE
  8
0
  6
CONTINUOUS
 10
5.967500
 20
274.281555
 11
5.967500
 21
190.281555
  0
LINE
  8
0
  6
CONTINUOUS
 10
349.467499
 20
96.649063
 11
352.067993
 21
96.649063
  0
LINE
  8
0
  6
CONTINUOUS
 10
53.967499
 20
209.281540
 11
53.967499
 21
255.281540
  0
LINE
  8
0
  6
CONTINUOUS
 10
55.967499
 20
257.281555
 11
53.967499
 21
255.281540
  0
LINE
  8
0
  6
CONTINUOUS
 10
55.967499
 20
257.281555
 11
101.967491
 21
257.281555
  0
LINE
  8
0
  6
CONTINUOUS
 10
96.467499
 20
252.781540
 11
96.467499
 21
257.281555
  0
ARC
  8
0
  6
CONTINUOUS
 10
99.467499
 20
252.781540
 40
3.000000
 50
180.000000
 51
270.000000
  0
LINE
  8
0
  6
CONTINUOUS
 10
99.467499
 20
249.781540
 11
103.967491
 21
249.781540
  0
CIRCLE
  8
0
  6
CONTINUOUS
 10
100.467499
 20
253.781540
 40
2.250000
  0
LINE
  8
0
  6
CONTINUOUS
 10
103.967491
 20
209.281540
 11
103.967491
 21
255.281540
  0
LINE
  8
0
  6
CONTINUOUS
 10
101.967491
 20
257.281555
 11
103.967491
 21
255.281540
  0
LINE
  8
0
  6
CONTINUOUS
 10
101.967491
 20
207.281540
 11
103.967491
 21
209.281540
  0
LINE
  8
0
  6
CONTINUOUS
 10
101.967491
 20
207.281540
 11
55.967499
 21
207.281540
  0
LINE
  8
0
  6
CONTINUOUS
 10
53.967499
 20
209.281540
 11
55.967499
 21
207.281540
  0
LINE
  8
0
  6
CONTINUOUS
 10
58.467499
 20
214.781540
 11
53.967510
 21
214.781540
  0
CIRCLE
  8
0
  6
CONTINUOUS
 10
57.467499
 20
210.781540
 40
2.250000
  0
ARC
  8
0
  6
CONTINUOUS
 10
58.467499
 20
211.781540
 40
3.000000
 50
0.000000
 51
90.000000
  0
LINE
  8
0
  6
CONTINUOUS
 10
61.467499
 20
211.781540
 11
61.467499
 21
207.281540
  0
LINE
  8
0
  6
CENTER
 10
78.967499
 20
199.815765
 11
78.967499
 21
263.947784
  0
LINE
  8
0
  6
CONTINUOUS
 10
54.967506
 20
214.781555
 11
54.967506
 21
249.781555
  0
LINE
  8
0
  6
CONTINUOUS
 10
96.467499
 20
256.281555
 11
61.467522
 21
256.281555
  0
LINE
  8
0
  6
CONTINUOUS
 10
102.967491
 20
249.781555
 11
102.967491
 21
214.781555
  0
LINE
  8
0
  6
CONTINUOUS
 10
61.467499
 20
208.281555
 11
96.467484
 21
208.281555
  0
LINE
  8
0
  6
CONTINUOUS
 10
53.467499
 20
232.281555
 11
53.467499
 21
185.281555
  0
LINE
  8
0
  6
CONTINUOUS
 10
58.467522
 20
249.781555
 11
53.967522
 21
249.781555
  0
ARC
  8
0
  6
CONTINUOUS
 10
58.467522
 20
252.781555
 40
3.000000
 50
-90.000000
 51
0.000000
  0
LINE
  8
0
  6
CONTINUOUS
 10
61.467522
 20
252.781555
 11
61.467522
 21
257.281555
  0
CIRCLE
  8
0
  6
CONTINUOUS
 10
57.467522
 20
253.781555
 40
2.250000
  0
LINE
  8
0
  6
CONTINUOUS
 10
99.467484
 20
214.781555
 11
103.967484
 21
214.781555
  0
ARC
  8
0
  6
CONTINUOUS
 10
99.467484
 20
211.781555
 40
3.000000
 50
90.000000
 51
180.000000
  0
LINE
  8
0
  6
CONTINUOUS
 10
96.467484
 20
211.781555
 11
96.467484
 21
207.281570
  0
CIRCLE
  8
0
  6
CONTINUOUS
 10
100.467484
 20
210.781555
 40
2.250000
  0
LINE
  8
0
  6
CONTINUOUS
 10
55.467499
 20
96.149063
 11
101.967499
 21
96.149063
  0
LINE
  8
0
  6
CONTINUOUS
 10
103.967484
 20
140.149063
 11
103.967499
 21
98.149063
  0
LINE
  8
0
  6
CONTINUOUS
 10
53.967499
 20
140.149063
 11
53.967499
 21
98.149063
  0
LINE
  8
0
  6
CONTINUOUS
 10
53.967499
 20
108.149063
 11
103.967499
 21
108.149063
  0
LINE
  8
0
  6
CONTINUOUS
 10
101.967499
 20
96.149063
 11
103.967499
 21
98.149063
  0
LINE
  8
0
  6
CONTINUOUS
 10
53.967499
 20
98.149063
 11
55.967499
 21
96.149063
  0
LINE
  8
0
  6
CONTINUOUS
 10
53.967499
 20
98.149063
 11
103.967499
 21
98.149063
  0
LINE
  8
0
  6
CONTINUOUS
 10
53.967499
 20
109.149063
 11
103.967491
 21
109.149063
  0
LINE
  8
0
  6
CONTINUOUS
 10
54.967499
 20
141.149063
 11
102.967484
 21
141.149063
  0
LINE
  8
0
  6
CONTINUOUS
 10
102.967484
 20
141.149063
 11
103.967484
 21
140.149063
  0
LINE
  8
0
  6
CONTINUOUS
 10
54.967499
 20
141.149063
 11
53.967499
 21
140.149063
  0
LINE
  8
0
  6
CONTINUOUS
 10
53.967499
 20
140.149063
 11
103.967484
 21
140.149063
  0
LINE
  8
0
  6
CENTER
 10
78.967499
 20
89.759552
 11
78.967499
 21
146.459549
  0
LINE
  8
0
  6
CENTER
 10
51.592499
 20
124.149063
 11
56.217499
 21
124.149063
  0
LINE
  8
0
  6
CONTINUOUS
 10
55.467499
 20
96.149063
 11
55.467499
 21
94.649063
  0
LINE
  8
0
  6
CONTINUOUS
 10
101.467499
 20
96.149063
 11
101.467499
 21
94.649063
  0
LINE
  8
0
  6
CONTINUOUS
 10
53.092499
 20
134.649063
 11
55.092499
 21
134.649063
  0
LINE
  8
0
  6
CONTINUOUS
 10
53.092499
 20
113.649063
 11
55.092499
 21
113.649063
  0
LINE
  8
0
  6
CONTINUOUS
 10
302.967499
 20
96.149063
 11
348.967499
 21
96.149063
  0
LINE
  8
0
  6
CONTINUOUS
 10
350.967499
 20
140.149063
 11
350.967499
 21
98.149063
  0
LINE
  8
0
  6
CONTINUOUS
 10
300.967499
 20
140.149063
 11
300.967499
 21
98.149063
  0
LINE
  8
0
  6
CONTINUOUS
 10
300.967499
 20
108.149063
 11
350.967499
 21
108.149063
  0
LINE
  8
0
  6
CONTINUOUS
 10
348.967499
 20
96.149063
 11
350.967499
 21
98.149063
  0
LINE
  8
0
  6
CONTINUOUS
 10
300.967499
 20
98.149063
 11
302.967499
 21
96.149063
  0
LINE
  8
0
  6
CONTINUOUS
 10
300.967499
 20
98.149063
 11
350.967499
 21
98.149063
  0
LINE
  8
0
  6
CONTINUOUS
 10
300.967499
 20
109.149063
 11
350.967499
 21
109.149063
  0
LINE
  8
0
  6
CONTINUOUS
 10
301.967499
 20
141.149063
 11
349.967499
 21
141.149063
  0
LINE
  8
0
  6
CONTINUOUS
 10
349.967499
 20
141.149063
 11
350.967499
 21
140.149063
  0
LINE
  8
0
  6
CONTINUOUS
 10
301.967499
 20
141.149063
 11
300.967499
 21
140.149063
  0
LINE
  8
0
  6
CONTINUOUS
 10
300.967499
 20
140.149063
 11
350.967499
 21
140.149063
  0
LINE
  8
0
  6
CONTINUOUS
 10
348.467499
 20
96.149063
 11
348.467499
 21
94.256332
  0
LINE
  8
0
  6
CONTINUOUS
 10
303.467499
 20
96.149063
 11
303.467499
 21
94.256332
  0
TEXT
  8
0
 10
-7.000000
 20
-4.000000
 40
4.000000
 41
1.000000
  1
GFM-15-5~30-S90WK
 50
0.000000
  0
ENDSEC
  0
EOF
