  0
SECTION
  2
HEADER
  9
$CLAYER
  8
1
  9
$LTSCALE
 40
3.0
  0
ENDSEC
  0
SECTION
  2
TABLES
  0
TABLE
  2
LTYPE
 70
     4
  0
LTYPE
  2
CONTINUOUS
  3
solid line
 70
    64
 72
    65
 73
     0
 40
0.0
  0
LTYPE
  2
DASHED
  3
__ __ __ __ __ __ __ __ __ __ __ __ __ __ __
 70
    64
 72
    65
 73
     2
 40
0.75
 49
0.5
 49
-0.25
  0
LTYPE
  2
CENTER
  3
____ _ ____ _ ____ _ ____ _ ____ _ ____ _ ____
 70
    64
 72
    65
 73
     4
 40
2.0
 49
1.25
 49
-0.25
 49
0.25
 49
-0.25
  0
LTYPE
  2
PHANTOM
  3
_____ _ _ _____ _ _ _____ _ _ _____ _ _ ____
 70
    64
 72
    65
 73
     6
 40
2.5
 49
1.25
 49
-0.25
 49
0.25
 49
-0.25
 49
0.25
 49
-0.25
  0
ENDTAB
  0
TABLE
  2
LAYER
 70
     1
  0
LAYER
  2
0
 70
    64
 62
     7
  6
CONTINUOUS
  0
ENDTAB
  0
TABLE
  2
STYLE
 70
     1
  0
STYLE
  2
STANDARD
 70
     0
 40
0.000000
 41
1.000000
 50
0.000000
 71
     0
 42
3.000000
  3
txt
  4
BIGFONT
  0
ENDTAB
  0
ENDSEC
  0
SECTION
  2
BLOCKS
  0
ENDSEC
  0
SECTION
  2
ENTITIES
  0
LINE
  8
0
  6
CONTINUOUS
 10
6.605000
 20
17.562500
 11
6.605000
 21
87.562500
  0
LINE
  8
0
  6
CONTINUOUS
 10
11.146450
 20
97.562500
 11
27.105000
 21
97.562500
  0
LINE
  8
0
  6
CONTINUOUS
 10
7.105000
 20
94.562500
 11
7.105000
 21
10.562500
  0
LINE
  8
0
  6
CONTINUOUS
 10
27.105000
 20
86.971802
 11
8.855000
 21
86.971802
  0
LINE
  8
0
  6
CONTINUOUS
 10
7.682340
 20
95.562500
 11
7.105000
 21
94.562500
  0
ARC
  8
0
  6
CONTINUOUS
 10
11.146470
 20
93.562500
 40
4.000000
 50
90.000000
 51
150.000397
  0
LINE
  8
0
  6
CONTINUOUS
 10
11.146450
 20
7.562500
 11
27.105000
 21
7.562500
  0
LINE
  8
0
  6
CONTINUOUS
 10
27.105000
 20
18.153200
 11
8.855000
 21
18.153200
  0
LINE
  8
0
  6
CONTINUOUS
 10
7.682340
 20
9.562510
 11
7.105000
 21
10.562500
  0
ARC
  8
0
  6
CONTINUOUS
 10
11.146470
 20
11.562490
 40
4.000000
 50
-150.000397
 51
-90.000000
  0
LINE
  8
0
  6
CONTINUOUS
 10
6.605000
 20
87.562500
 11
7.105000
 21
88.062500
  0
LINE
  8
0
  6
CONTINUOUS
 10
6.605000
 20
17.562500
 11
7.105000
 21
17.062519
  0
LINE
  8
0
  6
CONTINUOUS
 10
27.105000
 20
7.562500
 11
27.105000
 21
97.562500
  0
LINE
  8
0
  6
CONTINUOUS
 10
146.104996
 20
97.562500
 11
146.104996
 21
7.562500
  0
LINE
  8
0
  6
CONTINUOUS
 10
137.104996
 20
95.562500
 11
137.104996
 21
9.562490
  0
LINE
  8
0
  6
CONTINUOUS
 10
27.105000
 20
97.562500
 11
146.104996
 21
97.562500
  0
LINE
  8
0
  6
CONTINUOUS
 10
27.105000
 20
7.562500
 11
146.104996
 21
7.562500
  0
LINE
  8
0
  6
CONTINUOUS
 10
149.104996
 20
85.562500
 11
146.104996
 21
85.562500
  0
LINE
  8
0
  6
CONTINUOUS
 10
149.104996
 20
45.562500
 11
146.104996
 21
45.562500
  0
LINE
  8
0
  6
CONTINUOUS
 10
150.104996
 20
46.562500
 11
150.104996
 21
84.562500
  0
ARC
  8
0
  6
CONTINUOUS
 10
149.104996
 20
84.562500
 40
1.000000
 50
0.000000
 51
90.000000
  0
ARC
  8
0
  6
CONTINUOUS
 10
149.104996
 20
46.562500
 40
1.000000
 50
-90.000000
 51
0.000000
  0
ARC
  8
0
  6
CONTINUOUS
 10
149.104996
 20
46.562500
 40
1.000000
 50
-90.000000
 51
0.000000
  0
LINE
  8
0
  6
CONTINUOUS
 10
152.104996
 20
74.062500
 11
152.104996
 21
57.062500
  0
LINE
  8
0
  6
CONTINUOUS
 10
179.104996
 20
73.062500
 11
179.104996
 21
58.062500
  0
LINE
  8
0
  6
CONTINUOUS
 10
152.104996
 20
73.062500
 11
179.104996
 21
73.062500
  0
LINE
  8
0
  6
CONTINUOUS
 10
152.104996
 20
58.062500
 11
179.104996
 21
58.062500
  0
LINE
  8
0
  6
CONTINUOUS
 10
150.104996
 20
74.062500
 11
152.104996
 21
74.062500
  0
LINE
  8
0
  6
CONTINUOUS
 10
150.104996
 20
57.062500
 11
152.104996
 21
57.062500
  0
LINE
  8
0
  6
CONTINUOUS
 10
157.604996
 20
68.062500
 11
179.104996
 21
68.062500
  0
LINE
  8
0
  6
CONTINUOUS
 10
157.604996
 20
63.062500
 11
179.104996
 21
63.062500
  0
ARC
  8
0
  6
CONTINUOUS
 10
157.604996
 20
65.562500
 40
2.500000
 50
90.000000
 51
180.000000
  0
ARC
  8
0
  6
CONTINUOUS
 10
157.604996
 20
65.562500
 40
2.500000
 50
180.000000
 51
270.000000
  0
LINE
  8
0
  6
CENTER
 10
-9.162500
 20
52.562500
 11
155.998444
 21
52.562500
  0
LINE
  8
0
  6
DASHED
 10
137.104996
 20
93.812500
 11
146.104996
 21
93.812500
  0
LINE
  8
0
  6
DASHED
 10
137.104996
 20
87.312500
 11
146.104996
 21
87.312500
  0
LINE
  8
0
  6
DASHED
 10
137.104996
 20
17.812500
 11
146.104996
 21
17.812500
  0
LINE
  8
0
  6
DASHED
 10
137.104996
 20
11.312500
 11
146.104996
 21
11.312500
  0
LINE
  8
0
  6
PHANTOM
 10
135.304993
 20
90.562500
 11
147.785004
 21
90.562500
  0
LINE
  8
0
  6
PHANTOM
 10
134.104996
 20
14.562500
 11
148.985001
 21
14.562500
  0
LINE
  8
0
  6
CENTER
 10
124.545158
 20
65.562500
 11
185.847305
 21
65.562500
  0
LINE
  8
0
  6
CONTINUOUS
 10
27.105000
 20
86.971802
 11
136.600906
 21
86.971802
  0
LINE
  8
0
  6
CONTINUOUS
 10
27.105000
 20
18.153200
 11
136.600906
 21
18.153200
  0
ARC
  8
0
  6
CONTINUOUS
 10
139.104996
 20
95.562500
 40
2.000000
 50
90.000000
 51
180.000000
  0
ARC
  8
0
  6
CONTINUOUS
 10
139.104996
 20
9.562500
 40
2.000000
 50
180.000000
 51
270.000000
  0
LINE
  8
0
  6
CENTER
 10
296.605011
 20
0.150000
 11
296.605011
 21
154.295319
  0
LINE
  8
0
  6
CONTINUOUS
 10
251.604996
 20
13.261310
 11
251.604996
 21
91.863403
  0
LINE
  8
0
  6
CONTINUOUS
 10
341.605011
 20
13.261460
 11
341.605011
 21
91.863503
  0
LINE
  8
0
  6
CONTINUOUS
 10
336.692200
 20
96.862801
 11
296.605011
 21
97.562500
  0
LINE
  8
0
  6
CONTINUOUS
 10
336.692200
 20
8.262220
 11
296.605011
 21
7.562500
  0
LINE
  8
0
  6
CONTINUOUS
 10
256.517700
 20
96.862602
 11
296.605011
 21
97.562500
  0
LINE
  8
0
  6
CONTINUOUS
 10
256.517792
 20
8.262070
 11
296.605011
 21
7.562500
  0
ARC
  8
0
  6
CONTINUOUS
 10
336.605011
 20
91.863503
 40
5.000000
 50
0.000000
 51
89.000092
  0
ARC
  8
0
  6
CONTINUOUS
 10
256.605011
 20
91.863403
 40
5.000000
 50
91.000610
 51
180.000000
  0
ARC
  8
0
  6
CONTINUOUS
 10
256.605011
 20
13.261340
 40
5.000000
 50
180.000000
 51
269.000488
  0
ARC
  8
0
  6
CONTINUOUS
 10
336.605011
 20
13.261450
 40
5.000000
 50
-88.999817
 51
0.000000
  0
CIRCLE
  8
0
  6
CONTINUOUS
 10
334.605011
 20
90.562500
 40
3.250000
  0
CIRCLE
  8
0
  6
CONTINUOUS
 10
258.605011
 20
90.562500
 40
3.250000
  0
CIRCLE
  8
0
  6
CONTINUOUS
 10
334.605011
 20
14.562500
 40
3.250000
  0
CIRCLE
  8
0
  6
CONTINUOUS
 10
258.605011
 20
14.562500
 40
3.250000
  0
CIRCLE
  8
0
  6
CONTINUOUS
 10
296.605011
 20
65.562500
 40
20.000000
  0
LINE
  8
0
  6
CONTINUOUS
 10
336.605011
 20
66.923897
 11
336.605011
 21
38.201092
  0
ARC
  8
0
  6
CONTINUOUS
 10
296.605011
 20
52.562500
 40
42.500000
 50
270.000000
 51
340.250092
  0
ARC
  8
0
  6
CONTINUOUS
 10
296.605011
 20
52.562500
 40
42.500000
 50
19.749901
 51
90.000000
  0
LINE
  8
0
  6
CONTINUOUS
 10
256.605011
 20
66.923897
 11
256.605011
 21
38.201092
  0
ARC
  8
0
  6
CONTINUOUS
 10
296.605011
 20
52.562500
 40
42.500000
 50
-160.250107
 51
-90.000000
  0
ARC
  8
0
  6
CONTINUOUS
 10
296.605011
 20
52.562500
 40
42.500000
 50
90.000000
 51
160.250107
  0
LINE
  8
0
  6
CENTER
 10
334.605011
 20
96.356300
 11
334.605011
 21
84.806297
  0
LINE
  8
0
  6
CENTER
 10
334.605011
 20
9.468750
 11
334.605011
 21
20.100010
  0
LINE
  8
0
  6
CENTER
 10
258.605011
 20
96.093803
 11
258.605011
 21
84.018700
  0
LINE
  8
0
  6
CENTER
 10
258.605011
 20
9.468750
 11
258.605011
 21
20.493750
  0
LINE
  8
0
  6
CENTER
 10
253.554993
 20
14.562500
 11
263.267487
 21
14.562500
  0
LINE
  8
0
  6
CENTER
 10
340.836304
 20
14.562500
 11
329.023804
 21
14.562500
  0
LINE
  8
0
  6
CENTER
 10
253.029999
 20
90.562500
 11
264.054993
 21
90.562500
  0
LINE
  8
0
  6
CENTER
 10
340.573792
 20
90.562500
 11
329.023804
 21
90.562500
  0
LINE
  8
0
  6
CONTINUOUS
 10
287.105011
 20
68.062500
 11
292.105011
 21
68.062500
  0
LINE
  8
0
  6
CONTINUOUS
 10
287.105011
 20
63.062500
 11
292.105011
 21
63.062500
  0
LINE
  8
0
  6
CONTINUOUS
 10
287.105011
 20
68.062500
 11
287.105011
 21
63.062500
  0
LINE
  8
0
  6
CONTINUOUS
 10
292.105011
 20
63.062500
 11
292.105011
 21
68.062500
  0
ARC
  8
0
  6
CONTINUOUS
 10
296.605011
 20
65.562500
 40
7.500000
 50
-160.528793
 51
160.528793
  0
LINE
  8
0
  6
CENTER
 10
269.999908
 20
65.562500
 11
323.214050
 21
65.562500
  0
LINE
  8
0
  6
CONTINUOUS
 10
290.230011
 20
35.115719
 11
290.230011
 21
29.562500
  0
LINE
  8
0
  6
CONTINUOUS
 10
293.417511
 20
37.132809
 11
293.417511
 21
39.125000
  0
LINE
  8
0
  6
CONTINUOUS
 10
299.792511
 20
37.132809
 11
299.792511
 21
39.125000
  0
LINE
  8
0
  6
CONTINUOUS
 10
295.982391
 20
37.954590
 11
295.982391
 21
30.608400
  0
LINE
  8
0
  6
CONTINUOUS
 10
297.177795
 20
37.954590
 11
297.177795
 21
30.608400
  0
LINE
  8
0
  6
CONTINUOUS
 10
303.453094
 20
37.954590
 11
303.453094
 21
30.558580
  0
LINE
  8
0
  6
CONTINUOUS
 10
304.548798
 20
34.032471
 11
304.548798
 21
30.558580
  0
LINE
  8
0
  6
CONTINUOUS
 10
288.717499
 20
37.854980
 11
285.645599
 21
37.854980
  0
LINE
  8
0
  6
CONTINUOUS
 10
285.645599
 20
37.854980
 11
284.925812
 21
36.962479
  0
LINE
  8
0
  6
CONTINUOUS
 10
285.012390
 20
39.125000
 11
283.855011
 21
37.643002
  0
LINE
  8
0
  6
CONTINUOUS
 10
284.925812
 20
31.453421
 11
285.657104
 21
30.683109
  0
LINE
  8
0
  6
CONTINUOUS
 10
283.855011
 20
30.803350
 11
285.084808
 21
29.562500
  0
LINE
  8
0
  6
CONTINUOUS
 10
283.855011
 20
37.643002
 11
283.855011
 21
30.803350
  0
LINE
  8
0
  6
CONTINUOUS
 10
284.925812
 20
36.962479
 11
284.925812
 21
31.453421
  0
LINE
  8
0
  6
CONTINUOUS
 10
289.308594
 20
37.283539
 11
288.705414
 21
37.854980
  0
LINE
  8
0
  6
CONTINUOUS
 10
289.299011
 20
39.125000
 11
290.230011
 21
38.091862
  0
LINE
  8
0
  6
CONTINUOUS
 10
289.308594
 20
37.132809
 11
290.230011
 21
37.132809
  0
LINE
  8
0
  6
CONTINUOUS
 10
285.012390
 20
39.125000
 11
289.299011
 21
39.125000
  0
LINE
  8
0
  6
CONTINUOUS
 10
289.308594
 20
34.069820
 11
287.640198
 21
34.069820
  0
LINE
  8
0
  6
CONTINUOUS
 10
289.308594
 20
33.073730
 11
289.308594
 21
33.870609
  0
LINE
  8
0
  6
CONTINUOUS
 10
287.316406
 20
30.683109
 11
285.657104
 21
30.683109
  0
ARC
  8
0
  6
CONTINUOUS
 10
287.316406
 20
32.675289
 40
1.992187
 50
-89.999786
 51
0.000109
  0
LINE
  8
0
  6
CONTINUOUS
 10
289.308594
 20
30.324760
 11
289.308594
 21
29.562500
  0
LINE
  8
0
  6
CONTINUOUS
 10
290.230011
 20
38.091862
 11
290.230011
 21
37.132809
  0
LINE
  8
0
  6
CONTINUOUS
 10
289.308594
 20
34.069820
 11
289.308594
 21
32.675289
  0
LINE
  8
0
  6
CONTINUOUS
 10
287.640198
 20
35.115719
 11
287.640198
 21
34.069820
  0
LINE
  8
0
  6
CONTINUOUS
 10
289.308594
 20
29.562500
 11
290.230011
 21
29.562500
  0
LINE
  8
0
  6
CONTINUOUS
 10
289.308594
 20
30.324760
 11
288.399994
 21
29.562500
  0
LINE
  8
0
  6
CONTINUOUS
 10
297.177795
 20
30.608400
 11
297.576202
 21
30.608400
  0
LINE
  8
0
  6
CONTINUOUS
 10
295.509308
 20
30.608400
 11
295.509308
 21
29.562500
  0
LINE
  8
0
  6
CONTINUOUS
 10
297.576202
 20
30.608400
 11
297.576202
 21
29.562500
  0
LINE
  8
0
  6
CONTINUOUS
 10
299.127594
 20
37.132809
 11
299.792511
 21
37.132809
  0
LINE
  8
0
  6
CONTINUOUS
 10
293.417511
 20
37.132809
 11
294.125092
 21
37.132809
  0
LINE
  8
0
  6
CONTINUOUS
 10
293.417511
 20
39.125000
 11
299.792511
 21
39.125000
  0
LINE
  8
0
  6
CONTINUOUS
 10
295.509308
 20
29.562500
 11
297.576202
 21
29.562500
  0
LINE
  8
0
  6
CONTINUOUS
 10
295.509308
 20
30.608400
 11
295.982391
 21
30.608400
  0
ARC
  8
0
  6
CONTINUOUS
 10
306.802490
 20
36.572510
 40
2.552490
 50
-73.981873
 51
90.003510
  0
ARC
  8
0
  6
CONTINUOUS
 10
306.802490
 20
36.572510
 40
1.557193
 50
-82.585274
 51
62.411850
  0
LINE
  8
0
  6
CONTINUOUS
 10
302.980011
 20
39.125000
 11
306.802490
 21
39.125000
  0
LINE
  8
0
  6
CONTINUOUS
 10
302.980011
 20
39.125000
 11
302.980011
 21
37.954590
  0
LINE
  8
0
  6
CONTINUOUS
 10
304.548798
 20
37.954590
 11
304.548798
 21
35.028339
  0
LINE
  8
0
  6
CONTINUOUS
 10
307.506897
 20
34.119122
 11
309.086700
 21
30.558580
  0
LINE
  8
0
  6
CONTINUOUS
 10
306.589294
 20
34.032471
 11
308.084290
 21
30.558580
  0
LINE
  8
0
  6
CONTINUOUS
 10
302.980011
 20
30.558580
 11
303.453094
 21
30.558580
  0
LINE
  8
0
  6
CONTINUOUS
 10
304.548798
 20
30.558580
 11
304.984589
 21
30.558580
  0
LINE
  8
0
  6
CONTINUOUS
 10
304.984589
 20
29.562500
 11
302.980011
 21
29.562500
  0
LINE
  8
0
  6
CONTINUOUS
 10
307.885803
 20
30.558580
 11
308.084290
 21
30.558580
  0
LINE
  8
0
  6
CONTINUOUS
 10
309.086700
 20
30.558580
 11
309.355011
 21
30.558580
  0
LINE
  8
0
  6
CONTINUOUS
 10
307.885803
 20
29.562500
 11
309.355011
 21
29.562500
  0
LINE
  8
0
  6
CONTINUOUS
 10
309.355011
 20
30.558580
 11
309.355011
 21
29.562500
  0
LINE
  8
0
  6
CONTINUOUS
 10
307.885803
 20
30.558580
 11
307.885803
 21
29.562500
  0
LINE
  8
0
  6
CONTINUOUS
 10
304.984589
 20
30.558580
 11
304.984589
 21
29.562500
  0
LINE
  8
0
  6
CONTINUOUS
 10
302.980011
 20
30.558580
 11
302.980011
 21
29.562500
  0
LINE
  8
0
  6
CONTINUOUS
 10
294.467499
 20
37.954590
 11
294.125092
 21
37.132809
  0
LINE
  8
0
  6
CONTINUOUS
 10
298.838806
 20
37.954590
 11
299.127594
 21
37.132809
  0
LINE
  8
0
  6
CONTINUOUS
 10
297.177795
 20
37.954590
 11
298.838806
 21
37.954590
  0
LINE
  8
0
  6
CONTINUOUS
 10
295.982391
 20
37.954590
 11
294.467499
 21
37.954590
  0
LINE
  8
0
  6
CONTINUOUS
 10
302.980011
 20
37.954590
 11
303.453094
 21
37.954590
  0
LINE
  8
0
  6
CONTINUOUS
 10
304.548798
 20
37.954590
 11
307.523712
 21
37.952648
  0
LINE
  8
0
  6
CONTINUOUS
 10
289.308594
 20
37.283539
 11
289.308594
 21
37.132809
  0
LINE
  8
0
  6
CONTINUOUS
 10
285.084808
 20
29.562500
 11
288.399994
 21
29.562500
  0
LINE
  8
0
  6
CONTINUOUS
 10
304.548798
 20
35.028339
 11
307.003510
 21
35.028339
  0
LINE
  8
0
  6
CONTINUOUS
 10
304.548798
 20
34.032471
 11
306.589294
 21
34.032471
  0
LINE
  8
0
  6
CONTINUOUS
 10
287.640198
 20
35.115719
 11
290.230011
 21
35.115719
  0
LINE
  8
0
  6
CONTINUOUS
 10
146.104996
 20
290.837189
 11
146.104996
 21
200.837189
  0
LINE
  8
0
  6
CONTINUOUS
 10
137.105072
 20
274.837189
 11
137.105072
 21
288.837189
  0
LINE
  8
0
  6
CONTINUOUS
 10
27.105080
 20
290.837189
 11
146.105072
 21
290.837189
  0
LINE
  8
0
  6
CONTINUOUS
 10
27.105080
 20
200.837189
 11
146.105072
 21
200.837189
  0
LINE
  8
0
  6
CONTINUOUS
 10
27.105080
 20
290.837189
 11
27.105080
 21
270.837158
  0
LINE
  8
0
  6
CONTINUOUS
 10
137.105072
 20
274.837189
 11
27.105080
 21
274.837189
  0
ARC
  8
0
  6
CONTINUOUS
 10
139.105072
 20
288.837219
 40
2.000000
 50
90.000000
 51
180.000000
  0
ARC
  8
0
  6
CONTINUOUS
 10
139.105072
 20
202.837189
 40
2.000000
 50
180.000000
 51
270.000000
  0
LINE
  8
0
  6
CONTINUOUS
 10
6.605079
 20
210.837189
 11
6.605079
 21
280.837189
  0
LINE
  8
0
  6
CONTINUOUS
 10
11.146519
 20
290.837189
 11
27.105080
 21
290.837189
  0
LINE
  8
0
  6
CONTINUOUS
 10
7.105079
 20
287.837189
 11
7.105079
 21
203.837189
  0
LINE
  8
0
  6
CONTINUOUS
 10
27.105080
 20
274.837189
 11
8.855079
 21
274.837189
  0
LINE
  8
0
  6
CONTINUOUS
 10
7.682419
 20
288.837158
 11
7.105079
 21
287.837189
  0
ARC
  8
0
  6
CONTINUOUS
 10
11.146540
 20
286.837189
 40
4.000000
 50
90.000000
 51
150.000397
  0
LINE
  8
0
  6
CONTINUOUS
 10
11.146519
 20
200.837189
 11
27.105080
 21
200.837189
  0
LINE
  8
0
  6
CONTINUOUS
 10
7.682419
 20
202.837189
 11
7.105079
 21
203.837189
  0
ARC
  8
0
  6
CONTINUOUS
 10
11.146540
 20
204.837173
 40
4.000000
 50
-150.000397
 51
-90.000000
  0
LINE
  8
0
  6
CONTINUOUS
 10
6.605079
 20
280.837189
 11
7.105079
 21
281.337189
  0
LINE
  8
0
  6
CONTINUOUS
 10
6.605079
 20
210.837189
 11
7.105079
 21
210.337189
  0
LINE
  8
0
  6
CONTINUOUS
 10
137.105072
 20
216.837189
 11
27.105080
 21
216.837189
  0
LINE
  8
0
  6
CONTINUOUS
 10
27.105080
 20
216.837189
 11
8.855079
 21
216.837189
  0
LINE
  8
0
  6
CONTINUOUS
 10
137.105072
 20
216.837189
 11
137.105072
 21
202.837173
  0
LINE
  8
0
  6
CONTINUOUS
 10
27.105080
 20
220.837173
 11
27.105080
 21
200.837189
  0
LINE
  8
0
  6
CENTER
 10
190.155212
 20
245.837189
 11
-9.691038
 21
245.837189
  0
LINE
  8
0
  6
CONTINUOUS
 10
179.104996
 20
253.337189
 11
179.104996
 21
236.337189
  0
LINE
  8
0
  6
CONTINUOUS
 10
152.104996
 20
254.337189
 11
152.104996
 21
237.337189
  0
LINE
  8
0
  6
CONTINUOUS
 10
152.104996
 20
253.337189
 11
179.104996
 21
253.337189
  0
LINE
  8
0
  6
CONTINUOUS
 10
152.104996
 20
238.337189
 11
155.104996
 21
238.337189
  0
LINE
  8
0
  6
CONTINUOUS
 10
149.104996
 20
265.837189
 11
146.104996
 21
265.837189
  0
LINE
  8
0
  6
CONTINUOUS
 10
149.104996
 20
225.837189
 11
146.104996
 21
225.837189
  0
LINE
  8
0
  6
CONTINUOUS
 10
150.104996
 20
226.837189
 11
150.104996
 21
264.837189
  0
ARC
  8
0
  6
CONTINUOUS
 10
149.104996
 20
264.837189
 40
1.000000
 50
0.000000
 51
90.000000
  0
ARC
  8
0
  6
CONTINUOUS
 10
149.104996
 20
226.837189
 40
1.000000
 50
-90.000000
 51
0.000000
  0
LINE
  8
0
  6
CONTINUOUS
 10
150.104996
 20
254.337189
 11
152.104996
 21
254.337189
  0
LINE
  8
0
  6
CONTINUOUS
 10
150.104996
 20
237.337189
 11
152.104996
 21
237.337189
  0
LINE
  8
0
  6
CONTINUOUS
 10
155.104996
 20
238.766190
 11
155.104996
 21
236.337189
  0
LINE
  8
0
  6
CONTINUOUS
 10
155.104996
 20
236.337189
 11
179.104996
 21
236.337189
  0
LINE
  8
0
  6
CONTINUOUS
 10
155.104996
 20
238.766190
 11
179.104996
 21
238.766190
  0
LINE
  8
0
  6
DASHED
 10
137.104996
 20
287.087189
 11
146.104996
 21
287.087189
  0
LINE
  8
0
  6
DASHED
 10
137.104996
 20
280.587189
 11
146.104996
 21
280.587189
  0
LINE
  8
0
  6
PHANTOM
 10
135.304993
 20
283.837189
 11
147.785004
 21
283.837189
  0
LINE
  8
0
  6
DASHED
 10
137.104996
 20
211.087189
 11
146.104996
 21
211.087189
  0
LINE
  8
0
  6
PHANTOM
 10
134.104996
 20
207.837189
 11
148.985001
 21
207.837189
  0
LINE
  8
0
  6
DASHED
 10
137.104996
 20
204.587189
 11
146.104996
 21
204.587189
  0
LINE
  8
0
  6
CENTER
 10
242.879684
 20
52.562500
 11
350.318756
 21
52.562500
  0
LINE
  8
0
  6
CONTINUOUS
 10
18.105000
 20
222.837173
 11
18.105000
 21
268.837158
  0
LINE
  8
0
  6
CONTINUOUS
 10
20.105000
 20
270.837158
 11
18.105000
 21
268.837158
  0
LINE
  8
0
  6
CONTINUOUS
 10
20.105000
 20
270.837158
 11
66.104988
 21
270.837158
  0
LINE
  8
0
  6
CONTINUOUS
 10
60.605000
 20
266.337158
 11
60.605000
 21
270.837158
  0
ARC
  8
0
  6
CONTINUOUS
 10
63.605000
 20
266.337158
 40
3.000000
 50
180.000000
 51
270.000000
  0
LINE
  8
0
  6
CONTINUOUS
 10
63.605000
 20
263.337158
 11
68.104988
 21
263.337158
  0
CIRCLE
  8
0
  6
CONTINUOUS
 10
64.605003
 20
267.337158
 40
2.250000
  0
LINE
  8
0
  6
CONTINUOUS
 10
68.104996
 20
222.837173
 11
68.104988
 21
268.837158
  0
LINE
  8
0
  6
CONTINUOUS
 10
66.104988
 20
270.837158
 11
68.104988
 21
268.837158
  0
LINE
  8
0
  6
CONTINUOUS
 10
66.104996
 20
220.837173
 11
68.104996
 21
222.837173
  0
LINE
  8
0
  6
CONTINUOUS
 10
66.104996
 20
220.837173
 11
20.105000
 21
220.837173
  0
LINE
  8
0
  6
CONTINUOUS
 10
18.105000
 20
222.837173
 11
20.105000
 21
220.837173
  0
LINE
  8
0
  6
CONTINUOUS
 10
22.605000
 20
228.337173
 11
18.105009
 21
228.337173
  0
CIRCLE
  8
0
  6
CONTINUOUS
 10
21.605000
 20
224.337173
 40
2.250000
  0
ARC
  8
0
  6
CONTINUOUS
 10
22.605000
 20
225.337173
 40
3.000000
 50
0.000000
 51
90.000000
  0
LINE
  8
0
  6
CONTINUOUS
 10
25.605000
 20
225.337173
 11
25.605000
 21
220.837173
  0
LINE
  8
0
  6
CENTER
 10
43.105000
 20
213.371384
 11
43.105000
 21
277.503418
  0
LINE
  8
0
  6
CONTINUOUS
 10
19.105005
 20
228.337189
 11
19.105005
 21
263.337189
  0
LINE
  8
0
  6
CONTINUOUS
 10
60.605000
 20
269.837189
 11
25.605021
 21
269.837189
  0
LINE
  8
0
  6
CONTINUOUS
 10
67.104996
 20
263.337189
 11
67.104996
 21
228.337189
  0
LINE
  8
0
  6
CONTINUOUS
 10
25.605000
 20
221.837189
 11
60.604980
 21
221.837189
  0
LINE
  8
0
  6
CONTINUOUS
 10
22.605021
 20
263.337189
 11
18.105021
 21
263.337189
  0
ARC
  8
0
  6
CONTINUOUS
 10
22.605021
 20
266.337189
 40
3.000000
 50
-90.000000
 51
0.000000
  0
LINE
  8
0
  6
CONTINUOUS
 10
25.605021
 20
266.337189
 11
25.605021
 21
270.837189
  0
CIRCLE
  8
0
  6
CONTINUOUS
 10
21.605021
 20
267.337189
 40
2.250000
  0
LINE
  8
0
  6
CONTINUOUS
 10
63.604980
 20
228.337189
 11
68.104980
 21
228.337189
  0
ARC
  8
0
  6
CONTINUOUS
 10
63.604980
 20
225.337189
 40
3.000000
 50
90.000000
 51
180.000000
  0
LINE
  8
0
  6
CONTINUOUS
 10
60.604980
 20
225.337189
 11
60.604980
 21
220.837204
  0
CIRCLE
  8
0
  6
CONTINUOUS
 10
64.604980
 20
224.337189
 40
2.250000
  0
LINE
  8
0
  6
CONTINUOUS
 10
19.605000
 20
99.062500
 11
66.105003
 21
99.062500
  0
LINE
  8
0
  6
CONTINUOUS
 10
68.104980
 20
143.062500
 11
68.105003
 21
101.062500
  0
LINE
  8
0
  6
CONTINUOUS
 10
18.105000
 20
143.062500
 11
18.105000
 21
101.062500
  0
LINE
  8
0
  6
CONTINUOUS
 10
18.105000
 20
111.062500
 11
68.105003
 21
111.062500
  0
LINE
  8
0
  6
CONTINUOUS
 10
66.105003
 20
99.062500
 11
68.105003
 21
101.062500
  0
LINE
  8
0
  6
CONTINUOUS
 10
18.105000
 20
101.062500
 11
20.105000
 21
99.062500
  0
LINE
  8
0
  6
CONTINUOUS
 10
18.105000
 20
101.062500
 11
68.105003
 21
101.062500
  0
LINE
  8
0
  6
CONTINUOUS
 10
18.105000
 20
112.062500
 11
68.104988
 21
112.062500
  0
LINE
  8
0
  6
CONTINUOUS
 10
19.105000
 20
144.062500
 11
67.104980
 21
144.062500
  0
LINE
  8
0
  6
CONTINUOUS
 10
67.104980
 20
144.062500
 11
68.104980
 21
143.062500
  0
LINE
  8
0
  6
CONTINUOUS
 10
19.105000
 20
144.062500
 11
18.105000
 21
143.062500
  0
LINE
  8
0
  6
CONTINUOUS
 10
18.105000
 20
143.062500
 11
68.104980
 21
143.062500
  0
LINE
  8
0
  6
CENTER
 10
43.105000
 20
92.672989
 11
43.105000
 21
149.372986
  0
LINE
  8
0
  6
CENTER
 10
15.730000
 20
127.062500
 11
20.355000
 21
127.062500
  0
LINE
  8
0
  6
CONTINUOUS
 10
19.605000
 20
99.062500
 11
19.605000
 21
97.562500
  0
LINE
  8
0
  6
CONTINUOUS
 10
65.605003
 20
99.062500
 11
65.605003
 21
97.562500
  0
LINE
  8
0
  6
CONTINUOUS
 10
17.230000
 20
137.562500
 11
19.230000
 21
137.562500
  0
LINE
  8
0
  6
CONTINUOUS
 10
17.230000
 20
116.562500
 11
19.230000
 21
116.562500
  0
LINE
  8
0
  6
CONTINUOUS
 10
273.605011
 20
99.062500
 11
319.605011
 21
99.062500
  0
LINE
  8
0
  6
CONTINUOUS
 10
321.605011
 20
143.062500
 11
321.605011
 21
101.062500
  0
LINE
  8
0
  6
CONTINUOUS
 10
271.605011
 20
143.062500
 11
271.605011
 21
101.062500
  0
LINE
  8
0
  6
CONTINUOUS
 10
271.605011
 20
111.062500
 11
321.605011
 21
111.062500
  0
LINE
  8
0
  6
CONTINUOUS
 10
319.605011
 20
99.062500
 11
321.605011
 21
101.062500
  0
LINE
  8
0
  6
CONTINUOUS
 10
271.605011
 20
101.062500
 11
273.605011
 21
99.062500
  0
LINE
  8
0
  6
CONTINUOUS
 10
271.605011
 20
101.062500
 11
321.605011
 21
101.062500
  0
LINE
  8
0
  6
CONTINUOUS
 10
271.605011
 20
112.062500
 11
321.605011
 21
112.062500
  0
LINE
  8
0
  6
CONTINUOUS
 10
272.605011
 20
144.062500
 11
320.605011
 21
144.062500
  0
LINE
  8
0
  6
CONTINUOUS
 10
320.605011
 20
144.062500
 11
321.605011
 21
143.062500
  0
LINE
  8
0
  6
CONTINUOUS
 10
272.605011
 20
144.062500
 11
271.605011
 21
143.062500
  0
LINE
  8
0
  6
CONTINUOUS
 10
271.605011
 20
143.062500
 11
321.605011
 21
143.062500
  0
LINE
  8
0
  6
CONTINUOUS
 10
319.105011
 20
99.062500
 11
319.105011
 21
97.169769
  0
LINE
  8
0
  6
CONTINUOUS
 10
274.105011
 20
99.062500
 11
274.105011
 21
97.169769
  0
TEXT
  8
0
 10
-9.000000
 20
0.000000
 40
4.000000
 41
1.000000
  1
GFM-15-5~60-T60WK
 50
0.000000
  0
ENDSEC
  0
EOF
