  0
SECTION
  2
HEADER
  9
$CLAYER
  8
1
  9
$LTSCALE
 40
3.0
  0
ENDSEC
  0
SECTION
  2
TABLES
  0
TABLE
  2
LTYPE
 70
     4
  0
LTYPE
  2
CONTINUOUS
  3
solid line
 70
    64
 72
    65
 73
     0
 40
0.0
  0
LTYPE
  2
DASHED
  3
__ __ __ __ __ __ __ __ __ __ __ __ __ __ __
 70
    64
 72
    65
 73
     2
 40
0.75
 49
0.5
 49
-0.25
  0
LTYPE
  2
CENTER
  3
____ _ ____ _ ____ _ ____ _ ____ _ ____ _ ____
 70
    64
 72
    65
 73
     4
 40
2.0
 49
1.25
 49
-0.25
 49
0.25
 49
-0.25
  0
LTYPE
  2
PHANTOM
  3
_____ _ _ _____ _ _ _____ _ _ _____ _ _ ____
 70
    64
 72
    65
 73
     6
 40
2.5
 49
1.25
 49
-0.25
 49
0.25
 49
-0.25
 49
0.25
 49
-0.25
  0
ENDTAB
  0
TABLE
  2
LAYER
 70
     1
  0
LAYER
  2
0
 70
    64
 62
     7
  6
CONTINUOUS
  0
ENDTAB
  0
TABLE
  2
STYLE
 70
     1
  0
STYLE
  2
STANDARD
 70
     0
 40
0.000000
 41
1.000000
 50
0.000000
 71
     0
 42
3.000000
  3
txt
  4
BIGFONT
  0
ENDTAB
  0
ENDSEC
  0
SECTION
  2
BLOCKS
  0
ENDSEC
  0
SECTION
  2
ENTITIES
  0
LINE
  8
0
  6
CONTINUOUS
 10
55.524376
 20
101.623436
 11
65.024376
 21
101.623436
  0
LINE
  8
0
  6
CONTINUOUS
 10
65.024376
 20
91.032738
 11
55.524376
 21
91.032738
  0
LINE
  8
0
  6
CONTINUOUS
 10
55.524376
 20
11.623437
 11
65.024376
 21
11.623437
  0
LINE
  8
0
  6
CONTINUOUS
 10
65.024376
 20
22.214136
 11
55.524376
 21
22.214136
  0
LINE
  8
0
  6
CONTINUOUS
 10
55.524376
 20
103.623436
 11
55.524376
 21
9.623437
  0
LINE
  8
0
  6
CONTINUOUS
 10
55.524376
 20
85.623436
 11
11.549365
 21
85.623436
  0
LINE
  8
0
  6
CONTINUOUS
 10
55.524376
 20
27.623438
 11
11.549365
 21
27.623438
  0
LINE
  8
0
  6
CONTINUOUS
 10
13.024375
 20
103.623436
 11
55.524376
 21
103.623436
  0
LINE
  8
0
  6
CONTINUOUS
 10
13.024375
 20
9.623437
 11
55.524376
 21
9.623437
  0
ARC
  8
0
  6
CONTINUOUS
 10
13.024375
 20
98.623436
 40
5.000000
 50
90.000000
 51
180.000000
  0
ARC
  8
0
  6
CONTINUOUS
 10
13.024375
 20
14.623437
 40
5.000000
 50
180.000000
 51
270.000000
  0
LINE
  8
0
  6
CONTINUOUS
 10
8.024375
 20
98.623436
 11
8.024375
 21
14.623427
  0
LINE
  8
0
  6
CONTINUOUS
 10
65.024376
 20
56.623436
 11
65.024376
 21
101.623436
  0
LINE
  8
0
  6
CONTINUOUS
 10
65.024376
 20
56.623436
 11
65.024376
 21
11.623437
  0
LINE
  8
0
  6
CONTINUOUS
 10
184.024368
 20
101.623436
 11
184.024368
 21
11.623437
  0
LINE
  8
0
  6
CONTINUOUS
 10
175.024368
 20
99.623436
 11
175.024368
 21
13.623427
  0
LINE
  8
0
  6
CONTINUOUS
 10
65.024376
 20
101.623436
 11
184.024368
 21
101.623436
  0
LINE
  8
0
  6
CONTINUOUS
 10
65.024376
 20
11.623437
 11
184.024368
 21
11.623437
  0
LINE
  8
0
  6
CONTINUOUS
 10
187.024368
 20
89.623436
 11
184.024368
 21
89.623436
  0
LINE
  8
0
  6
CONTINUOUS
 10
187.024368
 20
49.623436
 11
184.024368
 21
49.623436
  0
LINE
  8
0
  6
CONTINUOUS
 10
188.024368
 20
50.623436
 11
188.024368
 21
88.623436
  0
ARC
  8
0
  6
CONTINUOUS
 10
187.024368
 20
88.623436
 40
1.000000
 50
0.000000
 51
90.000000
  0
ARC
  8
0
  6
CONTINUOUS
 10
187.024368
 20
50.623436
 40
1.000000
 50
-90.000000
 51
0.000000
  0
ARC
  8
0
  6
CONTINUOUS
 10
187.024368
 20
50.623436
 40
1.000000
 50
-90.000000
 51
0.000000
  0
LINE
  8
0
  6
CONTINUOUS
 10
190.024368
 20
78.123436
 11
190.024368
 21
61.123436
  0
LINE
  8
0
  6
CONTINUOUS
 10
217.024368
 20
77.123436
 11
217.024368
 21
62.123436
  0
LINE
  8
0
  6
CONTINUOUS
 10
190.024368
 20
77.123436
 11
217.024368
 21
77.123436
  0
LINE
  8
0
  6
CONTINUOUS
 10
190.024368
 20
62.123436
 11
217.024368
 21
62.123436
  0
LINE
  8
0
  6
CONTINUOUS
 10
188.024368
 20
78.123436
 11
190.024368
 21
78.123436
  0
LINE
  8
0
  6
CONTINUOUS
 10
188.024368
 20
61.123436
 11
190.024368
 21
61.123436
  0
LINE
  8
0
  6
CONTINUOUS
 10
195.524368
 20
72.123436
 11
217.024368
 21
72.123436
  0
LINE
  8
0
  6
CONTINUOUS
 10
195.524368
 20
67.123436
 11
217.024368
 21
67.123436
  0
ARC
  8
0
  6
CONTINUOUS
 10
195.524368
 20
69.623436
 40
2.500000
 50
90.000000
 51
180.000000
  0
ARC
  8
0
  6
CONTINUOUS
 10
195.524368
 20
69.623436
 40
2.500000
 50
180.000000
 51
270.000000
  0
LINE
  8
0
  6
CENTER
 10
-4.506250
 20
56.623436
 11
196.065628
 21
56.623436
  0
LINE
  8
0
  6
DASHED
 10
175.024368
 20
97.873436
 11
184.024368
 21
97.873436
  0
LINE
  8
0
  6
DASHED
 10
175.024368
 20
91.373436
 11
184.024368
 21
91.373436
  0
LINE
  8
0
  6
DASHED
 10
175.024368
 20
21.873438
 11
184.024368
 21
21.873438
  0
LINE
  8
0
  6
DASHED
 10
175.024368
 20
15.373437
 11
184.024368
 21
15.373437
  0
LINE
  8
0
  6
PHANTOM
 10
173.224380
 20
94.623436
 11
185.704376
 21
94.623436
  0
LINE
  8
0
  6
PHANTOM
 10
172.024368
 20
18.623438
 11
186.904373
 21
18.623438
  0
LINE
  8
0
  6
CENTER
 10
157.425003
 20
69.623436
 11
223.766678
 21
69.623436
  0
LINE
  8
0
  6
CONTINUOUS
 10
65.024376
 20
91.032738
 11
174.520279
 21
91.032738
  0
LINE
  8
0
  6
CONTINUOUS
 10
65.024376
 20
22.214136
 11
174.520279
 21
22.214136
  0
ARC
  8
0
  6
CONTINUOUS
 10
177.024368
 20
99.623436
 40
2.000000
 50
90.000000
 51
180.000000
  0
ARC
  8
0
  6
CONTINUOUS
 10
177.024368
 20
13.623437
 40
2.000000
 50
180.000000
 51
270.000000
  0
LINE
  8
0
  6
CENTER
 10
328.024384
 20
2.592187
 11
328.024384
 21
139.767502
  0
LINE
  8
0
  6
CONTINUOUS
 10
283.024384
 20
17.322247
 11
283.024384
 21
95.924339
  0
LINE
  8
0
  6
CONTINUOUS
 10
373.024384
 20
17.322388
 11
373.024384
 21
95.924438
  0
LINE
  8
0
  6
CONTINUOUS
 10
368.111572
 20
100.923737
 11
328.024384
 21
101.623436
  0
LINE
  8
0
  6
CONTINUOUS
 10
368.111572
 20
12.323157
 11
328.024384
 21
11.623437
  0
LINE
  8
0
  6
CONTINUOUS
 10
287.937073
 20
100.923538
 11
328.024384
 21
101.623436
  0
LINE
  8
0
  6
CONTINUOUS
 10
287.937164
 20
12.323007
 11
328.024384
 21
11.623437
  0
ARC
  8
0
  6
CONTINUOUS
 10
368.024384
 20
95.924438
 40
5.000000
 50
0.000000
 51
89.000092
  0
ARC
  8
0
  6
CONTINUOUS
 10
288.024384
 20
95.924339
 40
5.000000
 50
91.000610
 51
180.000000
  0
ARC
  8
0
  6
CONTINUOUS
 10
288.024384
 20
17.322277
 40
5.000000
 50
180.000000
 51
269.000488
  0
ARC
  8
0
  6
CONTINUOUS
 10
368.024384
 20
17.322388
 40
5.000000
 50
-88.999817
 51
0.000000
  0
CIRCLE
  8
0
  6
CONTINUOUS
 10
366.024384
 20
94.623436
 40
3.250000
  0
CIRCLE
  8
0
  6
CONTINUOUS
 10
290.024384
 20
94.623436
 40
3.250000
  0
CIRCLE
  8
0
  6
CONTINUOUS
 10
366.024384
 20
18.623438
 40
3.250000
  0
CIRCLE
  8
0
  6
CONTINUOUS
 10
290.024384
 20
18.623438
 40
3.250000
  0
CIRCLE
  8
0
  6
CONTINUOUS
 10
328.024384
 20
69.623436
 40
20.000000
  0
LINE
  8
0
  6
CONTINUOUS
 10
368.024384
 20
70.984840
 11
368.024384
 21
42.262028
  0
ARC
  8
0
  6
CONTINUOUS
 10
328.024384
 20
56.623436
 40
42.500000
 50
270.000000
 51
340.250092
  0
ARC
  8
0
  6
CONTINUOUS
 10
328.024384
 20
56.623436
 40
42.500000
 50
19.749901
 51
90.000000
  0
LINE
  8
0
  6
CONTINUOUS
 10
288.024384
 20
70.984840
 11
288.024384
 21
42.262028
  0
ARC
  8
0
  6
CONTINUOUS
 10
328.024384
 20
56.623436
 40
42.500000
 50
-160.250107
 51
-90.000000
  0
ARC
  8
0
  6
CONTINUOUS
 10
328.024384
 20
56.623436
 40
42.500000
 50
90.000000
 51
160.250107
  0
LINE
  8
0
  6
CENTER
 10
366.024384
 20
100.417137
 11
366.024384
 21
88.867233
  0
LINE
  8
0
  6
CENTER
 10
366.024384
 20
13.529687
 11
366.024384
 21
24.160936
  0
LINE
  8
0
  6
CENTER
 10
290.024384
 20
100.154739
 11
290.024384
 21
88.079735
  0
LINE
  8
0
  6
CENTER
 10
290.024384
 20
13.529687
 11
290.024384
 21
24.554688
  0
LINE
  8
0
  6
CENTER
 10
284.974365
 20
18.623438
 11
294.686890
 21
18.623438
  0
LINE
  8
0
  6
CENTER
 10
372.255676
 20
18.623438
 11
360.443176
 21
18.623438
  0
LINE
  8
0
  6
CENTER
 10
284.449371
 20
94.623436
 11
295.474365
 21
94.623436
  0
LINE
  8
0
  6
CENTER
 10
371.993164
 20
94.623436
 11
360.443176
 21
94.623436
  0
LINE
  8
0
  6
CONTINUOUS
 10
318.524384
 20
72.123436
 11
323.524384
 21
72.123436
  0
LINE
  8
0
  6
CONTINUOUS
 10
318.524384
 20
67.123436
 11
323.524384
 21
67.123436
  0
LINE
  8
0
  6
CONTINUOUS
 10
318.524384
 20
72.123436
 11
318.524384
 21
67.123436
  0
LINE
  8
0
  6
CONTINUOUS
 10
323.524384
 20
67.123436
 11
323.524384
 21
72.123436
  0
ARC
  8
0
  6
CONTINUOUS
 10
328.024384
 20
69.623436
 40
7.500000
 50
-160.528793
 51
160.528793
  0
LINE
  8
0
  6
CENTER
 10
305.178680
 20
69.623436
 11
352.159576
 21
69.623436
  0
LINE
  8
0
  6
CONTINUOUS
 10
321.649384
 20
39.176659
 11
321.649384
 21
33.623436
  0
LINE
  8
0
  6
CONTINUOUS
 10
324.836884
 20
41.193748
 11
324.836884
 21
43.185936
  0
LINE
  8
0
  6
CONTINUOUS
 10
331.211884
 20
41.193748
 11
331.211884
 21
43.185936
  0
LINE
  8
0
  6
CONTINUOUS
 10
327.401764
 20
42.015526
 11
327.401764
 21
34.669338
  0
LINE
  8
0
  6
CONTINUOUS
 10
328.597168
 20
42.015526
 11
328.597168
 21
34.669338
  0
LINE
  8
0
  6
CONTINUOUS
 10
334.872467
 20
42.015526
 11
334.872467
 21
34.619526
  0
LINE
  8
0
  6
CONTINUOUS
 10
335.968170
 20
38.093407
 11
335.968170
 21
34.619526
  0
LINE
  8
0
  6
CONTINUOUS
 10
320.136871
 20
41.915916
 11
317.064972
 21
41.915916
  0
LINE
  8
0
  6
CONTINUOUS
 10
317.064972
 20
41.915916
 11
316.345184
 21
41.023418
  0
LINE
  8
0
  6
CONTINUOUS
 10
316.431763
 20
43.185936
 11
315.274384
 21
41.703938
  0
LINE
  8
0
  6
CONTINUOUS
 10
316.345184
 20
35.514359
 11
317.076477
 21
34.744045
  0
LINE
  8
0
  6
CONTINUOUS
 10
315.274384
 20
34.864288
 11
316.504181
 21
33.623436
  0
LINE
  8
0
  6
CONTINUOUS
 10
315.274384
 20
41.703938
 11
315.274384
 21
34.864288
  0
LINE
  8
0
  6
CONTINUOUS
 10
316.345184
 20
41.023418
 11
316.345184
 21
35.514359
  0
LINE
  8
0
  6
CONTINUOUS
 10
320.727966
 20
41.344479
 11
320.124786
 21
41.915916
  0
LINE
  8
0
  6
CONTINUOUS
 10
320.718384
 20
43.185936
 11
321.649384
 21
42.152798
  0
LINE
  8
0
  6
CONTINUOUS
 10
320.727966
 20
41.193748
 11
321.649384
 21
41.193748
  0
LINE
  8
0
  6
CONTINUOUS
 10
316.431763
 20
43.185936
 11
320.718384
 21
43.185936
  0
LINE
  8
0
  6
CONTINUOUS
 10
320.727966
 20
38.130756
 11
319.059570
 21
38.130756
  0
LINE
  8
0
  6
CONTINUOUS
 10
320.727966
 20
37.134666
 11
320.727966
 21
37.931545
  0
LINE
  8
0
  6
CONTINUOUS
 10
318.735779
 20
34.744045
 11
317.076477
 21
34.744045
  0
ARC
  8
0
  6
CONTINUOUS
 10
318.735779
 20
36.736225
 40
1.992188
 50
-89.999786
 51
0.000109
  0
LINE
  8
0
  6
CONTINUOUS
 10
320.727966
 20
34.385696
 11
320.727966
 21
33.623436
  0
LINE
  8
0
  6
CONTINUOUS
 10
321.649384
 20
42.152798
 11
321.649384
 21
41.193748
  0
LINE
  8
0
  6
CONTINUOUS
 10
320.727966
 20
38.130756
 11
320.727966
 21
36.736225
  0
LINE
  8
0
  6
CONTINUOUS
 10
319.059570
 20
39.176659
 11
319.059570
 21
38.130756
  0
LINE
  8
0
  6
CONTINUOUS
 10
320.727966
 20
33.623436
 11
321.649384
 21
33.623436
  0
LINE
  8
0
  6
CONTINUOUS
 10
320.727966
 20
34.385696
 11
319.819366
 21
33.623436
  0
LINE
  8
0
  6
CONTINUOUS
 10
328.597168
 20
34.669338
 11
328.995575
 21
34.669338
  0
LINE
  8
0
  6
CONTINUOUS
 10
326.928680
 20
34.669338
 11
326.928680
 21
33.623436
  0
LINE
  8
0
  6
CONTINUOUS
 10
328.995575
 20
34.669338
 11
328.995575
 21
33.623436
  0
LINE
  8
0
  6
CONTINUOUS
 10
330.546967
 20
41.193748
 11
331.211884
 21
41.193748
  0
LINE
  8
0
  6
CONTINUOUS
 10
324.836884
 20
41.193748
 11
325.544464
 21
41.193748
  0
LINE
  8
0
  6
CONTINUOUS
 10
324.836884
 20
43.185936
 11
331.211884
 21
43.185936
  0
LINE
  8
0
  6
CONTINUOUS
 10
326.928680
 20
33.623436
 11
328.995575
 21
33.623436
  0
LINE
  8
0
  6
CONTINUOUS
 10
326.928680
 20
34.669338
 11
327.401764
 21
34.669338
  0
ARC
  8
0
  6
CONTINUOUS
 10
338.221863
 20
40.633446
 40
2.552490
 50
-73.981873
 51
90.003510
  0
ARC
  8
0
  6
CONTINUOUS
 10
338.221863
 20
40.633446
 40
1.557192
 50
-82.585274
 51
62.411850
  0
LINE
  8
0
  6
CONTINUOUS
 10
334.399384
 20
43.185936
 11
338.221863
 21
43.185936
  0
LINE
  8
0
  6
CONTINUOUS
 10
334.399384
 20
43.185936
 11
334.399384
 21
42.015526
  0
LINE
  8
0
  6
CONTINUOUS
 10
335.968170
 20
42.015526
 11
335.968170
 21
39.089275
  0
LINE
  8
0
  6
CONTINUOUS
 10
338.926270
 20
38.180058
 11
340.506073
 21
34.619526
  0
LINE
  8
0
  6
CONTINUOUS
 10
338.008667
 20
38.093407
 11
339.503662
 21
34.619526
  0
LINE
  8
0
  6
CONTINUOUS
 10
334.399384
 20
34.619526
 11
334.872467
 21
34.619526
  0
LINE
  8
0
  6
CONTINUOUS
 10
335.968170
 20
34.619526
 11
336.403961
 21
34.619526
  0
LINE
  8
0
  6
CONTINUOUS
 10
336.403961
 20
33.623436
 11
334.399384
 21
33.623436
  0
LINE
  8
0
  6
CONTINUOUS
 10
339.305176
 20
34.619526
 11
339.503662
 21
34.619526
  0
LINE
  8
0
  6
CONTINUOUS
 10
340.506073
 20
34.619526
 11
340.774384
 21
34.619526
  0
LINE
  8
0
  6
CONTINUOUS
 10
339.305176
 20
33.623436
 11
340.774384
 21
33.623436
  0
LINE
  8
0
  6
CONTINUOUS
 10
340.774384
 20
34.619526
 11
340.774384
 21
33.623436
  0
LINE
  8
0
  6
CONTINUOUS
 10
339.305176
 20
34.619526
 11
339.305176
 21
33.623436
  0
LINE
  8
0
  6
CONTINUOUS
 10
336.403961
 20
34.619526
 11
336.403961
 21
33.623436
  0
LINE
  8
0
  6
CONTINUOUS
 10
334.399384
 20
34.619526
 11
334.399384
 21
33.623436
  0
LINE
  8
0
  6
CONTINUOUS
 10
325.886871
 20
42.015526
 11
325.544464
 21
41.193748
  0
LINE
  8
0
  6
CONTINUOUS
 10
330.258179
 20
42.015526
 11
330.546967
 21
41.193748
  0
LINE
  8
0
  6
CONTINUOUS
 10
328.597168
 20
42.015526
 11
330.258179
 21
42.015526
  0
LINE
  8
0
  6
CONTINUOUS
 10
327.401764
 20
42.015526
 11
325.886871
 21
42.015526
  0
LINE
  8
0
  6
CONTINUOUS
 10
334.399384
 20
42.015526
 11
334.872467
 21
42.015526
  0
LINE
  8
0
  6
CONTINUOUS
 10
335.968170
 20
42.015526
 11
338.943085
 21
42.013588
  0
LINE
  8
0
  6
CONTINUOUS
 10
320.727966
 20
41.344479
 11
320.727966
 21
41.193748
  0
LINE
  8
0
  6
CONTINUOUS
 10
316.504181
 20
33.623436
 11
319.819366
 21
33.623436
  0
LINE
  8
0
  6
CONTINUOUS
 10
335.968170
 20
39.089275
 11
338.422882
 21
39.089275
  0
LINE
  8
0
  6
CONTINUOUS
 10
335.968170
 20
38.093407
 11
338.008667
 21
38.093407
  0
LINE
  8
0
  6
CONTINUOUS
 10
319.059570
 20
39.176659
 11
321.649384
 21
39.176659
  0
LINE
  8
0
  6
CONTINUOUS
 10
301.923889
 20
103.623436
 11
304.524384
 21
103.623436
  0
LINE
  8
0
  6
CONTINUOUS
 10
301.923889
 20
9.623437
 11
354.124878
 21
9.623437
  0
LINE
  8
0
  6
CONTINUOUS
 10
281.024384
 20
82.723938
 11
281.024384
 21
30.522926
  0
LINE
  8
0
  6
CONTINUOUS
 10
375.024384
 20
30.522938
 11
375.024384
 21
82.723938
  0
LINE
  8
0
  6
CONTINUOUS
 10
359.575073
 20
101.072739
 11
359.074677
 21
101.573235
  0
LINE
  8
0
  6
CONTINUOUS
 10
296.473572
 20
101.072639
 11
296.974060
 21
101.573235
  0
LINE
  8
0
  6
CONTINUOUS
 10
296.473785
 20
12.174027
 11
296.974060
 21
11.673687
  0
LINE
  8
0
  6
CONTINUOUS
 10
359.074677
 20
11.673687
 11
359.575073
 21
12.174147
  0
ARC
  8
0
  6
CONTINUOUS
 10
354.124878
 20
96.623436
 40
7.000000
 50
45.000141
 51
90.000000
  0
ARC
  8
0
  6
CONTINUOUS
 10
368.024384
 20
82.723938
 40
7.000000
 50
0.000000
 51
44.415531
  0
ARC
  8
0
  6
CONTINUOUS
 10
368.024384
 20
30.522917
 40
7.000000
 50
-44.415192
 51
0.000000
  0
ARC
  8
0
  6
CONTINUOUS
 10
354.124878
 20
16.623438
 40
7.000000
 50
270.000000
 51
315.000000
  0
ARC
  8
0
  6
CONTINUOUS
 10
301.923889
 20
16.623438
 40
7.000000
 50
224.999893
 51
270.000000
  0
ARC
  8
0
  6
CONTINUOUS
 10
288.024384
 20
30.522987
 40
7.000000
 50
180.000000
 51
224.415497
  0
ARC
  8
0
  6
CONTINUOUS
 10
301.923889
 20
96.623436
 40
7.000000
 50
90.000000
 51
135.000198
  0
ARC
  8
0
  6
CONTINUOUS
 10
288.024384
 20
82.723938
 40
7.000000
 50
135.585205
 51
180.000000
  0
LINE
  8
0
  6
CENTER
 10
272.451874
 20
56.623436
 11
385.543427
 21
56.623436
  0
LINE
  8
0
  6
CONTINUOUS
 10
184.024368
 20
284.255951
 11
184.024368
 21
194.255936
  0
LINE
  8
0
  6
CONTINUOUS
 10
175.024460
 20
268.255951
 11
175.024460
 21
282.255951
  0
LINE
  8
0
  6
CONTINUOUS
 10
65.024452
 20
284.255951
 11
184.024460
 21
284.255951
  0
LINE
  8
0
  6
CONTINUOUS
 10
65.024452
 20
194.255936
 11
184.024460
 21
194.255936
  0
LINE
  8
0
  6
CONTINUOUS
 10
65.024452
 20
284.255951
 11
65.024452
 21
264.255920
  0
LINE
  8
0
  6
CONTINUOUS
 10
175.024460
 20
268.255951
 11
65.024452
 21
268.255951
  0
ARC
  8
0
  6
CONTINUOUS
 10
177.024460
 20
282.255951
 40
2.000000
 50
90.000000
 51
180.000000
  0
ARC
  8
0
  6
CONTINUOUS
 10
177.024460
 20
196.255936
 40
2.000000
 50
180.000000
 51
270.000000
  0
LINE
  8
0
  6
CONTINUOUS
 10
55.524376
 20
284.255951
 11
65.024452
 21
284.255951
  0
LINE
  8
0
  6
CONTINUOUS
 10
65.024452
 20
268.255951
 11
55.524376
 21
268.255951
  0
LINE
  8
0
  6
CONTINUOUS
 10
55.524376
 20
194.255936
 11
65.024452
 21
194.255936
  0
LINE
  8
0
  6
CONTINUOUS
 10
175.024460
 20
210.255936
 11
65.024452
 21
210.255936
  0
LINE
  8
0
  6
CONTINUOUS
 10
65.024452
 20
210.255936
 11
55.524376
 21
210.255936
  0
LINE
  8
0
  6
CONTINUOUS
 10
175.024460
 20
210.255936
 11
175.024460
 21
196.255920
  0
LINE
  8
0
  6
CONTINUOUS
 10
65.024452
 20
214.255920
 11
65.024452
 21
194.255936
  0
LINE
  8
0
  6
CENTER
 10
228.074585
 20
239.255936
 11
-1.578438
 21
239.255936
  0
LINE
  8
0
  6
CONTINUOUS
 10
217.024368
 20
246.755936
 11
217.024368
 21
229.755936
  0
LINE
  8
0
  6
CONTINUOUS
 10
190.024368
 20
247.755936
 11
190.024368
 21
230.755936
  0
LINE
  8
0
  6
CONTINUOUS
 10
190.024368
 20
246.755936
 11
217.024368
 21
246.755936
  0
LINE
  8
0
  6
CONTINUOUS
 10
190.024368
 20
231.755936
 11
193.024368
 21
231.755936
  0
LINE
  8
0
  6
CONTINUOUS
 10
187.024368
 20
259.255951
 11
184.024368
 21
259.255951
  0
LINE
  8
0
  6
CONTINUOUS
 10
187.024368
 20
219.255936
 11
184.024368
 21
219.255936
  0
LINE
  8
0
  6
CONTINUOUS
 10
188.024368
 20
220.255936
 11
188.024368
 21
258.255951
  0
ARC
  8
0
  6
CONTINUOUS
 10
187.024368
 20
258.255951
 40
1.000000
 50
0.000000
 51
90.000000
  0
ARC
  8
0
  6
CONTINUOUS
 10
187.024368
 20
220.255936
 40
1.000000
 50
-90.000000
 51
0.000000
  0
LINE
  8
0
  6
CONTINUOUS
 10
188.024368
 20
247.755936
 11
190.024368
 21
247.755936
  0
LINE
  8
0
  6
CONTINUOUS
 10
188.024368
 20
230.755936
 11
190.024368
 21
230.755936
  0
LINE
  8
0
  6
CONTINUOUS
 10
193.024368
 20
232.184937
 11
193.024368
 21
229.755936
  0
LINE
  8
0
  6
CONTINUOUS
 10
193.024368
 20
229.755936
 11
217.024368
 21
229.755936
  0
LINE
  8
0
  6
CONTINUOUS
 10
193.024368
 20
232.184937
 11
217.024368
 21
232.184937
  0
LINE
  8
0
  6
DASHED
 10
175.024368
 20
280.505951
 11
184.024368
 21
280.505951
  0
LINE
  8
0
  6
DASHED
 10
175.024368
 20
274.005951
 11
184.024368
 21
274.005951
  0
LINE
  8
0
  6
PHANTOM
 10
173.224380
 20
277.255951
 11
185.704376
 21
277.255951
  0
LINE
  8
0
  6
DASHED
 10
175.024368
 20
204.505936
 11
184.024368
 21
204.505936
  0
LINE
  8
0
  6
PHANTOM
 10
172.024368
 20
201.255936
 11
186.904373
 21
201.255936
  0
LINE
  8
0
  6
DASHED
 10
175.024368
 20
198.005936
 11
184.024368
 21
198.005936
  0
LINE
  8
0
  6
CONTINUOUS
 10
55.524376
 20
286.255951
 11
55.524376
 21
246.755920
  0
LINE
  8
0
  6
CONTINUOUS
 10
55.524376
 20
268.255951
 11
11.549365
 21
268.255951
  0
LINE
  8
0
  6
CONTINUOUS
 10
55.524376
 20
210.255936
 11
11.549365
 21
210.255936
  0
LINE
  8
0
  6
CONTINUOUS
 10
13.024375
 20
286.255951
 11
55.524376
 21
286.255951
  0
LINE
  8
0
  6
CONTINUOUS
 10
13.024375
 20
192.255936
 11
55.524376
 21
192.255936
  0
ARC
  8
0
  6
CONTINUOUS
 10
13.024375
 20
281.255951
 40
5.000000
 50
90.000000
 51
180.000000
  0
ARC
  8
0
  6
CONTINUOUS
 10
13.024375
 20
197.255936
 40
5.000000
 50
180.000000
 51
270.000000
  0
LINE
  8
0
  6
CONTINUOUS
 10
8.024375
 20
281.255951
 11
8.024375
 21
197.255920
  0
LINE
  8
0
  6
CONTINUOUS
 10
57.524376
 20
103.123436
 11
104.024376
 21
103.123436
  0
LINE
  8
0
  6
CONTINUOUS
 10
106.024368
 20
133.123444
 11
106.024376
 21
105.123436
  0
LINE
  8
0
  6
CONTINUOUS
 10
56.024376
 20
133.123444
 11
56.024376
 21
105.123436
  0
LINE
  8
0
  6
CONTINUOUS
 10
54.024376
 20
115.123436
 11
106.024376
 21
115.123436
  0
LINE
  8
0
  6
CONTINUOUS
 10
104.024376
 20
103.123436
 11
106.024376
 21
105.123436
  0
LINE
  8
0
  6
CONTINUOUS
 10
56.024376
 20
105.123436
 11
58.024376
 21
103.123436
  0
LINE
  8
0
  6
CONTINUOUS
 10
56.024376
 20
105.123436
 11
106.024376
 21
105.123436
  0
LINE
  8
0
  6
CONTINUOUS
 10
57.024376
 20
134.123444
 11
105.024368
 21
134.123444
  0
LINE
  8
0
  6
CONTINUOUS
 10
105.024368
 20
134.123444
 11
106.024368
 21
133.123444
  0
LINE
  8
0
  6
CONTINUOUS
 10
57.024376
 20
134.123444
 11
56.024376
 21
133.123444
  0
LINE
  8
0
  6
CONTINUOUS
 10
56.024376
 20
133.123444
 11
106.024368
 21
133.123444
  0
LINE
  8
0
  6
CENTER
 10
48.080627
 20
124.623436
 11
60.155624
 21
124.623436
  0
LINE
  8
0
  6
CONTINUOUS
 10
54.024384
 20
131.123444
 11
54.024376
 21
115.123436
  0
LINE
  8
0
  6
CONTINUOUS
 10
55.024376
 20
132.123444
 11
56.024376
 21
132.123444
  0
ARC
  8
0
  6
CONTINUOUS
 10
55.024384
 20
131.123444
 40
1.000000
 50
90.000000
 51
180.000000
  0
LINE
  8
0
  6
CONTINUOUS
 10
50.524384
 20
128.623444
 11
50.524384
 21
120.623436
  0
LINE
  8
0
  6
CONTINUOUS
 10
50.524384
 20
128.623444
 11
54.024384
 21
130.123444
  0
LINE
  8
0
  6
CONTINUOUS
 10
50.524376
 20
120.623436
 11
54.024376
 21
119.123436
  0
LINE
  8
0
  6
CENTER
 10
81.024376
 20
98.429688
 11
81.024376
 21
139.510941
  0
LINE
  8
0
  6
CONTINUOUS
 10
57.524376
 20
103.123436
 11
57.524376
 21
101.623436
  0
LINE
  8
0
  6
CONTINUOUS
 10
103.524376
 20
103.123436
 11
103.524376
 21
101.623436
  0
LINE
  8
0
  6
CONTINUOUS
 10
305.024384
 20
103.123436
 11
351.024384
 21
103.123436
  0
LINE
  8
0
  6
CONTINUOUS
 10
353.024384
 20
133.123444
 11
353.024384
 21
105.123436
  0
LINE
  8
0
  6
CONTINUOUS
 10
303.024384
 20
133.123444
 11
303.024384
 21
105.123436
  0
LINE
  8
0
  6
CONTINUOUS
 10
303.024384
 20
115.123436
 11
353.024384
 21
115.123436
  0
LINE
  8
0
  6
CONTINUOUS
 10
351.024384
 20
103.123436
 11
353.024384
 21
105.123436
  0
LINE
  8
0
  6
CONTINUOUS
 10
303.024384
 20
105.123436
 11
305.024384
 21
103.123436
  0
LINE
  8
0
  6
CONTINUOUS
 10
303.024384
 20
105.123436
 11
353.024384
 21
105.123436
  0
LINE
  8
0
  6
CONTINUOUS
 10
304.024384
 20
134.123444
 11
352.024384
 21
134.123444
  0
LINE
  8
0
  6
CONTINUOUS
 10
352.024384
 20
134.123444
 11
353.024384
 21
133.123444
  0
LINE
  8
0
  6
CONTINUOUS
 10
304.024384
 20
134.123444
 11
303.024384
 21
133.123444
  0
LINE
  8
0
  6
CONTINUOUS
 10
303.024384
 20
133.123444
 11
353.024384
 21
133.123444
  0
LINE
  8
0
  6
CONTINUOUS
 10
350.524384
 20
103.123436
 11
350.524384
 21
101.230705
  0
LINE
  8
0
  6
CONTINUOUS
 10
305.524384
 20
103.123436
 11
305.524384
 21
101.230705
  0
LINE
  8
0
  6
CONTINUOUS
 10
351.524384
 20
103.623436
 11
354.124878
 21
103.623436
  0
LINE
  8
0
  6
CONTINUOUS
 10
55.024376
 20
246.755920
 11
56.024376
 21
246.755920
  0
ARC
  8
0
  6
CONTINUOUS
 10
55.024395
 20
245.755920
 40
1.000000
 50
90.000000
 51
180.000000
  0
LINE
  8
0
  6
CONTINUOUS
 10
50.524391
 20
243.255920
 11
50.524391
 21
235.255920
  0
LINE
  8
0
  6
CONTINUOUS
 10
50.524391
 20
243.255920
 11
54.024391
 21
244.755920
  0
LINE
  8
0
  6
CONTINUOUS
 10
50.524376
 20
235.255920
 11
54.024376
 21
233.755920
  0
LINE
  8
0
  6
CONTINUOUS
 10
54.024391
 20
245.755920
 11
54.024391
 21
232.755920
  0
LINE
  8
0
  6
CONTINUOUS
 10
55.024376
 20
231.755920
 11
56.024376
 21
231.755920
  0
ARC
  8
0
  6
CONTINUOUS
 10
55.024395
 20
232.755920
 40
1.000000
 50
-180.000000
 51
-90.000000
  0
LINE
  8
0
  6
CONTINUOUS
 10
56.024376
 20
216.255920
 11
56.024376
 21
262.255920
  0
LINE
  8
0
  6
CONTINUOUS
 10
58.024376
 20
264.255920
 11
56.024376
 21
262.255920
  0
LINE
  8
0
  6
CONTINUOUS
 10
58.024376
 20
264.255920
 11
104.024368
 21
264.255920
  0
LINE
  8
0
  6
CONTINUOUS
 10
98.524376
 20
259.755920
 11
98.524376
 21
264.255920
  0
ARC
  8
0
  6
CONTINUOUS
 10
101.524376
 20
259.755920
 40
3.000000
 50
180.000000
 51
270.000000
  0
LINE
  8
0
  6
CONTINUOUS
 10
101.524376
 20
256.755920
 11
106.024368
 21
256.755920
  0
CIRCLE
  8
0
  6
CONTINUOUS
 10
102.524376
 20
260.755920
 40
2.250000
  0
LINE
  8
0
  6
CONTINUOUS
 10
106.024368
 20
216.255920
 11
106.024368
 21
262.255920
  0
LINE
  8
0
  6
CONTINUOUS
 10
104.024368
 20
264.255920
 11
106.024368
 21
262.255920
  0
LINE
  8
0
  6
CONTINUOUS
 10
104.024368
 20
214.255920
 11
106.024368
 21
216.255920
  0
LINE
  8
0
  6
CONTINUOUS
 10
104.024368
 20
214.255920
 11
58.024376
 21
214.255920
  0
LINE
  8
0
  6
CONTINUOUS
 10
56.024376
 20
216.255920
 11
58.024376
 21
214.255920
  0
LINE
  8
0
  6
CONTINUOUS
 10
60.524376
 20
221.755920
 11
56.024384
 21
221.755920
  0
CIRCLE
  8
0
  6
CONTINUOUS
 10
59.524376
 20
217.755920
 40
2.250000
  0
ARC
  8
0
  6
CONTINUOUS
 10
60.524376
 20
218.755920
 40
3.000000
 50
0.000000
 51
90.000000
  0
LINE
  8
0
  6
CONTINUOUS
 10
63.524376
 20
218.755920
 11
63.524376
 21
214.255920
  0
LINE
  8
0
  6
CENTER
 10
81.024376
 20
206.790131
 11
81.024376
 21
270.922180
  0
LINE
  8
0
  6
CONTINUOUS
 10
58.438595
 20
263.255951
 11
57.024380
 21
261.841736
  0
LINE
  8
0
  6
CONTINUOUS
 10
57.024380
 20
221.755936
 11
57.024380
 21
261.841736
  0
LINE
  8
0
  6
CONTINUOUS
 10
98.524376
 20
263.255951
 11
58.438595
 21
263.255951
  0
LINE
  8
0
  6
CONTINUOUS
 10
105.024368
 20
256.755951
 11
105.024368
 21
216.670151
  0
LINE
  8
0
  6
CONTINUOUS
 10
63.524376
 20
215.255936
 11
103.610153
 21
215.255936
  0
LINE
  8
0
  6
CONTINUOUS
 10
103.610153
 20
215.255936
 11
105.024368
 21
216.670151
  0
LINE
  8
0
  6
CONTINUOUS
 10
55.524376
 20
231.755920
 11
55.524376
 21
192.255936
  0
TEXT
  8
0
 10
-4.000000
 20
2.000000
 40
4.000000
 41
1.000000
  1
GFM-15-5~30-T90WT
 50
0.000000
  0
ENDSEC
  0
EOF
