  0
SECTION
  2
HEADER
  9
$CLAYER
  8
1
  9
$LTSCALE
 40
3.0
  0
ENDSEC
  0
SECTION
  2
TABLES
  0
TABLE
  2
LTYPE
 70
     4
  0
LTYPE
  2
CONTINUOUS
  3
solid line
 70
    64
 72
    65
 73
     0
 40
0.0
  0
LTYPE
  2
DASHED
  3
__ __ __ __ __ __ __ __ __ __ __ __ __ __ __
 70
    64
 72
    65
 73
     2
 40
0.75
 49
0.5
 49
-0.25
  0
LTYPE
  2
CENTER
  3
____ _ ____ _ ____ _ ____ _ ____ _ ____ _ ____
 70
    64
 72
    65
 73
     4
 40
2.0
 49
1.25
 49
-0.25
 49
0.25
 49
-0.25
  0
LTYPE
  2
PHANTOM
  3
_____ _ _ _____ _ _ _____ _ _ _____ _ _ ____
 70
    64
 72
    65
 73
     6
 40
2.5
 49
1.25
 49
-0.25
 49
0.25
 49
-0.25
 49
0.25
 49
-0.25
  0
ENDTAB
  0
TABLE
  2
LAYER
 70
     1
  0
LAYER
  2
0
 70
    64
 62
     7
  6
CONTINUOUS
  0
ENDTAB
  0
TABLE
  2
STYLE
 70
     1
  0
STYLE
  2
STANDARD
 70
     0
 40
0.000000
 41
1.000000
 50
0.000000
 71
     0
 42
3.000000
  3
txt
  4
BIGFONT
  0
ENDTAB
  0
ENDSEC
  0
SECTION
  2
BLOCKS
  0
ENDSEC
  0
SECTION
  2
ENTITIES
  0
LINE
  8
0
  6
CONTINUOUS
 10
9.457339
 20
59.629375
 11
9.457339
 21
104.629372
  0
LINE
  8
0
  6
CONTINUOUS
 10
9.457339
 20
59.629375
 11
9.457339
 21
14.629375
  0
LINE
  8
0
  6
CONTINUOUS
 10
9.957339
 20
108.629372
 11
9.957339
 21
14.629375
  0
LINE
  8
0
  6
CONTINUOUS
 10
15.047529
 20
112.629372
 11
29.957338
 21
112.629372
  0
LINE
  8
0
  6
CONTINUOUS
 10
15.047529
 20
6.629375
 11
29.957338
 21
6.629375
  0
LINE
  8
0
  6
CONTINUOUS
 10
9.957339
 20
14.629375
 11
9.957339
 21
10.629375
  0
LINE
  8
0
  6
CONTINUOUS
 10
10.575369
 20
109.865479
 11
9.957339
 21
108.629372
  0
ARC
  8
0
  6
CONTINUOUS
 10
15.047529
 20
107.629372
 40
5.000000
 50
90.000000
 51
153.435196
  0
LINE
  8
0
  6
CONTINUOUS
 10
10.575369
 20
9.393305
 11
9.957339
 21
10.629375
  0
ARC
  8
0
  6
CONTINUOUS
 10
15.047529
 20
11.629375
 40
5.000000
 50
206.565002
 51
270.000000
  0
LINE
  8
0
  6
CONTINUOUS
 10
9.457339
 20
14.629375
 11
9.957339
 21
14.129375
  0
LINE
  8
0
  6
CONTINUOUS
 10
9.457339
 20
104.629372
 11
9.957339
 21
105.129372
  0
LINE
  8
0
  6
CONTINUOUS
 10
29.957338
 20
102.252777
 11
11.832339
 21
102.252777
  0
LINE
  8
0
  6
CONTINUOUS
 10
29.957338
 20
17.006025
 11
11.832339
 21
17.006025
  0
LINE
  8
0
  6
CONTINUOUS
 10
29.957338
 20
6.629375
 11
29.957338
 21
112.629372
  0
LINE
  8
0
  6
CENTER
 10
-4.684844
 20
59.629375
 11
171.368591
 21
59.629375
  0
LINE
  8
0
  6
CENTER
 10
126.667038
 20
74.629372
 11
205.957336
 21
74.629372
  0
LINE
  8
0
  6
CONTINUOUS
 10
29.957338
 20
112.629372
 11
159.957336
 21
112.629372
  0
LINE
  8
0
  6
CONTINUOUS
 10
29.957338
 20
6.629375
 11
159.957336
 21
6.629375
  0
LINE
  8
0
  6
CONTINUOUS
 10
159.957336
 20
6.629375
 11
159.957336
 21
112.629372
  0
LINE
  8
0
  6
CONTINUOUS
 10
29.957338
 20
102.252777
 11
149.957336
 21
102.252777
  0
LINE
  8
0
  6
CONTINUOUS
 10
29.957338
 20
17.006016
 11
149.957336
 21
17.006016
  0
LINE
  8
0
  6
CONTINUOUS
 10
149.957336
 20
110.629372
 11
149.957336
 21
8.629365
  0
ARC
  8
0
  6
CONTINUOUS
 10
151.957336
 20
110.629372
 40
2.000000
 50
90.000000
 51
180.000000
  0
ARC
  8
0
  6
CONTINUOUS
 10
151.957336
 20
8.629375
 40
2.000000
 50
180.000000
 51
270.000000
  0
LINE
  8
0
  6
CENTER
 10
145.707336
 20
15.629375
 11
164.457336
 21
15.629375
  0
LINE
  8
0
  6
CENTER
 10
146.707336
 20
103.629372
 11
163.707336
 21
103.629372
  0
LINE
  8
0
  6
DASHED
 10
149.957336
 20
107.879372
 11
159.957336
 21
107.879372
  0
LINE
  8
0
  6
DASHED
 10
149.957336
 20
99.379372
 11
159.957336
 21
99.379372
  0
LINE
  8
0
  6
DASHED
 10
149.957336
 20
19.879375
 11
159.957336
 21
19.879375
  0
LINE
  8
0
  6
DASHED
 10
149.957336
 20
11.379375
 11
159.957336
 21
11.379375
  0
LINE
  8
0
  6
CONTINUOUS
 10
163.957336
 20
98.129372
 11
159.957336
 21
98.129372
  0
LINE
  8
0
  6
CONTINUOUS
 10
163.957336
 20
51.129375
 11
159.957336
 21
51.129375
  0
LINE
  8
0
  6
CONTINUOUS
 10
164.957336
 20
52.129375
 11
164.957336
 21
97.129372
  0
ARC
  8
0
  6
CONTINUOUS
 10
163.957336
 20
97.129372
 40
1.000000
 50
0.000000
 51
90.000000
  0
ARC
  8
0
  6
CONTINUOUS
 10
163.957336
 20
97.129372
 40
1.000000
 50
0.000000
 51
90.000000
  0
ARC
  8
0
  6
CONTINUOUS
 10
163.957336
 20
52.129375
 40
1.000000
 50
-90.000000
 51
0.000000
  0
LINE
  8
0
  6
CENTER
 10
314.457336
 20
-1.596285
 11
314.457336
 21
167.316330
  0
LINE
  8
0
  6
CONTINUOUS
 10
367.457336
 20
12.546515
 11
367.457336
 21
106.790771
  0
LINE
  8
0
  6
CONTINUOUS
 10
261.457336
 20
12.467785
 11
261.457336
 21
106.790573
  0
LINE
  8
0
  6
CONTINUOUS
 10
362.544525
 20
111.789978
 11
314.457336
 21
112.629372
  0
LINE
  8
0
  6
CONTINUOUS
 10
266.370026
 20
111.789871
 11
314.457336
 21
112.629372
  0
ARC
  8
0
  6
CONTINUOUS
 10
362.457336
 20
106.790771
 40
5.000000
 50
0.000000
 51
89.000137
  0
ARC
  8
0
  6
CONTINUOUS
 10
266.457336
 20
106.790672
 40
5.000000
 50
91.000610
 51
180.000000
  0
CIRCLE
  8
0
  6
CONTINUOUS
 10
358.457336
 20
103.790771
 40
4.250000
  0
CIRCLE
  8
0
  6
CONTINUOUS
 10
270.457336
 20
103.790573
 40
4.250000
  0
CIRCLE
  8
0
  6
CONTINUOUS
 10
270.457336
 20
15.467625
 40
4.250000
  0
CIRCLE
  8
0
  6
CONTINUOUS
 10
358.520935
 20
15.629375
 40
4.250000
  0
LINE
  8
0
  6
CENTER
 10
358.457336
 20
111.129372
 11
358.457336
 21
93.379372
  0
LINE
  8
0
  6
CENTER
 10
358.457336
 20
9.129375
 11
358.457336
 21
24.379375
  0
LINE
  8
0
  6
CENTER
 10
262.457336
 20
103.629372
 11
278.207336
 21
103.629372
  0
LINE
  8
0
  6
CENTER
 10
366.207336
 20
103.629372
 11
349.207336
 21
103.629372
  0
LINE
  8
0
  6
CENTER
 10
270.457336
 20
111.129372
 11
270.457336
 21
95.129372
  0
LINE
  8
0
  6
CENTER
 10
270.457336
 20
8.629375
 11
270.457336
 21
24.629375
  0
LINE
  8
0
  6
CENTER
 10
263.957336
 20
15.629375
 11
278.707336
 21
15.629375
  0
LINE
  8
0
  6
CENTER
 10
365.957336
 20
15.629375
 11
349.207336
 21
15.629375
  0
LINE
  8
0
  6
CENTER
 10
284.676239
 20
74.629372
 11
344.608765
 21
74.629372
  0
LINE
  8
0
  6
CONTINUOUS
 10
362.457336
 20
75.321678
 11
362.457336
 21
43.937016
  0
LINE
  8
0
  6
CONTINUOUS
 10
266.457336
 20
75.321678
 11
266.457336
 21
43.937023
  0
ARC
  8
0
  6
CONTINUOUS
 10
314.457336
 20
59.629375
 40
50.500000
 50
18.103800
 51
161.896194
  0
ARC
  8
0
  6
CONTINUOUS
 10
314.457336
 20
59.629375
 40
50.500000
 50
198.103806
 51
341.896210
  0
LINE
  8
0
  6
CONTINUOUS
 10
308.082336
 20
37.182606
 11
308.082336
 21
31.629375
  0
LINE
  8
0
  6
CONTINUOUS
 10
311.269836
 20
39.199696
 11
311.269836
 21
41.191875
  0
LINE
  8
0
  6
CONTINUOUS
 10
317.644836
 20
39.199696
 11
317.644836
 21
41.191875
  0
LINE
  8
0
  6
CONTINUOUS
 10
313.834747
 20
40.021465
 11
313.834747
 21
32.675274
  0
LINE
  8
0
  6
CONTINUOUS
 10
315.030151
 20
40.021465
 11
315.030151
 21
32.675274
  0
LINE
  8
0
  6
CONTINUOUS
 10
321.305450
 20
40.021465
 11
321.305450
 21
32.625465
  0
LINE
  8
0
  6
CONTINUOUS
 10
322.401154
 20
36.099346
 11
322.401154
 21
32.625465
  0
LINE
  8
0
  6
CONTINUOUS
 10
306.569824
 20
39.921856
 11
303.497925
 21
39.921856
  0
LINE
  8
0
  6
CONTINUOUS
 10
303.497925
 20
39.921856
 11
302.778137
 21
39.029354
  0
LINE
  8
0
  6
CONTINUOUS
 10
302.864746
 20
41.191875
 11
301.707336
 21
39.709873
  0
LINE
  8
0
  6
CONTINUOUS
 10
302.778137
 20
33.520306
 11
303.509430
 21
32.749985
  0
LINE
  8
0
  6
CONTINUOUS
 10
301.707336
 20
32.870235
 11
302.937134
 21
31.629375
  0
LINE
  8
0
  6
CONTINUOUS
 10
301.707336
 20
39.709873
 11
301.707336
 21
32.870235
  0
LINE
  8
0
  6
CONTINUOUS
 10
302.778137
 20
39.029354
 11
302.778137
 21
33.520306
  0
LINE
  8
0
  6
CONTINUOUS
 10
307.160950
 20
39.350414
 11
306.557739
 21
39.921856
  0
LINE
  8
0
  6
CONTINUOUS
 10
307.151337
 20
41.191875
 11
308.082336
 21
40.158733
  0
LINE
  8
0
  6
CONTINUOUS
 10
307.160950
 20
39.199696
 11
308.082336
 21
39.199696
  0
LINE
  8
0
  6
CONTINUOUS
 10
302.864746
 20
41.191875
 11
307.151337
 21
41.191875
  0
LINE
  8
0
  6
CONTINUOUS
 10
307.160950
 20
36.136696
 11
305.492554
 21
36.136696
  0
LINE
  8
0
  6
CONTINUOUS
 10
307.160950
 20
35.140606
 11
307.160950
 21
35.937485
  0
LINE
  8
0
  6
CONTINUOUS
 10
305.168732
 20
32.749985
 11
303.509430
 21
32.749985
  0
ARC
  8
0
  6
CONTINUOUS
 10
305.168732
 20
34.742176
 40
1.992188
 50
-89.999786
 51
0.000109
  0
LINE
  8
0
  6
CONTINUOUS
 10
307.160950
 20
32.391636
 11
307.160950
 21
31.629375
  0
LINE
  8
0
  6
CONTINUOUS
 10
308.082336
 20
40.158733
 11
308.082336
 21
39.199696
  0
LINE
  8
0
  6
CONTINUOUS
 10
307.160950
 20
36.136696
 11
307.160950
 21
34.742176
  0
LINE
  8
0
  6
CONTINUOUS
 10
305.492554
 20
37.182606
 11
305.492554
 21
36.136696
  0
LINE
  8
0
  6
CONTINUOUS
 10
307.160950
 20
31.629375
 11
308.082336
 21
31.629375
  0
LINE
  8
0
  6
CONTINUOUS
 10
307.160950
 20
32.391636
 11
306.252350
 21
31.629375
  0
LINE
  8
0
  6
CONTINUOUS
 10
315.030151
 20
32.675274
 11
315.428528
 21
32.675274
  0
LINE
  8
0
  6
CONTINUOUS
 10
313.361633
 20
32.675274
 11
313.361633
 21
31.629375
  0
LINE
  8
0
  6
CONTINUOUS
 10
315.428528
 20
32.675274
 11
315.428528
 21
31.629375
  0
LINE
  8
0
  6
CONTINUOUS
 10
316.979950
 20
39.199696
 11
317.644836
 21
39.199696
  0
LINE
  8
0
  6
CONTINUOUS
 10
311.269836
 20
39.199696
 11
311.977448
 21
39.199696
  0
LINE
  8
0
  6
CONTINUOUS
 10
311.269836
 20
41.191875
 11
317.644836
 21
41.191875
  0
LINE
  8
0
  6
CONTINUOUS
 10
313.361633
 20
31.629375
 11
315.428528
 21
31.629375
  0
LINE
  8
0
  6
CONTINUOUS
 10
313.361633
 20
32.675274
 11
313.834747
 21
32.675274
  0
ARC
  8
0
  6
CONTINUOUS
 10
324.654846
 20
38.639385
 40
2.552490
 50
-73.981873
 51
90.003510
  0
ARC
  8
0
  6
CONTINUOUS
 10
324.654846
 20
38.639385
 40
1.557192
 50
-82.585274
 51
62.411850
  0
LINE
  8
0
  6
CONTINUOUS
 10
320.832336
 20
41.191875
 11
324.654846
 21
41.191875
  0
LINE
  8
0
  6
CONTINUOUS
 10
320.832336
 20
41.191875
 11
320.832336
 21
40.021465
  0
LINE
  8
0
  6
CONTINUOUS
 10
322.401154
 20
40.021465
 11
322.401154
 21
37.095215
  0
LINE
  8
0
  6
CONTINUOUS
 10
325.359253
 20
36.185993
 11
326.939026
 21
32.625465
  0
LINE
  8
0
  6
CONTINUOUS
 10
324.441650
 20
36.099346
 11
325.936646
 21
32.625465
  0
LINE
  8
0
  6
CONTINUOUS
 10
320.832336
 20
32.625465
 11
321.305450
 21
32.625465
  0
LINE
  8
0
  6
CONTINUOUS
 10
322.401154
 20
32.625465
 11
322.836945
 21
32.625465
  0
LINE
  8
0
  6
CONTINUOUS
 10
322.836945
 20
31.629375
 11
320.832336
 21
31.629375
  0
LINE
  8
0
  6
CONTINUOUS
 10
325.738129
 20
32.625465
 11
325.936646
 21
32.625465
  0
LINE
  8
0
  6
CONTINUOUS
 10
326.939026
 20
32.625465
 11
327.207336
 21
32.625465
  0
LINE
  8
0
  6
CONTINUOUS
 10
325.738129
 20
31.629375
 11
327.207336
 21
31.629375
  0
LINE
  8
0
  6
CONTINUOUS
 10
327.207336
 20
32.625465
 11
327.207336
 21
31.629375
  0
LINE
  8
0
  6
CONTINUOUS
 10
325.738129
 20
32.625465
 11
325.738129
 21
31.629375
  0
LINE
  8
0
  6
CONTINUOUS
 10
322.836945
 20
32.625465
 11
322.836945
 21
31.629375
  0
LINE
  8
0
  6
CONTINUOUS
 10
320.832336
 20
32.625465
 11
320.832336
 21
31.629375
  0
LINE
  8
0
  6
CONTINUOUS
 10
312.319824
 20
40.021465
 11
311.977448
 21
39.199696
  0
LINE
  8
0
  6
CONTINUOUS
 10
316.691132
 20
40.021465
 11
316.979950
 21
39.199696
  0
LINE
  8
0
  6
CONTINUOUS
 10
315.030151
 20
40.021465
 11
316.691132
 21
40.021465
  0
LINE
  8
0
  6
CONTINUOUS
 10
313.834747
 20
40.021465
 11
312.319824
 21
40.021465
  0
LINE
  8
0
  6
CONTINUOUS
 10
320.832336
 20
40.021465
 11
321.305450
 21
40.021465
  0
LINE
  8
0
  6
CONTINUOUS
 10
322.401154
 20
40.021465
 11
325.376038
 21
40.019535
  0
LINE
  8
0
  6
CONTINUOUS
 10
307.160950
 20
39.350414
 11
307.160950
 21
39.199696
  0
LINE
  8
0
  6
CONTINUOUS
 10
302.937134
 20
31.629375
 11
306.252350
 21
31.629375
  0
LINE
  8
0
  6
CONTINUOUS
 10
322.401154
 20
37.095215
 11
324.855835
 21
37.095215
  0
LINE
  8
0
  6
CONTINUOUS
 10
322.401154
 20
36.099346
 11
324.441650
 21
36.099346
  0
LINE
  8
0
  6
CONTINUOUS
 10
305.492554
 20
37.182606
 11
308.082336
 21
37.182606
  0
LINE
  8
0
  6
CONTINUOUS
 10
196.957336
 20
65.629372
 11
196.957336
 21
83.629372
  0
LINE
  8
0
  6
CONTINUOUS
 10
166.957336
 20
83.629372
 11
196.957336
 21
83.629372
  0
LINE
  8
0
  6
CONTINUOUS
 10
166.957336
 20
65.629372
 11
196.957336
 21
65.629372
  0
LINE
  8
0
  6
CONTINUOUS
 10
166.957336
 20
84.629372
 11
166.957336
 21
64.629372
  0
LINE
  8
0
  6
CONTINUOUS
 10
164.957336
 20
84.629372
 11
166.957336
 21
84.629372
  0
LINE
  8
0
  6
CONTINUOUS
 10
164.957336
 20
64.629372
 11
166.957336
 21
64.629372
  0
ARC
  8
0
  6
CONTINUOUS
 10
172.957336
 20
74.629372
 40
3.000000
 50
90.000000
 51
270.000000
  0
LINE
  8
0
  6
CONTINUOUS
 10
172.957336
 20
77.629372
 11
196.957336
 21
77.629372
  0
LINE
  8
0
  6
CONTINUOUS
 10
172.957336
 20
71.629372
 11
196.957336
 21
71.629372
  0
LINE
  8
0
  6
CONTINUOUS
 10
308.957336
 20
77.629372
 11
308.957336
 21
71.629372
  0
LINE
  8
0
  6
CONTINUOUS
 10
302.957336
 20
77.629372
 11
302.957336
 21
71.629372
  0
LINE
  8
0
  6
CONTINUOUS
 10
302.957336
 20
77.629372
 11
308.957336
 21
77.629372
  0
LINE
  8
0
  6
CONTINUOUS
 10
302.957336
 20
71.629372
 11
308.957336
 21
71.629372
  0
ARC
  8
0
  6
CONTINUOUS
 10
314.457336
 20
74.629372
 40
9.000000
 50
-160.528793
 51
160.528793
  0
CIRCLE
  8
0
  6
CONTINUOUS
 10
314.457336
 20
74.629372
 40
23.500000
  0
LINE
  8
0
  6
CONTINUOUS
 10
362.544525
 20
7.468775
 11
314.457336
 21
6.629375
  0
LINE
  8
0
  6
CONTINUOUS
 10
266.370026
 20
7.468875
 11
314.457336
 21
6.629375
  0
ARC
  8
0
  6
CONTINUOUS
 10
362.457336
 20
12.467975
 40
5.000000
 50
-89.000137
 51
0.000000
  0
ARC
  8
0
  6
CONTINUOUS
 10
266.457336
 20
12.468075
 40
5.000000
 50
-180.000000
 51
-91.000610
  0
LINE
  8
0
  6
CENTER
 10
253.337494
 20
59.629375
 11
376.404999
 21
59.629375
  0
LINE
  8
0
  6
CENTER
 10
-6.162500
 20
267.715637
 11
203.058441
 21
267.715637
  0
LINE
  8
0
  6
CONTINUOUS
 10
29.957338
 20
320.715637
 11
159.957336
 21
320.715637
  0
LINE
  8
0
  6
CONTINUOUS
 10
29.957338
 20
214.715622
 11
159.957336
 21
214.715622
  0
LINE
  8
0
  6
CONTINUOUS
 10
159.957336
 20
214.715622
 11
159.957336
 21
320.715637
  0
LINE
  8
0
  6
CONTINUOUS
 10
29.957338
 20
299.215637
 11
149.957336
 21
299.215637
  0
LINE
  8
0
  6
CONTINUOUS
 10
29.957338
 20
236.215622
 11
149.957336
 21
236.215622
  0
LINE
  8
0
  6
CONTINUOUS
 10
149.957336
 20
318.715637
 11
149.957336
 21
299.215637
  0
ARC
  8
0
  6
CONTINUOUS
 10
151.957336
 20
318.715637
 40
2.000000
 50
90.000000
 51
180.000000
  0
ARC
  8
0
  6
CONTINUOUS
 10
151.957336
 20
216.715622
 40
2.000000
 50
180.000000
 51
270.000000
  0
LINE
  8
0
  6
CENTER
 10
145.707336
 20
223.715622
 11
164.457336
 21
223.715622
  0
LINE
  8
0
  6
CENTER
 10
146.707336
 20
311.715637
 11
163.707336
 21
311.715637
  0
LINE
  8
0
  6
DASHED
 10
149.957336
 20
315.965637
 11
159.957336
 21
315.965637
  0
LINE
  8
0
  6
DASHED
 10
149.957336
 20
307.465637
 11
159.957336
 21
307.465637
  0
LINE
  8
0
  6
DASHED
 10
149.957336
 20
227.965622
 11
159.957336
 21
227.965622
  0
LINE
  8
0
  6
DASHED
 10
149.957336
 20
219.465622
 11
159.957336
 21
219.465622
  0
LINE
  8
0
  6
CONTINUOUS
 10
164.957352
 20
245.215637
 11
164.957352
 21
290.215607
  0
LINE
  8
0
  6
CONTINUOUS
 10
163.957352
 20
291.215607
 11
159.957352
 21
291.215607
  0
LINE
  8
0
  6
CONTINUOUS
 10
163.957352
 20
244.215637
 11
159.957352
 21
244.215637
  0
ARC
  8
0
  6
CONTINUOUS
 10
163.957352
 20
290.215607
 40
1.000000
 50
0.000000
 51
90.000000
  0
ARC
  8
0
  6
CONTINUOUS
 10
163.957352
 20
245.215637
 40
1.000000
 50
-90.000000
 51
0.000000
  0
LINE
  8
0
  6
CONTINUOUS
 10
196.957336
 20
256.215637
 11
196.957336
 21
276.715637
  0
LINE
  8
0
  6
CONTINUOUS
 10
166.957352
 20
276.715637
 11
196.957336
 21
276.715637
  0
LINE
  8
0
  6
CONTINUOUS
 10
166.957352
 20
258.715637
 11
169.957352
 21
258.715637
  0
LINE
  8
0
  6
CONTINUOUS
 10
166.957352
 20
277.715637
 11
166.957352
 21
257.715637
  0
LINE
  8
0
  6
CONTINUOUS
 10
164.957352
 20
277.715637
 11
166.957352
 21
277.715637
  0
LINE
  8
0
  6
CONTINUOUS
 10
164.957352
 20
257.715637
 11
166.957352
 21
257.715637
  0
LINE
  8
0
  6
CONTINUOUS
 10
169.957352
 20
259.230621
 11
169.957352
 21
256.215637
  0
LINE
  8
0
  6
CONTINUOUS
 10
169.957352
 20
256.215637
 11
196.957336
 21
256.215637
  0
LINE
  8
0
  6
CONTINUOUS
 10
169.957352
 20
259.230621
 11
196.957336
 21
259.230621
  0
LINE
  8
0
  6
CONTINUOUS
 10
9.457344
 20
267.715637
 11
9.457344
 21
312.715607
  0
LINE
  8
0
  6
CONTINUOUS
 10
9.457344
 20
267.715637
 11
9.457344
 21
222.715637
  0
LINE
  8
0
  6
CONTINUOUS
 10
9.957344
 20
316.715607
 11
9.957344
 21
222.715637
  0
LINE
  8
0
  6
CONTINUOUS
 10
15.047534
 20
320.715607
 11
29.957338
 21
320.715607
  0
LINE
  8
0
  6
CONTINUOUS
 10
15.047534
 20
214.715637
 11
29.957338
 21
214.715637
  0
LINE
  8
0
  6
CONTINUOUS
 10
9.957344
 20
222.715637
 11
9.957344
 21
218.715637
  0
LINE
  8
0
  6
CONTINUOUS
 10
10.575344
 20
317.951721
 11
9.957344
 21
316.715607
  0
ARC
  8
0
  6
CONTINUOUS
 10
15.047534
 20
315.715607
 40
4.999999
 50
90.000000
 51
153.435196
  0
LINE
  8
0
  6
CONTINUOUS
 10
10.575344
 20
217.479568
 11
9.957344
 21
218.715637
  0
ARC
  8
0
  6
CONTINUOUS
 10
15.047534
 20
219.715637
 40
4.999999
 50
206.565002
 51
270.000000
  0
LINE
  8
0
  6
CONTINUOUS
 10
9.457344
 20
222.715637
 11
9.957344
 21
222.215637
  0
LINE
  8
0
  6
CONTINUOUS
 10
9.457344
 20
312.715607
 11
9.957344
 21
313.215607
  0
LINE
  8
0
  6
CONTINUOUS
 10
29.957338
 20
299.215637
 11
11.832344
 21
299.215637
  0
LINE
  8
0
  6
CONTINUOUS
 10
29.957338
 20
236.215622
 11
11.832344
 21
236.215622
  0
LINE
  8
0
  6
CONTINUOUS
 10
29.957338
 20
214.715637
 11
29.957338
 21
242.715607
  0
LINE
  8
0
  6
CONTINUOUS
 10
29.957338
 20
292.715607
 11
29.957338
 21
320.715607
  0
LINE
  8
0
  6
CONTINUOUS
 10
149.957336
 20
236.215622
 11
149.957336
 21
216.715622
  0
LINE
  8
0
  6
CONTINUOUS
 10
20.957338
 20
244.715607
 11
20.957338
 21
290.715607
  0
LINE
  8
0
  6
CONTINUOUS
 10
22.957338
 20
292.715607
 11
20.957338
 21
290.715607
  0
LINE
  8
0
  6
CONTINUOUS
 10
22.957338
 20
292.715607
 11
68.957329
 21
292.715607
  0
LINE
  8
0
  6
CONTINUOUS
 10
63.457340
 20
288.215607
 11
63.457340
 21
292.715607
  0
ARC
  8
0
  6
CONTINUOUS
 10
66.457336
 20
288.215607
 40
3.000000
 50
180.000000
 51
270.000000
  0
LINE
  8
0
  6
CONTINUOUS
 10
66.457336
 20
285.215607
 11
70.957329
 21
285.215607
  0
CIRCLE
  8
0
  6
CONTINUOUS
 10
67.457336
 20
289.215607
 40
2.250000
  0
LINE
  8
0
  6
CONTINUOUS
 10
70.957336
 20
244.715607
 11
70.957329
 21
290.715607
  0
LINE
  8
0
  6
CONTINUOUS
 10
68.957329
 20
292.715607
 11
70.957329
 21
290.715607
  0
LINE
  8
0
  6
CONTINUOUS
 10
68.957336
 20
242.715607
 11
70.957336
 21
244.715607
  0
LINE
  8
0
  6
CONTINUOUS
 10
68.957336
 20
242.715607
 11
22.957338
 21
242.715607
  0
LINE
  8
0
  6
CONTINUOUS
 10
20.957338
 20
244.715607
 11
22.957338
 21
242.715607
  0
LINE
  8
0
  6
CONTINUOUS
 10
25.457338
 20
250.215607
 11
20.957350
 21
250.215607
  0
CIRCLE
  8
0
  6
CONTINUOUS
 10
24.457338
 20
246.215607
 40
2.250000
  0
ARC
  8
0
  6
CONTINUOUS
 10
25.457338
 20
247.215607
 40
3.000000
 50
0.000000
 51
90.000000
  0
LINE
  8
0
  6
CONTINUOUS
 10
28.457338
 20
247.215607
 11
28.457338
 21
242.715607
  0
LINE
  8
0
  6
CENTER
 10
45.957340
 20
235.249817
 11
45.957340
 21
299.381866
  0
LINE
  8
0
  6
CONTINUOUS
 10
21.957344
 20
250.215622
 11
21.957344
 21
285.215637
  0
LINE
  8
0
  6
CONTINUOUS
 10
63.457340
 20
291.715637
 11
28.457359
 21
291.715637
  0
LINE
  8
0
  6
CONTINUOUS
 10
69.957336
 20
285.215637
 11
69.957336
 21
250.215622
  0
LINE
  8
0
  6
CONTINUOUS
 10
28.457338
 20
243.715622
 11
63.457359
 21
243.715622
  0
LINE
  8
0
  6
CONTINUOUS
 10
25.457359
 20
285.215637
 11
20.957359
 21
285.215637
  0
ARC
  8
0
  6
CONTINUOUS
 10
25.457359
 20
288.215637
 40
3.000000
 50
-90.000000
 51
0.000000
  0
LINE
  8
0
  6
CONTINUOUS
 10
28.457359
 20
288.215637
 11
28.457359
 21
292.715607
  0
CIRCLE
  8
0
  6
CONTINUOUS
 10
24.457359
 20
289.215637
 40
2.250000
  0
LINE
  8
0
  6
CONTINUOUS
 10
63.457359
 20
247.215622
 11
63.457359
 21
242.715637
  0
ARC
  8
0
  6
CONTINUOUS
 10
66.457359
 20
247.215622
 40
3.000000
 50
90.000000
 51
180.000000
  0
LINE
  8
0
  6
CONTINUOUS
 10
66.457359
 20
250.215622
 11
70.957359
 21
250.215622
  0
CIRCLE
  8
0
  6
CONTINUOUS
 10
67.457359
 20
246.215622
 40
2.250000
  0
LINE
  8
0
  6
CONTINUOUS
 10
22.457338
 20
114.129372
 11
68.957336
 21
114.129372
  0
LINE
  8
0
  6
CONTINUOUS
 10
70.957321
 20
158.129379
 11
70.957336
 21
116.129372
  0
LINE
  8
0
  6
CONTINUOUS
 10
20.957338
 20
158.129379
 11
20.957338
 21
116.129372
  0
LINE
  8
0
  6
CONTINUOUS
 10
20.957338
 20
126.129372
 11
70.957336
 21
126.129372
  0
LINE
  8
0
  6
CONTINUOUS
 10
68.957336
 20
114.129372
 11
70.957336
 21
116.129372
  0
LINE
  8
0
  6
CONTINUOUS
 10
20.957338
 20
116.129372
 11
22.957338
 21
114.129372
  0
LINE
  8
0
  6
CONTINUOUS
 10
20.957338
 20
116.129372
 11
70.957336
 21
116.129372
  0
LINE
  8
0
  6
CONTINUOUS
 10
20.957338
 20
127.129372
 11
70.957329
 21
127.129372
  0
LINE
  8
0
  6
CONTINUOUS
 10
21.957338
 20
159.129379
 11
69.957321
 21
159.129379
  0
LINE
  8
0
  6
CONTINUOUS
 10
69.957321
 20
159.129379
 11
70.957321
 21
158.129379
  0
LINE
  8
0
  6
CONTINUOUS
 10
21.957338
 20
159.129379
 11
20.957338
 21
158.129379
  0
LINE
  8
0
  6
CONTINUOUS
 10
20.957338
 20
158.129379
 11
70.957321
 21
158.129379
  0
LINE
  8
0
  6
CENTER
 10
18.582338
 20
142.129379
 11
23.207338
 21
142.129379
  0
LINE
  8
0
  6
CONTINUOUS
 10
22.457338
 20
114.129372
 11
22.457338
 21
112.629372
  0
LINE
  8
0
  6
CONTINUOUS
 10
68.457336
 20
114.129372
 11
68.457336
 21
112.629372
  0
LINE
  8
0
  6
CONTINUOUS
 10
20.082338
 20
152.629379
 11
22.082338
 21
152.629379
  0
LINE
  8
0
  6
CONTINUOUS
 10
20.082338
 20
131.629379
 11
22.082338
 21
131.629379
  0
LINE
  8
0
  6
CENTER
 10
45.957340
 20
104.713753
 11
45.957340
 21
166.048752
  0
LINE
  8
0
  6
CONTINUOUS
 10
291.457336
 20
114.129372
 11
337.457336
 21
114.129372
  0
LINE
  8
0
  6
CONTINUOUS
 10
339.457336
 20
158.129379
 11
339.457336
 21
116.129372
  0
LINE
  8
0
  6
CONTINUOUS
 10
289.457336
 20
158.129379
 11
289.457336
 21
116.129372
  0
LINE
  8
0
  6
CONTINUOUS
 10
289.457336
 20
126.129372
 11
339.457336
 21
126.129372
  0
LINE
  8
0
  6
CONTINUOUS
 10
337.457336
 20
114.129372
 11
339.457336
 21
116.129372
  0
LINE
  8
0
  6
CONTINUOUS
 10
289.457336
 20
116.129372
 11
291.457336
 21
114.129372
  0
LINE
  8
0
  6
CONTINUOUS
 10
289.457336
 20
116.129372
 11
339.457336
 21
116.129372
  0
LINE
  8
0
  6
CONTINUOUS
 10
289.457336
 20
127.129372
 11
339.457336
 21
127.129372
  0
LINE
  8
0
  6
CONTINUOUS
 10
290.457336
 20
159.129379
 11
338.457336
 21
159.129379
  0
LINE
  8
0
  6
CONTINUOUS
 10
338.457336
 20
159.129379
 11
339.457336
 21
158.129379
  0
LINE
  8
0
  6
CONTINUOUS
 10
290.457336
 20
159.129379
 11
289.457336
 21
158.129379
  0
LINE
  8
0
  6
CONTINUOUS
 10
289.457336
 20
158.129379
 11
339.457336
 21
158.129379
  0
LINE
  8
0
  6
CONTINUOUS
 10
336.957336
 20
114.129372
 11
336.957336
 21
112.236649
  0
LINE
  8
0
  6
CONTINUOUS
 10
291.957336
 20
114.129372
 11
291.957336
 21
112.236633
  0
TEXT
  8
0
 10
-6.000000
 20
-1.000000
 40
4.000000
 41
1.000000
  1
GFM-18-80~240-S60K
 50
0.000000
  0
ENDSEC
  0
EOF
