  0
SECTION
  2
HEADER
  9
$CLAYER
  8
1
  9
$LTSCALE
 40
3.0
  0
ENDSEC
  0
SECTION
  2
TABLES
  0
TABLE
  2
LTYPE
 70
     4
  0
LTYPE
  2
CONTINUOUS
  3
solid line
 70
    64
 72
    65
 73
     0
 40
0.0
  0
LTYPE
  2
DASHED
  3
__ __ __ __ __ __ __ __ __ __ __ __ __ __ __
 70
    64
 72
    65
 73
     2
 40
0.75
 49
0.5
 49
-0.25
  0
LTYPE
  2
CENTER
  3
____ _ ____ _ ____ _ ____ _ ____ _ ____ _ ____
 70
    64
 72
    65
 73
     4
 40
2.0
 49
1.25
 49
-0.25
 49
0.25
 49
-0.25
  0
LTYPE
  2
PHANTOM
  3
_____ _ _ _____ _ _ _____ _ _ _____ _ _ ____
 70
    64
 72
    65
 73
     6
 40
2.5
 49
1.25
 49
-0.25
 49
0.25
 49
-0.25
 49
0.25
 49
-0.25
  0
ENDTAB
  0
TABLE
  2
LAYER
 70
     1
  0
LAYER
  2
0
 70
    64
 62
     7
  6
CONTINUOUS
  0
ENDTAB
  0
TABLE
  2
STYLE
 70
     1
  0
STYLE
  2
STANDARD
 70
     0
 40
0.000000
 41
1.000000
 50
0.000000
 71
     0
 42
3.000000
  3
txt
  4
BIGFONT
  0
ENDTAB
  0
ENDSEC
  0
SECTION
  2
BLOCKS
  0
ENDSEC
  0
SECTION
  2
ENTITIES
  0
LINE
  8
0
  6
CONTINUOUS
 10
54.862499
 20
113.571877
 11
54.862499
 21
3.571875
  0
LINE
  8
0
  6
CONTINUOUS
 10
54.862480
 20
111.571877
 11
63.362499
 21
111.571877
  0
LINE
  8
0
  6
CONTINUOUS
 10
54.862480
 20
5.571875
 11
63.362499
 21
5.571875
  0
LINE
  8
0
  6
CONTINUOUS
 10
54.862480
 20
101.134476
 11
63.362499
 21
101.134476
  0
LINE
  8
0
  6
CONTINUOUS
 10
54.862480
 20
15.887745
 11
63.362499
 21
15.887745
  0
LINE
  8
0
  6
CONTINUOUS
 10
15.862500
 20
113.571877
 11
54.862499
 21
113.571877
  0
LINE
  8
0
  6
CONTINUOUS
 10
15.862500
 20
3.571875
 11
54.862499
 21
3.571875
  0
LINE
  8
0
  6
CONTINUOUS
 10
5.862500
 20
13.571875
 11
5.862500
 21
103.571877
  0
LINE
  8
0
  6
CONTINUOUS
 10
10.862500
 20
89.071877
 11
54.862499
 21
89.071877
  0
LINE
  8
0
  6
CONTINUOUS
 10
10.862500
 20
28.071875
 11
54.862480
 21
28.071875
  0
ARC
  8
0
  6
CONTINUOUS
 10
15.862550
 20
103.571877
 40
10.000000
 50
90.000000
 51
180.000000
  0
ARC
  8
0
  6
CONTINUOUS
 10
15.862500
 20
13.571875
 40
10.000000
 50
180.000000
 51
270.000000
  0
LINE
  8
0
  6
CONTINUOUS
 10
63.362499
 20
5.571875
 11
63.362499
 21
111.571877
  0
LINE
  8
0
  6
CENTER
 10
-5.067500
 20
58.571877
 11
203.568756
 21
58.571877
  0
LINE
  8
0
  6
CENTER
 10
160.072205
 20
73.571877
 11
239.362503
 21
73.571877
  0
LINE
  8
0
  6
CONTINUOUS
 10
63.362499
 20
111.571877
 11
193.362503
 21
111.571877
  0
LINE
  8
0
  6
CONTINUOUS
 10
63.362499
 20
5.571875
 11
193.362503
 21
5.571875
  0
LINE
  8
0
  6
CONTINUOUS
 10
193.362503
 20
5.571875
 11
193.362503
 21
111.571877
  0
LINE
  8
0
  6
CONTINUOUS
 10
63.362499
 20
101.195274
 11
183.362503
 21
101.195274
  0
LINE
  8
0
  6
CONTINUOUS
 10
63.362499
 20
15.948515
 11
183.362503
 21
15.948515
  0
LINE
  8
0
  6
CONTINUOUS
 10
183.362503
 20
109.571877
 11
183.362503
 21
7.571865
  0
ARC
  8
0
  6
CONTINUOUS
 10
185.362503
 20
109.571877
 40
2.000000
 50
90.000000
 51
180.000000
  0
ARC
  8
0
  6
CONTINUOUS
 10
185.362503
 20
7.571875
 40
2.000000
 50
180.000000
 51
270.000000
  0
LINE
  8
0
  6
CENTER
 10
179.112503
 20
14.571875
 11
197.862503
 21
14.571875
  0
LINE
  8
0
  6
CENTER
 10
180.112503
 20
102.571877
 11
197.112503
 21
102.571877
  0
LINE
  8
0
  6
DASHED
 10
183.362503
 20
106.821877
 11
193.362503
 21
106.821877
  0
LINE
  8
0
  6
DASHED
 10
183.362503
 20
98.321877
 11
193.362503
 21
98.321877
  0
LINE
  8
0
  6
DASHED
 10
183.362503
 20
18.821875
 11
193.362503
 21
18.821875
  0
LINE
  8
0
  6
DASHED
 10
183.362503
 20
10.321875
 11
193.362503
 21
10.321875
  0
LINE
  8
0
  6
CONTINUOUS
 10
197.362503
 20
97.071877
 11
193.362503
 21
97.071877
  0
LINE
  8
0
  6
CONTINUOUS
 10
197.362503
 20
50.071877
 11
193.362503
 21
50.071877
  0
LINE
  8
0
  6
CONTINUOUS
 10
198.362503
 20
51.071877
 11
198.362503
 21
96.071877
  0
ARC
  8
0
  6
CONTINUOUS
 10
197.362503
 20
96.071877
 40
1.000000
 50
0.000000
 51
90.000000
  0
ARC
  8
0
  6
CONTINUOUS
 10
197.362503
 20
96.071877
 40
1.000000
 50
0.000000
 51
90.000000
  0
ARC
  8
0
  6
CONTINUOUS
 10
197.362503
 20
51.071877
 40
1.000000
 50
-90.000000
 51
0.000000
  0
LINE
  8
0
  6
CONTINUOUS
 10
230.362503
 20
64.571877
 11
230.362503
 21
82.571877
  0
LINE
  8
0
  6
CONTINUOUS
 10
200.362503
 20
82.571877
 11
230.362503
 21
82.571877
  0
LINE
  8
0
  6
CONTINUOUS
 10
200.362503
 20
64.571877
 11
230.362503
 21
64.571877
  0
LINE
  8
0
  6
CONTINUOUS
 10
200.362503
 20
83.571877
 11
200.362503
 21
63.571877
  0
LINE
  8
0
  6
CONTINUOUS
 10
198.362503
 20
83.571877
 11
200.362503
 21
83.571877
  0
LINE
  8
0
  6
CONTINUOUS
 10
198.362503
 20
63.571877
 11
200.362503
 21
63.571877
  0
ARC
  8
0
  6
CONTINUOUS
 10
206.362503
 20
73.571877
 40
3.000000
 50
90.000000
 51
270.000000
  0
LINE
  8
0
  6
CONTINUOUS
 10
206.362503
 20
76.571877
 11
230.362503
 21
76.571877
  0
LINE
  8
0
  6
CONTINUOUS
 10
206.362503
 20
70.571877
 11
230.362503
 21
70.571877
  0
LINE
  8
0
  6
CENTER
 10
365.862488
 20
-2.653785
 11
365.862488
 21
173.429993
  0
LINE
  8
0
  6
CONTINUOUS
 10
418.862488
 20
11.410475
 11
418.862488
 21
105.733276
  0
LINE
  8
0
  6
CONTINUOUS
 10
312.862488
 20
11.410285
 11
312.862488
 21
105.733078
  0
LINE
  8
0
  6
CONTINUOUS
 10
413.949707
 20
110.732475
 11
365.862488
 21
111.571877
  0
LINE
  8
0
  6
CONTINUOUS
 10
317.775208
 20
110.732376
 11
365.862488
 21
111.571877
  0
ARC
  8
0
  6
CONTINUOUS
 10
413.862488
 20
105.733276
 40
5.000000
 50
0.000000
 51
89.000137
  0
ARC
  8
0
  6
CONTINUOUS
 10
317.862488
 20
105.733177
 40
5.000000
 50
91.000610
 51
180.000000
  0
CIRCLE
  8
0
  6
CONTINUOUS
 10
409.862488
 20
102.733276
 40
4.250000
  0
CIRCLE
  8
0
  6
CONTINUOUS
 10
321.862488
 20
102.733078
 40
4.250000
  0
CIRCLE
  8
0
  6
CONTINUOUS
 10
321.862488
 20
14.410125
 40
4.250000
  0
CIRCLE
  8
0
  6
CONTINUOUS
 10
409.926086
 20
14.571875
 40
4.250000
  0
LINE
  8
0
  6
CENTER
 10
409.862488
 20
110.071877
 11
409.862488
 21
92.321877
  0
LINE
  8
0
  6
CENTER
 10
409.862488
 20
8.071875
 11
409.862488
 21
23.321875
  0
LINE
  8
0
  6
CENTER
 10
313.862488
 20
102.571877
 11
329.612488
 21
102.571877
  0
LINE
  8
0
  6
CENTER
 10
417.612488
 20
102.571877
 11
400.612488
 21
102.571877
  0
LINE
  8
0
  6
CENTER
 10
321.862488
 20
110.071877
 11
321.862488
 21
94.071877
  0
LINE
  8
0
  6
CENTER
 10
321.862488
 20
7.571875
 11
321.862488
 21
23.571875
  0
LINE
  8
0
  6
CENTER
 10
315.362488
 20
14.571875
 11
330.112488
 21
14.571875
  0
LINE
  8
0
  6
CENTER
 10
417.362488
 20
14.571875
 11
400.612488
 21
14.571875
  0
LINE
  8
0
  6
CENTER
 10
337.862488
 20
73.571877
 11
394.362488
 21
73.571877
  0
LINE
  8
0
  6
CONTINUOUS
 10
413.862488
 20
74.264175
 11
413.862488
 21
42.879505
  0
LINE
  8
0
  6
CONTINUOUS
 10
317.862488
 20
74.264175
 11
317.862488
 21
42.879524
  0
ARC
  8
0
  6
CONTINUOUS
 10
365.862488
 20
58.571877
 40
50.500000
 50
18.103800
 51
161.896194
  0
ARC
  8
0
  6
CONTINUOUS
 10
365.862488
 20
58.571877
 40
50.500000
 50
198.103806
 51
341.896210
  0
LINE
  8
0
  6
CONTINUOUS
 10
359.487488
 20
36.125095
 11
359.487488
 21
30.571875
  0
LINE
  8
0
  6
CONTINUOUS
 10
362.674988
 20
38.142185
 11
362.674988
 21
40.134377
  0
LINE
  8
0
  6
CONTINUOUS
 10
369.049988
 20
38.142185
 11
369.049988
 21
40.134377
  0
LINE
  8
0
  6
CONTINUOUS
 10
365.239899
 20
38.963966
 11
365.239899
 21
31.617775
  0
LINE
  8
0
  6
CONTINUOUS
 10
366.435303
 20
38.963966
 11
366.435303
 21
31.617775
  0
LINE
  8
0
  6
CONTINUOUS
 10
372.710602
 20
38.963966
 11
372.710602
 21
31.567965
  0
LINE
  8
0
  6
CONTINUOUS
 10
373.806305
 20
35.041843
 11
373.806305
 21
31.567965
  0
LINE
  8
0
  6
CONTINUOUS
 10
357.975006
 20
38.864353
 11
354.903107
 21
38.864353
  0
LINE
  8
0
  6
CONTINUOUS
 10
354.903107
 20
38.864353
 11
354.183289
 21
37.971855
  0
LINE
  8
0
  6
CONTINUOUS
 10
354.269897
 20
40.134377
 11
353.112488
 21
38.652374
  0
LINE
  8
0
  6
CONTINUOUS
 10
354.183289
 20
32.462795
 11
354.914612
 21
31.692486
  0
LINE
  8
0
  6
CONTINUOUS
 10
353.112488
 20
31.812725
 11
354.342285
 21
30.571875
  0
LINE
  8
0
  6
CONTINUOUS
 10
353.112488
 20
38.652374
 11
353.112488
 21
31.812725
  0
LINE
  8
0
  6
CONTINUOUS
 10
354.183289
 20
37.971855
 11
354.183289
 21
32.462795
  0
LINE
  8
0
  6
CONTINUOUS
 10
358.566101
 20
38.292915
 11
357.962891
 21
38.864353
  0
LINE
  8
0
  6
CONTINUOUS
 10
358.556488
 20
40.134377
 11
359.487488
 21
39.101234
  0
LINE
  8
0
  6
CONTINUOUS
 10
358.566101
 20
38.142185
 11
359.487488
 21
38.142185
  0
LINE
  8
0
  6
CONTINUOUS
 10
354.269897
 20
40.134377
 11
358.556488
 21
40.134377
  0
LINE
  8
0
  6
CONTINUOUS
 10
358.566101
 20
35.079193
 11
356.897705
 21
35.079193
  0
LINE
  8
0
  6
CONTINUOUS
 10
358.566101
 20
34.083103
 11
358.566101
 21
34.879986
  0
LINE
  8
0
  6
CONTINUOUS
 10
356.573914
 20
31.692486
 11
354.914612
 21
31.692486
  0
ARC
  8
0
  6
CONTINUOUS
 10
356.573914
 20
33.684666
 40
1.992187
 50
-89.999786
 51
0.000109
  0
LINE
  8
0
  6
CONTINUOUS
 10
358.566101
 20
31.334135
 11
358.566101
 21
30.571875
  0
LINE
  8
0
  6
CONTINUOUS
 10
359.487488
 20
39.101234
 11
359.487488
 21
38.142185
  0
LINE
  8
0
  6
CONTINUOUS
 10
358.566101
 20
35.079193
 11
358.566101
 21
33.684666
  0
LINE
  8
0
  6
CONTINUOUS
 10
356.897705
 20
36.125095
 11
356.897705
 21
35.079193
  0
LINE
  8
0
  6
CONTINUOUS
 10
358.566101
 20
30.571875
 11
359.487488
 21
30.571875
  0
LINE
  8
0
  6
CONTINUOUS
 10
358.566101
 20
31.334135
 11
357.657501
 21
30.571875
  0
LINE
  8
0
  6
CONTINUOUS
 10
366.435303
 20
31.617775
 11
366.833710
 21
31.617775
  0
LINE
  8
0
  6
CONTINUOUS
 10
364.766815
 20
31.617775
 11
364.766815
 21
30.571875
  0
LINE
  8
0
  6
CONTINUOUS
 10
366.833710
 20
31.617775
 11
366.833710
 21
30.571875
  0
LINE
  8
0
  6
CONTINUOUS
 10
368.385101
 20
38.142185
 11
369.049988
 21
38.142185
  0
LINE
  8
0
  6
CONTINUOUS
 10
362.674988
 20
38.142185
 11
363.382599
 21
38.142185
  0
LINE
  8
0
  6
CONTINUOUS
 10
362.674988
 20
40.134377
 11
369.049988
 21
40.134377
  0
LINE
  8
0
  6
CONTINUOUS
 10
364.766815
 20
30.571875
 11
366.833710
 21
30.571875
  0
LINE
  8
0
  6
CONTINUOUS
 10
364.766815
 20
31.617775
 11
365.239899
 21
31.617775
  0
ARC
  8
0
  6
CONTINUOUS
 10
376.059998
 20
37.581886
 40
2.552490
 50
-73.981873
 51
90.003510
  0
ARC
  8
0
  6
CONTINUOUS
 10
376.059998
 20
37.581886
 40
1.557193
 50
-82.585274
 51
62.411850
  0
LINE
  8
0
  6
CONTINUOUS
 10
372.237488
 20
40.134377
 11
376.059998
 21
40.134377
  0
LINE
  8
0
  6
CONTINUOUS
 10
372.237488
 20
40.134377
 11
372.237488
 21
38.963966
  0
LINE
  8
0
  6
CONTINUOUS
 10
373.806305
 20
38.963966
 11
373.806305
 21
36.037716
  0
LINE
  8
0
  6
CONTINUOUS
 10
376.764404
 20
35.128494
 11
378.344208
 21
31.567965
  0
LINE
  8
0
  6
CONTINUOUS
 10
375.846802
 20
35.041843
 11
377.341797
 21
31.567965
  0
LINE
  8
0
  6
CONTINUOUS
 10
372.237488
 20
31.567965
 11
372.710602
 21
31.567965
  0
LINE
  8
0
  6
CONTINUOUS
 10
373.806305
 20
31.567965
 11
374.242096
 21
31.567965
  0
LINE
  8
0
  6
CONTINUOUS
 10
374.242096
 20
30.571875
 11
372.237488
 21
30.571875
  0
LINE
  8
0
  6
CONTINUOUS
 10
377.143311
 20
31.567965
 11
377.341797
 21
31.567965
  0
LINE
  8
0
  6
CONTINUOUS
 10
378.344208
 20
31.567965
 11
378.612488
 21
31.567965
  0
LINE
  8
0
  6
CONTINUOUS
 10
377.143311
 20
30.571875
 11
378.612488
 21
30.571875
  0
LINE
  8
0
  6
CONTINUOUS
 10
378.612488
 20
31.567965
 11
378.612488
 21
30.571875
  0
LINE
  8
0
  6
CONTINUOUS
 10
377.143311
 20
31.567965
 11
377.143311
 21
30.571875
  0
LINE
  8
0
  6
CONTINUOUS
 10
374.242096
 20
31.567965
 11
374.242096
 21
30.571875
  0
LINE
  8
0
  6
CONTINUOUS
 10
372.237488
 20
31.567965
 11
372.237488
 21
30.571875
  0
LINE
  8
0
  6
CONTINUOUS
 10
363.725006
 20
38.963966
 11
363.382599
 21
38.142185
  0
LINE
  8
0
  6
CONTINUOUS
 10
368.096313
 20
38.963966
 11
368.385101
 21
38.142185
  0
LINE
  8
0
  6
CONTINUOUS
 10
366.435303
 20
38.963966
 11
368.096313
 21
38.963966
  0
LINE
  8
0
  6
CONTINUOUS
 10
365.239899
 20
38.963966
 11
363.725006
 21
38.963966
  0
LINE
  8
0
  6
CONTINUOUS
 10
372.237488
 20
38.963966
 11
372.710602
 21
38.963966
  0
LINE
  8
0
  6
CONTINUOUS
 10
373.806305
 20
38.963966
 11
376.781189
 21
38.962025
  0
LINE
  8
0
  6
CONTINUOUS
 10
358.566101
 20
38.292915
 11
358.566101
 21
38.142185
  0
LINE
  8
0
  6
CONTINUOUS
 10
354.342285
 20
30.571875
 11
357.657501
 21
30.571875
  0
LINE
  8
0
  6
CONTINUOUS
 10
373.806305
 20
36.037716
 11
376.260986
 21
36.037716
  0
LINE
  8
0
  6
CONTINUOUS
 10
373.806305
 20
35.041843
 11
375.846802
 21
35.041843
  0
LINE
  8
0
  6
CONTINUOUS
 10
356.897705
 20
36.125095
 11
359.487488
 21
36.125095
  0
LINE
  8
0
  6
CONTINUOUS
 10
413.949799
 20
6.411235
 11
365.862488
 21
5.571875
  0
LINE
  8
0
  6
CONTINUOUS
 10
317.775299
 20
6.411055
 11
365.862488
 21
5.571875
  0
ARC
  8
0
  6
CONTINUOUS
 10
413.862488
 20
11.410465
 40
5.000000
 50
-88.999817
 51
0.000000
  0
ARC
  8
0
  6
CONTINUOUS
 10
317.862488
 20
11.410325
 40
5.000000
 50
180.000000
 51
269.000488
  0
LINE
  8
0
  6
CONTINUOUS
 10
394.291412
 20
113.571877
 11
389.362488
 21
113.571877
  0
LINE
  8
0
  6
CONTINUOUS
 10
394.291412
 20
3.571875
 11
337.433594
 21
3.571875
  0
LINE
  8
0
  6
CONTINUOUS
 10
310.862488
 20
30.142944
 11
310.862488
 21
87.000778
  0
LINE
  8
0
  6
CONTINUOUS
 10
420.862488
 20
87.000778
 11
420.862488
 21
30.142944
  0
ARC
  8
0
  6
CONTINUOUS
 10
337.433594
 20
108.571877
 40
5.000000
 50
90.000000
 51
135.000198
  0
ARC
  8
0
  6
CONTINUOUS
 10
315.862488
 20
87.000877
 40
5.000000
 50
135.000305
 51
180.000000
  0
ARC
  8
0
  6
CONTINUOUS
 10
315.862488
 20
30.142975
 40
5.000000
 50
180.000000
 51
225.000397
  0
ARC
  8
0
  6
CONTINUOUS
 10
337.433594
 20
8.571875
 40
5.000000
 50
225.000000
 51
270.000000
  0
ARC
  8
0
  6
CONTINUOUS
 10
394.291412
 20
8.571875
 40
5.000000
 50
270.000000
 51
315.000000
  0
ARC
  8
0
  6
CONTINUOUS
 10
415.862488
 20
30.142935
 40
5.000000
 50
-44.999882
 51
0.000000
  0
ARC
  8
0
  6
CONTINUOUS
 10
415.862488
 20
87.000778
 40
5.000000
 50
0.000000
 51
45.000160
  0
ARC
  8
0
  6
CONTINUOUS
 10
394.291504
 20
108.571877
 40
5.000000
 50
45.000160
 51
90.000000
  0
LINE
  8
0
  6
CONTINUOUS
 10
397.826996
 20
112.107376
 11
398.939911
 21
110.994476
  0
LINE
  8
0
  6
CONTINUOUS
 10
419.398010
 20
90.536377
 11
418.862488
 21
91.071877
  0
LINE
  8
0
  6
CONTINUOUS
 10
312.326996
 20
90.536377
 11
312.862488
 21
91.071877
  0
LINE
  8
0
  6
CONTINUOUS
 10
333.898102
 20
112.107376
 11
332.785004
 21
110.994377
  0
LINE
  8
0
  6
CONTINUOUS
 10
333.898102
 20
5.036345
 11
332.785309
 21
6.149115
  0
LINE
  8
0
  6
CONTINUOUS
 10
312.326996
 20
26.607405
 11
312.862488
 21
26.071856
  0
LINE
  8
0
  6
CONTINUOUS
 10
419.398010
 20
26.607405
 11
418.862488
 21
26.071875
  0
LINE
  8
0
  6
CONTINUOUS
 10
397.826904
 20
5.036335
 11
398.939911
 21
6.149235
  0
LINE
  8
0
  6
CONTINUOUS
 10
360.362488
 20
76.571877
 11
360.362488
 21
70.571877
  0
LINE
  8
0
  6
CONTINUOUS
 10
354.362488
 20
76.571877
 11
354.362488
 21
70.571877
  0
LINE
  8
0
  6
CONTINUOUS
 10
354.362488
 20
76.571877
 11
360.362488
 21
76.571877
  0
LINE
  8
0
  6
CONTINUOUS
 10
354.362488
 20
70.571877
 11
360.362488
 21
70.571877
  0
ARC
  8
0
  6
CONTINUOUS
 10
365.862488
 20
73.571877
 40
9.000000
 50
-160.528793
 51
160.528793
  0
CIRCLE
  8
0
  6
CONTINUOUS
 10
365.862488
 20
73.571877
 40
23.500000
  0
LINE
  8
0
  6
CENTER
 10
-6.988125
 20
265.600616
 11
236.463593
 21
265.600616
  0
LINE
  8
0
  6
CONTINUOUS
 10
63.362499
 20
318.600616
 11
193.362503
 21
318.600616
  0
LINE
  8
0
  6
CONTINUOUS
 10
63.362499
 20
212.600632
 11
193.362503
 21
212.600632
  0
LINE
  8
0
  6
CONTINUOUS
 10
193.362503
 20
212.600632
 11
193.362503
 21
318.600616
  0
LINE
  8
0
  6
CONTINUOUS
 10
63.362499
 20
297.100616
 11
183.362503
 21
297.100616
  0
LINE
  8
0
  6
CONTINUOUS
 10
63.362499
 20
234.100632
 11
183.362503
 21
234.100632
  0
LINE
  8
0
  6
CONTINUOUS
 10
183.362503
 20
316.600616
 11
183.362503
 21
297.100616
  0
ARC
  8
0
  6
CONTINUOUS
 10
185.362503
 20
316.600616
 40
2.000000
 50
90.000000
 51
180.000000
  0
ARC
  8
0
  6
CONTINUOUS
 10
185.362503
 20
214.600632
 40
2.000000
 50
180.000000
 51
270.000000
  0
LINE
  8
0
  6
CENTER
 10
179.112503
 20
221.600632
 11
197.862503
 21
221.600632
  0
LINE
  8
0
  6
CENTER
 10
180.112503
 20
309.600616
 11
197.112503
 21
309.600616
  0
LINE
  8
0
  6
DASHED
 10
183.362503
 20
313.850616
 11
193.362503
 21
313.850616
  0
LINE
  8
0
  6
DASHED
 10
183.362503
 20
305.350616
 11
193.362503
 21
305.350616
  0
LINE
  8
0
  6
DASHED
 10
183.362503
 20
225.850632
 11
193.362503
 21
225.850632
  0
LINE
  8
0
  6
DASHED
 10
183.362503
 20
217.350632
 11
193.362503
 21
217.350632
  0
LINE
  8
0
  6
CONTINUOUS
 10
198.362503
 20
243.100632
 11
198.362503
 21
288.100616
  0
LINE
  8
0
  6
CONTINUOUS
 10
197.362503
 20
289.100616
 11
193.362503
 21
289.100616
  0
LINE
  8
0
  6
CONTINUOUS
 10
197.362503
 20
242.100632
 11
193.362503
 21
242.100632
  0
ARC
  8
0
  6
CONTINUOUS
 10
197.362503
 20
288.100616
 40
1.000000
 50
0.000000
 51
90.000000
  0
ARC
  8
0
  6
CONTINUOUS
 10
197.362503
 20
243.100632
 40
1.000000
 50
-90.000000
 51
0.000000
  0
LINE
  8
0
  6
CONTINUOUS
 10
230.362503
 20
254.100616
 11
230.362503
 21
274.600616
  0
LINE
  8
0
  6
CONTINUOUS
 10
200.362503
 20
274.600616
 11
230.362503
 21
274.600616
  0
LINE
  8
0
  6
CONTINUOUS
 10
200.362503
 20
256.600616
 11
203.362503
 21
256.600616
  0
LINE
  8
0
  6
CONTINUOUS
 10
200.362503
 20
275.600616
 11
200.362503
 21
255.600632
  0
LINE
  8
0
  6
CONTINUOUS
 10
198.362503
 20
275.600616
 11
200.362503
 21
275.600616
  0
LINE
  8
0
  6
CONTINUOUS
 10
198.362503
 20
255.600632
 11
200.362503
 21
255.600632
  0
LINE
  8
0
  6
CONTINUOUS
 10
203.362503
 20
257.115631
 11
203.362503
 21
254.100616
  0
LINE
  8
0
  6
CONTINUOUS
 10
203.362503
 20
254.100616
 11
230.362503
 21
254.100616
  0
LINE
  8
0
  6
CONTINUOUS
 10
203.362503
 20
257.115631
 11
230.362503
 21
257.115631
  0
LINE
  8
0
  6
CONTINUOUS
 10
54.862499
 20
318.600616
 11
63.362499
 21
318.600616
  0
LINE
  8
0
  6
CONTINUOUS
 10
54.862499
 20
212.600632
 11
63.362499
 21
212.600632
  0
LINE
  8
0
  6
CONTINUOUS
 10
63.362499
 20
297.100616
 11
54.862499
 21
297.100616
  0
LINE
  8
0
  6
CONTINUOUS
 10
63.362499
 20
234.100632
 11
54.862499
 21
234.100632
  0
LINE
  8
0
  6
CONTINUOUS
 10
63.362499
 20
212.600632
 11
63.362499
 21
240.600601
  0
LINE
  8
0
  6
CONTINUOUS
 10
63.362499
 20
290.600616
 11
63.362499
 21
318.600616
  0
LINE
  8
0
  6
CONTINUOUS
 10
183.362503
 20
234.100632
 11
183.362503
 21
214.600616
  0
LINE
  8
0
  6
CONTINUOUS
 10
54.862499
 20
320.600616
 11
54.862499
 21
289.100616
  0
LINE
  8
0
  6
CONTINUOUS
 10
15.862500
 20
320.600616
 11
54.862499
 21
320.600616
  0
LINE
  8
0
  6
CONTINUOUS
 10
15.862500
 20
210.600632
 11
54.862499
 21
210.600632
  0
LINE
  8
0
  6
CONTINUOUS
 10
5.862500
 20
220.600632
 11
5.862500
 21
310.600616
  0
LINE
  8
0
  6
CONTINUOUS
 10
10.862500
 20
296.100616
 11
54.862499
 21
296.100616
  0
LINE
  8
0
  6
CONTINUOUS
 10
10.862500
 20
235.100632
 11
54.862480
 21
235.100632
  0
ARC
  8
0
  6
CONTINUOUS
 10
15.862550
 20
310.600616
 40
10.000000
 50
90.000000
 51
180.000000
  0
ARC
  8
0
  6
CONTINUOUS
 10
15.862500
 20
220.600632
 40
10.000000
 50
180.000000
 51
270.000000
  0
LINE
  8
0
  6
CONTINUOUS
 10
54.362499
 20
242.600601
 11
54.362499
 21
288.600616
  0
LINE
  8
0
  6
CONTINUOUS
 10
56.362499
 20
290.600616
 11
54.362499
 21
288.600616
  0
LINE
  8
0
  6
CONTINUOUS
 10
56.362499
 20
290.600616
 11
102.362488
 21
290.600616
  0
LINE
  8
0
  6
CONTINUOUS
 10
96.862503
 20
286.100616
 11
96.862503
 21
290.600616
  0
ARC
  8
0
  6
CONTINUOUS
 10
99.862503
 20
286.100616
 40
3.000000
 50
180.000000
 51
270.000000
  0
LINE
  8
0
  6
CONTINUOUS
 10
99.862503
 20
283.100616
 11
104.362488
 21
283.100616
  0
CIRCLE
  8
0
  6
CONTINUOUS
 10
100.862503
 20
287.100616
 40
2.250000
  0
LINE
  8
0
  6
CONTINUOUS
 10
104.362495
 20
242.600601
 11
104.362488
 21
288.600616
  0
LINE
  8
0
  6
CONTINUOUS
 10
102.362488
 20
290.600616
 11
104.362488
 21
288.600616
  0
LINE
  8
0
  6
CONTINUOUS
 10
102.362495
 20
240.600601
 11
104.362495
 21
242.600601
  0
LINE
  8
0
  6
CONTINUOUS
 10
102.362495
 20
240.600601
 11
56.362499
 21
240.600601
  0
LINE
  8
0
  6
CONTINUOUS
 10
54.362499
 20
242.600601
 11
56.362499
 21
240.600601
  0
LINE
  8
0
  6
CONTINUOUS
 10
58.862499
 20
248.100601
 11
54.362511
 21
248.100601
  0
CIRCLE
  8
0
  6
CONTINUOUS
 10
57.862499
 20
244.100601
 40
2.250000
  0
ARC
  8
0
  6
CONTINUOUS
 10
58.862499
 20
245.100601
 40
3.000000
 50
0.000000
 51
90.000000
  0
LINE
  8
0
  6
CONTINUOUS
 10
61.862499
 20
245.100601
 11
61.862499
 21
240.600601
  0
LINE
  8
0
  6
CENTER
 10
79.362503
 20
233.134827
 11
79.362503
 21
297.266846
  0
LINE
  8
0
  6
CONTINUOUS
 10
55.362507
 20
248.100632
 11
55.362507
 21
283.100616
  0
LINE
  8
0
  6
CONTINUOUS
 10
96.862503
 20
289.600616
 11
61.862518
 21
289.600616
  0
LINE
  8
0
  6
CONTINUOUS
 10
103.362495
 20
283.100616
 11
103.362495
 21
248.100632
  0
LINE
  8
0
  6
CONTINUOUS
 10
61.862499
 20
241.600632
 11
96.862518
 21
241.600632
  0
LINE
  8
0
  6
CONTINUOUS
 10
54.862499
 20
242.100601
 11
54.862499
 21
210.600632
  0
LINE
  8
0
  6
CONTINUOUS
 10
342.362488
 20
113.571877
 11
337.433594
 21
113.571877
  0
LINE
  8
0
  6
CONTINUOUS
 10
58.862518
 20
283.100616
 11
54.362518
 21
283.100616
  0
ARC
  8
0
  6
CONTINUOUS
 10
58.862518
 20
286.100616
 40
3.000000
 50
-90.000000
 51
0.000000
  0
LINE
  8
0
  6
CONTINUOUS
 10
61.862518
 20
286.100616
 11
61.862518
 21
290.600616
  0
CIRCLE
  8
0
  6
CONTINUOUS
 10
57.862518
 20
287.100616
 40
2.250000
  0
CIRCLE
  8
0
  6
CONTINUOUS
 10
100.862518
 20
244.100632
 40
2.250000
  0
LINE
  8
0
  6
CONTINUOUS
 10
96.862518
 20
245.100632
 11
96.862518
 21
240.600632
  0
ARC
  8
0
  6
CONTINUOUS
 10
99.862518
 20
245.100632
 40
3.000000
 50
90.000000
 51
180.000000
  0
LINE
  8
0
  6
CONTINUOUS
 10
99.862518
 20
248.100632
 11
104.362518
 21
248.100632
  0
LINE
  8
0
  6
CONTINUOUS
 10
55.862499
 20
113.071877
 11
102.362503
 21
113.071877
  0
LINE
  8
0
  6
CONTINUOUS
 10
104.362480
 20
157.071869
 11
104.362503
 21
115.071877
  0
LINE
  8
0
  6
CONTINUOUS
 10
54.362499
 20
157.071869
 11
54.362499
 21
115.071877
  0
LINE
  8
0
  6
CONTINUOUS
 10
54.362499
 20
125.071877
 11
104.362503
 21
125.071877
  0
LINE
  8
0
  6
CONTINUOUS
 10
102.362503
 20
113.071877
 11
104.362503
 21
115.071877
  0
LINE
  8
0
  6
CONTINUOUS
 10
54.362499
 20
115.071877
 11
56.362499
 21
113.071877
  0
LINE
  8
0
  6
CONTINUOUS
 10
54.362499
 20
115.071877
 11
104.362503
 21
115.071877
  0
LINE
  8
0
  6
CONTINUOUS
 10
54.362499
 20
126.071877
 11
104.362488
 21
126.071877
  0
LINE
  8
0
  6
CONTINUOUS
 10
55.362499
 20
158.071869
 11
103.362480
 21
158.071869
  0
LINE
  8
0
  6
CONTINUOUS
 10
103.362480
 20
158.071869
 11
104.362480
 21
157.071869
  0
LINE
  8
0
  6
CONTINUOUS
 10
55.362499
 20
158.071869
 11
54.362499
 21
157.071869
  0
LINE
  8
0
  6
CONTINUOUS
 10
54.362499
 20
157.071869
 11
104.362480
 21
157.071869
  0
LINE
  8
0
  6
CENTER
 10
51.987499
 20
141.071869
 11
56.612499
 21
141.071869
  0
LINE
  8
0
  6
CONTINUOUS
 10
55.862499
 20
113.071877
 11
55.862499
 21
111.571877
  0
LINE
  8
0
  6
CONTINUOUS
 10
101.862503
 20
113.071877
 11
101.862503
 21
111.571877
  0
LINE
  8
0
  6
CONTINUOUS
 10
53.487499
 20
151.571869
 11
55.487499
 21
151.571869
  0
LINE
  8
0
  6
CONTINUOUS
 10
53.487499
 20
130.571869
 11
55.487499
 21
130.571869
  0
LINE
  8
0
  6
CENTER
 10
79.362503
 20
103.656250
 11
79.362503
 21
164.991257
  0
LINE
  8
0
  6
CONTINUOUS
 10
342.862488
 20
113.071877
 11
388.862488
 21
113.071877
  0
LINE
  8
0
  6
CONTINUOUS
 10
390.862488
 20
157.071869
 11
390.862488
 21
115.071877
  0
LINE
  8
0
  6
CONTINUOUS
 10
340.862488
 20
157.071869
 11
340.862488
 21
115.071877
  0
LINE
  8
0
  6
CONTINUOUS
 10
340.862488
 20
125.071877
 11
390.862488
 21
125.071877
  0
LINE
  8
0
  6
CONTINUOUS
 10
388.862488
 20
113.071877
 11
390.862488
 21
115.071877
  0
LINE
  8
0
  6
CONTINUOUS
 10
340.862488
 20
115.071877
 11
342.862488
 21
113.071877
  0
LINE
  8
0
  6
CONTINUOUS
 10
340.862488
 20
115.071877
 11
390.862488
 21
115.071877
  0
LINE
  8
0
  6
CONTINUOUS
 10
340.862488
 20
126.071877
 11
390.862488
 21
126.071877
  0
LINE
  8
0
  6
CONTINUOUS
 10
341.862488
 20
158.071869
 11
389.862488
 21
158.071869
  0
LINE
  8
0
  6
CONTINUOUS
 10
389.862488
 20
158.071869
 11
390.862488
 21
157.071869
  0
LINE
  8
0
  6
CONTINUOUS
 10
341.862488
 20
158.071869
 11
340.862488
 21
157.071869
  0
LINE
  8
0
  6
CONTINUOUS
 10
340.862488
 20
157.071869
 11
390.862488
 21
157.071869
  0
LINE
  8
0
  6
CONTINUOUS
 10
388.362488
 20
113.071877
 11
388.362488
 21
111.179146
  0
LINE
  8
0
  6
CONTINUOUS
 10
343.362488
 20
113.071877
 11
343.362488
 21
111.179138
  0
LINE
  8
0
  6
CENTER
 10
301.916260
 20
58.571877
 11
431.459991
 21
58.571877
  0
TEXT
  8
0
 10
-6.000000
 20
-2.000000
 40
4.000000
 41
1.000000
  1
GFM-18-40~240-S90K
 50
0.000000
  0
ENDSEC
  0
EOF
