  0
SECTION
  2
HEADER
  9
$CLAYER
  8
1
  9
$LTSCALE
 40
3.0
  0
ENDSEC
  0
SECTION
  2
TABLES
  0
TABLE
  2
LTYPE
 70
     4
  0
LTYPE
  2
CONTINUOUS
  3
solid line
 70
    64
 72
    65
 73
     0
 40
0.0
  0
LTYPE
  2
DASHED
  3
__ __ __ __ __ __ __ __ __ __ __ __ __ __ __
 70
    64
 72
    65
 73
     2
 40
0.75
 49
0.5
 49
-0.25
  0
LTYPE
  2
CENTER
  3
____ _ ____ _ ____ _ ____ _ ____ _ ____ _ ____
 70
    64
 72
    65
 73
     4
 40
2.0
 49
1.25
 49
-0.25
 49
0.25
 49
-0.25
  0
LTYPE
  2
PHANTOM
  3
_____ _ _ _____ _ _ _____ _ _ _____ _ _ ____
 70
    64
 72
    65
 73
     6
 40
2.5
 49
1.25
 49
-0.25
 49
0.25
 49
-0.25
 49
0.25
 49
-0.25
  0
ENDTAB
  0
TABLE
  2
LAYER
 70
     1
  0
LAYER
  2
0
 70
    64
 62
     7
  6
CONTINUOUS
  0
ENDTAB
  0
TABLE
  2
STYLE
 70
     1
  0
STYLE
  2
STANDARD
 70
     0
 40
0.000000
 41
1.000000
 50
0.000000
 71
     0
 42
3.000000
  3
txt
  4
BIGFONT
  0
ENDTAB
  0
ENDSEC
  0
SECTION
  2
BLOCKS
  0
ENDSEC
  0
SECTION
  2
ENTITIES
  0
LINE
  8
0
  6
CONTINUOUS
 10
54.862499
 20
114.629372
 11
54.862499
 21
4.629375
  0
LINE
  8
0
  6
CONTINUOUS
 10
54.862480
 20
112.629372
 11
63.362499
 21
112.629372
  0
LINE
  8
0
  6
CONTINUOUS
 10
54.862480
 20
6.629375
 11
63.362499
 21
6.629375
  0
LINE
  8
0
  6
CONTINUOUS
 10
54.862480
 20
102.191978
 11
63.362499
 21
102.191978
  0
LINE
  8
0
  6
CONTINUOUS
 10
54.862480
 20
16.945246
 11
63.362499
 21
16.945246
  0
LINE
  8
0
  6
CONTINUOUS
 10
15.862500
 20
114.629372
 11
54.862499
 21
114.629372
  0
LINE
  8
0
  6
CONTINUOUS
 10
15.862500
 20
4.629375
 11
54.862499
 21
4.629375
  0
LINE
  8
0
  6
CONTINUOUS
 10
5.862500
 20
14.629375
 11
5.862500
 21
104.629372
  0
LINE
  8
0
  6
CONTINUOUS
 10
10.862500
 20
90.129372
 11
54.862499
 21
90.129372
  0
LINE
  8
0
  6
CONTINUOUS
 10
10.862500
 20
29.129375
 11
54.862480
 21
29.129375
  0
ARC
  8
0
  6
CONTINUOUS
 10
15.862550
 20
104.629372
 40
10.000000
 50
90.000000
 51
180.000000
  0
ARC
  8
0
  6
CONTINUOUS
 10
15.862500
 20
14.629375
 40
10.000000
 50
180.000000
 51
270.000000
  0
LINE
  8
0
  6
CONTINUOUS
 10
63.362499
 20
6.629375
 11
63.362499
 21
112.629372
  0
LINE
  8
0
  6
CENTER
 10
-5.067500
 20
59.629375
 11
207.798752
 21
59.629375
  0
LINE
  8
0
  6
CENTER
 10
160.072205
 20
74.629372
 11
239.362503
 21
74.629372
  0
LINE
  8
0
  6
CONTINUOUS
 10
63.362499
 20
112.629372
 11
193.362503
 21
112.629372
  0
LINE
  8
0
  6
CONTINUOUS
 10
63.362499
 20
6.629375
 11
193.362503
 21
6.629375
  0
LINE
  8
0
  6
CONTINUOUS
 10
193.362503
 20
6.629375
 11
193.362503
 21
112.629372
  0
LINE
  8
0
  6
CONTINUOUS
 10
63.362499
 20
102.252777
 11
183.362503
 21
102.252777
  0
LINE
  8
0
  6
CONTINUOUS
 10
63.362499
 20
17.006016
 11
183.362503
 21
17.006016
  0
LINE
  8
0
  6
CONTINUOUS
 10
183.362503
 20
110.629372
 11
183.362503
 21
8.629365
  0
ARC
  8
0
  6
CONTINUOUS
 10
185.362503
 20
110.629372
 40
2.000000
 50
90.000000
 51
180.000000
  0
ARC
  8
0
  6
CONTINUOUS
 10
185.362503
 20
8.629375
 40
2.000000
 50
180.000000
 51
270.000000
  0
LINE
  8
0
  6
CENTER
 10
179.112503
 20
15.629375
 11
197.862503
 21
15.629375
  0
LINE
  8
0
  6
CENTER
 10
180.112503
 20
103.629372
 11
197.112503
 21
103.629372
  0
LINE
  8
0
  6
DASHED
 10
183.362503
 20
107.879372
 11
193.362503
 21
107.879372
  0
LINE
  8
0
  6
DASHED
 10
183.362503
 20
99.379372
 11
193.362503
 21
99.379372
  0
LINE
  8
0
  6
DASHED
 10
183.362503
 20
19.879375
 11
193.362503
 21
19.879375
  0
LINE
  8
0
  6
DASHED
 10
183.362503
 20
11.379375
 11
193.362503
 21
11.379375
  0
LINE
  8
0
  6
CONTINUOUS
 10
197.362503
 20
98.129372
 11
193.362503
 21
98.129372
  0
LINE
  8
0
  6
CONTINUOUS
 10
197.362503
 20
51.129375
 11
193.362503
 21
51.129375
  0
LINE
  8
0
  6
CONTINUOUS
 10
198.362503
 20
52.129375
 11
198.362503
 21
97.129372
  0
ARC
  8
0
  6
CONTINUOUS
 10
197.362503
 20
97.129372
 40
1.000000
 50
0.000000
 51
90.000000
  0
ARC
  8
0
  6
CONTINUOUS
 10
197.362503
 20
97.129372
 40
1.000000
 50
0.000000
 51
90.000000
  0
ARC
  8
0
  6
CONTINUOUS
 10
197.362503
 20
52.129375
 40
1.000000
 50
-90.000000
 51
0.000000
  0
LINE
  8
0
  6
CONTINUOUS
 10
230.362503
 20
65.629372
 11
230.362503
 21
83.629372
  0
LINE
  8
0
  6
CONTINUOUS
 10
200.362503
 20
83.629372
 11
230.362503
 21
83.629372
  0
LINE
  8
0
  6
CONTINUOUS
 10
200.362503
 20
65.629372
 11
230.362503
 21
65.629372
  0
LINE
  8
0
  6
CONTINUOUS
 10
200.362503
 20
84.629372
 11
200.362503
 21
64.629372
  0
LINE
  8
0
  6
CONTINUOUS
 10
198.362503
 20
84.629372
 11
200.362503
 21
84.629372
  0
LINE
  8
0
  6
CONTINUOUS
 10
198.362503
 20
64.629372
 11
200.362503
 21
64.629372
  0
ARC
  8
0
  6
CONTINUOUS
 10
206.362503
 20
74.629372
 40
3.000000
 50
90.000000
 51
270.000000
  0
LINE
  8
0
  6
CONTINUOUS
 10
206.362503
 20
77.629372
 11
230.362503
 21
77.629372
  0
LINE
  8
0
  6
CONTINUOUS
 10
206.362503
 20
71.629372
 11
230.362503
 21
71.629372
  0
LINE
  8
0
  6
CENTER
 10
365.862488
 20
-1.596285
 11
365.862488
 21
153.410629
  0
LINE
  8
0
  6
CONTINUOUS
 10
418.862488
 20
12.467975
 11
418.862488
 21
106.790771
  0
LINE
  8
0
  6
CONTINUOUS
 10
312.862488
 20
12.467785
 11
312.862488
 21
106.790573
  0
LINE
  8
0
  6
CONTINUOUS
 10
413.949707
 20
111.789978
 11
365.862488
 21
112.629372
  0
LINE
  8
0
  6
CONTINUOUS
 10
317.775208
 20
111.789871
 11
365.862488
 21
112.629372
  0
ARC
  8
0
  6
CONTINUOUS
 10
413.862488
 20
106.790771
 40
5.000000
 50
0.000000
 51
89.000137
  0
ARC
  8
0
  6
CONTINUOUS
 10
317.862488
 20
106.790672
 40
5.000000
 50
91.000610
 51
180.000000
  0
CIRCLE
  8
0
  6
CONTINUOUS
 10
409.862488
 20
103.790771
 40
4.250000
  0
CIRCLE
  8
0
  6
CONTINUOUS
 10
321.862488
 20
103.790573
 40
4.250000
  0
CIRCLE
  8
0
  6
CONTINUOUS
 10
321.862488
 20
15.467625
 40
4.250000
  0
CIRCLE
  8
0
  6
CONTINUOUS
 10
409.926086
 20
15.629375
 40
4.250000
  0
LINE
  8
0
  6
CENTER
 10
409.862488
 20
111.129372
 11
409.862488
 21
93.379372
  0
LINE
  8
0
  6
CENTER
 10
409.862488
 20
9.129375
 11
409.862488
 21
24.379375
  0
LINE
  8
0
  6
CENTER
 10
313.862488
 20
103.629372
 11
329.612488
 21
103.629372
  0
LINE
  8
0
  6
CENTER
 10
417.612488
 20
103.629372
 11
400.612488
 21
103.629372
  0
LINE
  8
0
  6
CENTER
 10
321.862488
 20
111.129372
 11
321.862488
 21
95.129372
  0
LINE
  8
0
  6
CENTER
 10
321.862488
 20
8.629375
 11
321.862488
 21
24.629375
  0
LINE
  8
0
  6
CENTER
 10
315.362488
 20
15.629375
 11
330.112488
 21
15.629375
  0
LINE
  8
0
  6
CENTER
 10
417.362488
 20
15.629375
 11
400.612488
 21
15.629375
  0
LINE
  8
0
  6
CENTER
 10
337.862488
 20
74.629372
 11
394.362488
 21
74.629372
  0
LINE
  8
0
  6
CONTINUOUS
 10
413.862488
 20
75.321678
 11
413.862488
 21
43.937004
  0
LINE
  8
0
  6
CONTINUOUS
 10
317.862488
 20
75.321678
 11
317.862488
 21
43.937023
  0
ARC
  8
0
  6
CONTINUOUS
 10
365.862488
 20
59.629375
 40
50.500000
 50
18.103800
 51
161.896194
  0
ARC
  8
0
  6
CONTINUOUS
 10
365.862488
 20
59.629375
 40
50.500000
 50
198.103806
 51
341.896210
  0
LINE
  8
0
  6
CONTINUOUS
 10
359.487488
 20
37.182594
 11
359.487488
 21
31.629375
  0
LINE
  8
0
  6
CONTINUOUS
 10
362.674988
 20
39.199684
 11
362.674988
 21
41.191875
  0
LINE
  8
0
  6
CONTINUOUS
 10
369.049988
 20
39.199684
 11
369.049988
 21
41.191875
  0
LINE
  8
0
  6
CONTINUOUS
 10
365.239899
 20
40.021465
 11
365.239899
 21
32.675274
  0
LINE
  8
0
  6
CONTINUOUS
 10
366.435303
 20
40.021465
 11
366.435303
 21
32.675274
  0
LINE
  8
0
  6
CONTINUOUS
 10
372.710602
 20
40.021465
 11
372.710602
 21
32.625465
  0
LINE
  8
0
  6
CONTINUOUS
 10
373.806305
 20
36.099346
 11
373.806305
 21
32.625465
  0
LINE
  8
0
  6
CONTINUOUS
 10
357.975006
 20
39.921856
 11
354.903107
 21
39.921856
  0
LINE
  8
0
  6
CONTINUOUS
 10
354.903107
 20
39.921856
 11
354.183289
 21
39.029354
  0
LINE
  8
0
  6
CONTINUOUS
 10
354.269897
 20
41.191875
 11
353.112488
 21
39.709873
  0
LINE
  8
0
  6
CONTINUOUS
 10
354.183289
 20
33.520294
 11
354.914612
 21
32.749985
  0
LINE
  8
0
  6
CONTINUOUS
 10
353.112488
 20
32.870224
 11
354.342285
 21
31.629375
  0
LINE
  8
0
  6
CONTINUOUS
 10
353.112488
 20
39.709873
 11
353.112488
 21
32.870224
  0
LINE
  8
0
  6
CONTINUOUS
 10
354.183289
 20
39.029354
 11
354.183289
 21
33.520294
  0
LINE
  8
0
  6
CONTINUOUS
 10
358.566101
 20
39.350414
 11
357.962891
 21
39.921856
  0
LINE
  8
0
  6
CONTINUOUS
 10
358.556488
 20
41.191875
 11
359.487488
 21
40.158733
  0
LINE
  8
0
  6
CONTINUOUS
 10
358.566101
 20
39.199684
 11
359.487488
 21
39.199684
  0
LINE
  8
0
  6
CONTINUOUS
 10
354.269897
 20
41.191875
 11
358.556488
 21
41.191875
  0
LINE
  8
0
  6
CONTINUOUS
 10
358.566101
 20
36.136696
 11
356.897705
 21
36.136696
  0
LINE
  8
0
  6
CONTINUOUS
 10
358.566101
 20
35.140606
 11
358.566101
 21
35.937485
  0
LINE
  8
0
  6
CONTINUOUS
 10
356.573914
 20
32.749985
 11
354.914612
 21
32.749985
  0
ARC
  8
0
  6
CONTINUOUS
 10
356.573914
 20
34.742165
 40
1.992187
 50
-89.999786
 51
0.000109
  0
LINE
  8
0
  6
CONTINUOUS
 10
358.566101
 20
32.391636
 11
358.566101
 21
31.629375
  0
LINE
  8
0
  6
CONTINUOUS
 10
359.487488
 20
40.158733
 11
359.487488
 21
39.199684
  0
LINE
  8
0
  6
CONTINUOUS
 10
358.566101
 20
36.136696
 11
358.566101
 21
34.742165
  0
LINE
  8
0
  6
CONTINUOUS
 10
356.897705
 20
37.182594
 11
356.897705
 21
36.136696
  0
LINE
  8
0
  6
CONTINUOUS
 10
358.566101
 20
31.629375
 11
359.487488
 21
31.629375
  0
LINE
  8
0
  6
CONTINUOUS
 10
358.566101
 20
32.391636
 11
357.657501
 21
31.629375
  0
LINE
  8
0
  6
CONTINUOUS
 10
366.435303
 20
32.675274
 11
366.833710
 21
32.675274
  0
LINE
  8
0
  6
CONTINUOUS
 10
364.766815
 20
32.675274
 11
364.766815
 21
31.629375
  0
LINE
  8
0
  6
CONTINUOUS
 10
366.833710
 20
32.675274
 11
366.833710
 21
31.629375
  0
LINE
  8
0
  6
CONTINUOUS
 10
368.385101
 20
39.199684
 11
369.049988
 21
39.199684
  0
LINE
  8
0
  6
CONTINUOUS
 10
362.674988
 20
39.199684
 11
363.382599
 21
39.199684
  0
LINE
  8
0
  6
CONTINUOUS
 10
362.674988
 20
41.191875
 11
369.049988
 21
41.191875
  0
LINE
  8
0
  6
CONTINUOUS
 10
364.766815
 20
31.629375
 11
366.833710
 21
31.629375
  0
LINE
  8
0
  6
CONTINUOUS
 10
364.766815
 20
32.675274
 11
365.239899
 21
32.675274
  0
ARC
  8
0
  6
CONTINUOUS
 10
376.059998
 20
38.639385
 40
2.552490
 50
-73.981873
 51
90.003510
  0
ARC
  8
0
  6
CONTINUOUS
 10
376.059998
 20
38.639385
 40
1.557193
 50
-82.585274
 51
62.411850
  0
LINE
  8
0
  6
CONTINUOUS
 10
372.237488
 20
41.191875
 11
376.059998
 21
41.191875
  0
LINE
  8
0
  6
CONTINUOUS
 10
372.237488
 20
41.191875
 11
372.237488
 21
40.021465
  0
LINE
  8
0
  6
CONTINUOUS
 10
373.806305
 20
40.021465
 11
373.806305
 21
37.095215
  0
LINE
  8
0
  6
CONTINUOUS
 10
376.764404
 20
36.185993
 11
378.344208
 21
32.625465
  0
LINE
  8
0
  6
CONTINUOUS
 10
375.846802
 20
36.099346
 11
377.341797
 21
32.625465
  0
LINE
  8
0
  6
CONTINUOUS
 10
372.237488
 20
32.625465
 11
372.710602
 21
32.625465
  0
LINE
  8
0
  6
CONTINUOUS
 10
373.806305
 20
32.625465
 11
374.242096
 21
32.625465
  0
LINE
  8
0
  6
CONTINUOUS
 10
374.242096
 20
31.629375
 11
372.237488
 21
31.629375
  0
LINE
  8
0
  6
CONTINUOUS
 10
377.143311
 20
32.625465
 11
377.341797
 21
32.625465
  0
LINE
  8
0
  6
CONTINUOUS
 10
378.344208
 20
32.625465
 11
378.612488
 21
32.625465
  0
LINE
  8
0
  6
CONTINUOUS
 10
377.143311
 20
31.629375
 11
378.612488
 21
31.629375
  0
LINE
  8
0
  6
CONTINUOUS
 10
378.612488
 20
32.625465
 11
378.612488
 21
31.629375
  0
LINE
  8
0
  6
CONTINUOUS
 10
377.143311
 20
32.625465
 11
377.143311
 21
31.629375
  0
LINE
  8
0
  6
CONTINUOUS
 10
374.242096
 20
32.625465
 11
374.242096
 21
31.629375
  0
LINE
  8
0
  6
CONTINUOUS
 10
372.237488
 20
32.625465
 11
372.237488
 21
31.629375
  0
LINE
  8
0
  6
CONTINUOUS
 10
363.725006
 20
40.021465
 11
363.382599
 21
39.199684
  0
LINE
  8
0
  6
CONTINUOUS
 10
368.096313
 20
40.021465
 11
368.385101
 21
39.199684
  0
LINE
  8
0
  6
CONTINUOUS
 10
366.435303
 20
40.021465
 11
368.096313
 21
40.021465
  0
LINE
  8
0
  6
CONTINUOUS
 10
365.239899
 20
40.021465
 11
363.725006
 21
40.021465
  0
LINE
  8
0
  6
CONTINUOUS
 10
372.237488
 20
40.021465
 11
372.710602
 21
40.021465
  0
LINE
  8
0
  6
CONTINUOUS
 10
373.806305
 20
40.021465
 11
376.781189
 21
40.019524
  0
LINE
  8
0
  6
CONTINUOUS
 10
358.566101
 20
39.350414
 11
358.566101
 21
39.199684
  0
LINE
  8
0
  6
CONTINUOUS
 10
354.342285
 20
31.629375
 11
357.657501
 21
31.629375
  0
LINE
  8
0
  6
CONTINUOUS
 10
373.806305
 20
37.095215
 11
376.260986
 21
37.095215
  0
LINE
  8
0
  6
CONTINUOUS
 10
373.806305
 20
36.099346
 11
375.846802
 21
36.099346
  0
LINE
  8
0
  6
CONTINUOUS
 10
356.897705
 20
37.182594
 11
359.487488
 21
37.182594
  0
LINE
  8
0
  6
CONTINUOUS
 10
413.949799
 20
7.468735
 11
365.862488
 21
6.629375
  0
LINE
  8
0
  6
CONTINUOUS
 10
317.775299
 20
7.468555
 11
365.862488
 21
6.629375
  0
ARC
  8
0
  6
CONTINUOUS
 10
413.862488
 20
12.467965
 40
5.000000
 50
-88.999817
 51
0.000000
  0
ARC
  8
0
  6
CONTINUOUS
 10
317.862488
 20
12.467825
 40
5.000000
 50
180.000000
 51
269.000488
  0
LINE
  8
0
  6
CONTINUOUS
 10
394.291412
 20
114.629372
 11
389.362488
 21
114.629372
  0
LINE
  8
0
  6
CONTINUOUS
 10
394.291412
 20
4.629375
 11
337.433594
 21
4.629375
  0
LINE
  8
0
  6
CONTINUOUS
 10
310.862488
 20
31.200445
 11
310.862488
 21
88.058273
  0
LINE
  8
0
  6
CONTINUOUS
 10
420.862488
 20
88.058273
 11
420.862488
 21
31.200445
  0
ARC
  8
0
  6
CONTINUOUS
 10
337.433594
 20
109.629372
 40
5.000000
 50
90.000000
 51
135.000198
  0
ARC
  8
0
  6
CONTINUOUS
 10
315.862488
 20
88.058372
 40
5.000000
 50
135.000305
 51
180.000000
  0
ARC
  8
0
  6
CONTINUOUS
 10
315.862488
 20
31.200476
 40
5.000000
 50
180.000000
 51
225.000397
  0
ARC
  8
0
  6
CONTINUOUS
 10
337.433594
 20
9.629375
 40
5.000000
 50
225.000000
 51
270.000000
  0
ARC
  8
0
  6
CONTINUOUS
 10
394.291412
 20
9.629375
 40
5.000000
 50
270.000000
 51
315.000000
  0
ARC
  8
0
  6
CONTINUOUS
 10
415.862488
 20
31.200436
 40
5.000000
 50
-44.999882
 51
0.000000
  0
ARC
  8
0
  6
CONTINUOUS
 10
415.862488
 20
88.058273
 40
5.000000
 50
0.000000
 51
45.000160
  0
ARC
  8
0
  6
CONTINUOUS
 10
394.291504
 20
109.629372
 40
5.000000
 50
45.000160
 51
90.000000
  0
LINE
  8
0
  6
CONTINUOUS
 10
397.826996
 20
113.164871
 11
398.939911
 21
112.051971
  0
LINE
  8
0
  6
CONTINUOUS
 10
419.398010
 20
91.593872
 11
418.862488
 21
92.129372
  0
LINE
  8
0
  6
CONTINUOUS
 10
312.326996
 20
91.593872
 11
312.862488
 21
92.129372
  0
LINE
  8
0
  6
CONTINUOUS
 10
333.898102
 20
113.164871
 11
332.785004
 21
112.051872
  0
LINE
  8
0
  6
CONTINUOUS
 10
333.898102
 20
6.093845
 11
332.785309
 21
7.206615
  0
LINE
  8
0
  6
CONTINUOUS
 10
312.326996
 20
27.664906
 11
312.862488
 21
27.129354
  0
LINE
  8
0
  6
CONTINUOUS
 10
419.398010
 20
27.664906
 11
418.862488
 21
27.129375
  0
LINE
  8
0
  6
CONTINUOUS
 10
397.826904
 20
6.093835
 11
398.939911
 21
7.206735
  0
LINE
  8
0
  6
CONTINUOUS
 10
360.362488
 20
77.629372
 11
360.362488
 21
71.629372
  0
LINE
  8
0
  6
CONTINUOUS
 10
354.362488
 20
77.629372
 11
354.362488
 21
71.629372
  0
LINE
  8
0
  6
CONTINUOUS
 10
354.362488
 20
77.629372
 11
360.362488
 21
77.629372
  0
LINE
  8
0
  6
CONTINUOUS
 10
354.362488
 20
71.629372
 11
360.362488
 21
71.629372
  0
ARC
  8
0
  6
CONTINUOUS
 10
365.862488
 20
74.629372
 40
9.000000
 50
-160.528793
 51
160.528793
  0
CIRCLE
  8
0
  6
CONTINUOUS
 10
365.862488
 20
74.629372
 40
23.500000
  0
LINE
  8
0
  6
CENTER
 10
-6.988125
 20
242.335632
 11
236.463593
 21
242.335632
  0
LINE
  8
0
  6
CONTINUOUS
 10
63.362499
 20
295.335632
 11
193.362503
 21
295.335632
  0
LINE
  8
0
  6
CONTINUOUS
 10
63.362499
 20
189.335632
 11
193.362503
 21
189.335632
  0
LINE
  8
0
  6
CONTINUOUS
 10
193.362503
 20
189.335632
 11
193.362503
 21
295.335632
  0
LINE
  8
0
  6
CONTINUOUS
 10
63.362499
 20
273.835632
 11
183.362503
 21
273.835632
  0
LINE
  8
0
  6
CONTINUOUS
 10
63.362499
 20
210.835632
 11
183.362503
 21
210.835632
  0
LINE
  8
0
  6
CONTINUOUS
 10
183.362503
 20
293.335632
 11
183.362503
 21
273.835632
  0
ARC
  8
0
  6
CONTINUOUS
 10
185.362503
 20
293.335632
 40
2.000000
 50
90.000000
 51
180.000000
  0
ARC
  8
0
  6
CONTINUOUS
 10
185.362503
 20
191.335632
 40
2.000000
 50
180.000000
 51
270.000000
  0
LINE
  8
0
  6
CENTER
 10
179.112503
 20
198.335632
 11
197.862503
 21
198.335632
  0
LINE
  8
0
  6
CENTER
 10
180.112503
 20
286.335632
 11
197.112503
 21
286.335632
  0
LINE
  8
0
  6
DASHED
 10
183.362503
 20
290.585632
 11
193.362503
 21
290.585632
  0
LINE
  8
0
  6
DASHED
 10
183.362503
 20
282.085632
 11
193.362503
 21
282.085632
  0
LINE
  8
0
  6
DASHED
 10
183.362503
 20
202.585632
 11
193.362503
 21
202.585632
  0
LINE
  8
0
  6
DASHED
 10
183.362503
 20
194.085632
 11
193.362503
 21
194.085632
  0
LINE
  8
0
  6
CONTINUOUS
 10
198.362503
 20
219.835632
 11
198.362503
 21
264.835632
  0
LINE
  8
0
  6
CONTINUOUS
 10
197.362503
 20
265.835632
 11
193.362503
 21
265.835632
  0
LINE
  8
0
  6
CONTINUOUS
 10
197.362503
 20
218.835632
 11
193.362503
 21
218.835632
  0
ARC
  8
0
  6
CONTINUOUS
 10
197.362503
 20
264.835632
 40
1.000000
 50
0.000000
 51
90.000000
  0
ARC
  8
0
  6
CONTINUOUS
 10
197.362503
 20
219.835632
 40
1.000000
 50
-90.000000
 51
0.000000
  0
LINE
  8
0
  6
CONTINUOUS
 10
230.362503
 20
230.835617
 11
230.362503
 21
251.335617
  0
LINE
  8
0
  6
CONTINUOUS
 10
200.362503
 20
251.335617
 11
230.362503
 21
251.335617
  0
LINE
  8
0
  6
CONTINUOUS
 10
200.362503
 20
233.335632
 11
203.362503
 21
233.335632
  0
LINE
  8
0
  6
CONTINUOUS
 10
200.362503
 20
252.335617
 11
200.362503
 21
232.335632
  0
LINE
  8
0
  6
CONTINUOUS
 10
198.362503
 20
252.335617
 11
200.362503
 21
252.335617
  0
LINE
  8
0
  6
CONTINUOUS
 10
198.362503
 20
232.335632
 11
200.362503
 21
232.335632
  0
LINE
  8
0
  6
CONTINUOUS
 10
203.362503
 20
233.850632
 11
203.362503
 21
230.835617
  0
LINE
  8
0
  6
CONTINUOUS
 10
203.362503
 20
230.835617
 11
230.362503
 21
230.835617
  0
LINE
  8
0
  6
CONTINUOUS
 10
203.362503
 20
233.850632
 11
230.362503
 21
233.850632
  0
LINE
  8
0
  6
CONTINUOUS
 10
54.862499
 20
295.335602
 11
63.362499
 21
295.335602
  0
LINE
  8
0
  6
CONTINUOUS
 10
54.862499
 20
189.335632
 11
63.362499
 21
189.335632
  0
LINE
  8
0
  6
CONTINUOUS
 10
63.362499
 20
273.835632
 11
54.862499
 21
273.835632
  0
LINE
  8
0
  6
CONTINUOUS
 10
63.362499
 20
210.835632
 11
54.862499
 21
210.835632
  0
LINE
  8
0
  6
CONTINUOUS
 10
63.362499
 20
189.335632
 11
63.362499
 21
217.335602
  0
LINE
  8
0
  6
CONTINUOUS
 10
63.362499
 20
267.335602
 11
63.362499
 21
295.335602
  0
LINE
  8
0
  6
CONTINUOUS
 10
183.362503
 20
210.835632
 11
183.362503
 21
191.335617
  0
LINE
  8
0
  6
CONTINUOUS
 10
54.862499
 20
297.335632
 11
54.862499
 21
265.835602
  0
LINE
  8
0
  6
CONTINUOUS
 10
15.862500
 20
297.335632
 11
54.862499
 21
297.335632
  0
LINE
  8
0
  6
CONTINUOUS
 10
15.862500
 20
187.335632
 11
54.862499
 21
187.335632
  0
LINE
  8
0
  6
CONTINUOUS
 10
5.862500
 20
197.335632
 11
5.862500
 21
287.335632
  0
LINE
  8
0
  6
CONTINUOUS
 10
10.862500
 20
272.835632
 11
54.862499
 21
272.835632
  0
LINE
  8
0
  6
CONTINUOUS
 10
10.862500
 20
211.835632
 11
54.862480
 21
211.835632
  0
ARC
  8
0
  6
CONTINUOUS
 10
15.862550
 20
287.335632
 40
10.000000
 50
90.000000
 51
180.000000
  0
ARC
  8
0
  6
CONTINUOUS
 10
15.862500
 20
197.335632
 40
10.000000
 50
180.000000
 51
270.000000
  0
LINE
  8
0
  6
CONTINUOUS
 10
55.862499
 20
114.129372
 11
102.362503
 21
114.129372
  0
LINE
  8
0
  6
CONTINUOUS
 10
104.362488
 20
144.129379
 11
104.362503
 21
116.129372
  0
LINE
  8
0
  6
CONTINUOUS
 10
54.362499
 20
144.129379
 11
54.362499
 21
116.129372
  0
LINE
  8
0
  6
CONTINUOUS
 10
52.362499
 20
126.129372
 11
104.362503
 21
126.129372
  0
LINE
  8
0
  6
CONTINUOUS
 10
102.362503
 20
114.129372
 11
104.362503
 21
116.129372
  0
LINE
  8
0
  6
CONTINUOUS
 10
54.362499
 20
116.129372
 11
56.362499
 21
114.129372
  0
LINE
  8
0
  6
CONTINUOUS
 10
54.362499
 20
116.129372
 11
104.362503
 21
116.129372
  0
LINE
  8
0
  6
CONTINUOUS
 10
55.362499
 20
145.129379
 11
103.362488
 21
145.129379
  0
LINE
  8
0
  6
CONTINUOUS
 10
103.362488
 20
145.129379
 11
104.362488
 21
144.129379
  0
LINE
  8
0
  6
CONTINUOUS
 10
55.362499
 20
145.129379
 11
54.362499
 21
144.129379
  0
LINE
  8
0
  6
CONTINUOUS
 10
54.362499
 20
144.129379
 11
104.362488
 21
144.129379
  0
LINE
  8
0
  6
CENTER
 10
46.418743
 20
135.629379
 11
58.493752
 21
135.629379
  0
LINE
  8
0
  6
CONTINUOUS
 10
52.362514
 20
142.129379
 11
52.362499
 21
126.129372
  0
LINE
  8
0
  6
CONTINUOUS
 10
53.362499
 20
143.129379
 11
54.362499
 21
143.129379
  0
ARC
  8
0
  6
CONTINUOUS
 10
53.362518
 20
142.129379
 40
1.000000
 50
90.000000
 51
180.000000
  0
LINE
  8
0
  6
CONTINUOUS
 10
48.862514
 20
139.629379
 11
48.862514
 21
131.629379
  0
LINE
  8
0
  6
CONTINUOUS
 10
48.862514
 20
139.629379
 11
52.362514
 21
141.129379
  0
LINE
  8
0
  6
CONTINUOUS
 10
48.862499
 20
131.629379
 11
52.362499
 21
130.129379
  0
LINE
  8
0
  6
CENTER
 10
79.362503
 20
106.300003
 11
79.362503
 21
153.887497
  0
LINE
  8
0
  6
CONTINUOUS
 10
55.862499
 20
114.129372
 11
55.862499
 21
112.629372
  0
LINE
  8
0
  6
CONTINUOUS
 10
101.862503
 20
114.129372
 11
101.862503
 21
112.629372
  0
LINE
  8
0
  6
CONTINUOUS
 10
342.862488
 20
114.129372
 11
388.862488
 21
114.129372
  0
LINE
  8
0
  6
CONTINUOUS
 10
390.862488
 20
144.129379
 11
390.862488
 21
116.129372
  0
LINE
  8
0
  6
CONTINUOUS
 10
340.862488
 20
144.129379
 11
340.862488
 21
116.129372
  0
LINE
  8
0
  6
CONTINUOUS
 10
340.862488
 20
126.129372
 11
390.862488
 21
126.129372
  0
LINE
  8
0
  6
CONTINUOUS
 10
388.862488
 20
114.129372
 11
390.862488
 21
116.129372
  0
LINE
  8
0
  6
CONTINUOUS
 10
340.862488
 20
116.129372
 11
342.862488
 21
114.129372
  0
LINE
  8
0
  6
CONTINUOUS
 10
340.862488
 20
116.129372
 11
390.862488
 21
116.129372
  0
LINE
  8
0
  6
CONTINUOUS
 10
341.862488
 20
145.129379
 11
389.862488
 21
145.129379
  0
LINE
  8
0
  6
CONTINUOUS
 10
389.862488
 20
145.129379
 11
390.862488
 21
144.129379
  0
LINE
  8
0
  6
CONTINUOUS
 10
341.862488
 20
145.129379
 11
340.862488
 21
144.129379
  0
LINE
  8
0
  6
CONTINUOUS
 10
340.862488
 20
144.129379
 11
390.862488
 21
144.129379
  0
LINE
  8
0
  6
CONTINUOUS
 10
388.362488
 20
114.129372
 11
388.362488
 21
112.236633
  0
LINE
  8
0
  6
CONTINUOUS
 10
343.362488
 20
114.129372
 11
343.362488
 21
112.236649
  0
LINE
  8
0
  6
CONTINUOUS
 10
53.362499
 20
249.835602
 11
54.362499
 21
249.835602
  0
ARC
  8
0
  6
CONTINUOUS
 10
53.362518
 20
248.835602
 40
1.000000
 50
90.000000
 51
180.000000
  0
LINE
  8
0
  6
CONTINUOUS
 10
48.862514
 20
246.335602
 11
48.862514
 21
238.335602
  0
LINE
  8
0
  6
CONTINUOUS
 10
48.862514
 20
246.335602
 11
52.362514
 21
247.835602
  0
LINE
  8
0
  6
CONTINUOUS
 10
48.862499
 20
238.335602
 11
52.362499
 21
236.835602
  0
LINE
  8
0
  6
CONTINUOUS
 10
52.362514
 20
248.835602
 11
52.362514
 21
235.835602
  0
LINE
  8
0
  6
CONTINUOUS
 10
53.362499
 20
234.835602
 11
54.362499
 21
234.835602
  0
ARC
  8
0
  6
CONTINUOUS
 10
53.362518
 20
235.835602
 40
1.000000
 50
-180.000000
 51
-90.000000
  0
LINE
  8
0
  6
CONTINUOUS
 10
54.362499
 20
219.335602
 11
54.362499
 21
265.335602
  0
LINE
  8
0
  6
CONTINUOUS
 10
56.362499
 20
267.335602
 11
54.362499
 21
265.335602
  0
LINE
  8
0
  6
CONTINUOUS
 10
56.362499
 20
267.335602
 11
102.362488
 21
267.335602
  0
LINE
  8
0
  6
CONTINUOUS
 10
96.862503
 20
262.835602
 11
96.862503
 21
267.335602
  0
ARC
  8
0
  6
CONTINUOUS
 10
99.862503
 20
262.835602
 40
3.000000
 50
180.000000
 51
270.000000
  0
LINE
  8
0
  6
CONTINUOUS
 10
99.862503
 20
259.835602
 11
104.362488
 21
259.835602
  0
CIRCLE
  8
0
  6
CONTINUOUS
 10
100.862503
 20
263.835602
 40
2.250000
  0
LINE
  8
0
  6
CONTINUOUS
 10
104.362495
 20
219.335602
 11
104.362488
 21
265.335602
  0
LINE
  8
0
  6
CONTINUOUS
 10
102.362488
 20
267.335602
 11
104.362488
 21
265.335602
  0
LINE
  8
0
  6
CONTINUOUS
 10
102.362495
 20
217.335602
 11
104.362495
 21
219.335602
  0
LINE
  8
0
  6
CONTINUOUS
 10
102.362495
 20
217.335602
 11
56.362499
 21
217.335602
  0
LINE
  8
0
  6
CONTINUOUS
 10
54.362499
 20
219.335602
 11
56.362499
 21
217.335602
  0
LINE
  8
0
  6
CONTINUOUS
 10
58.862499
 20
224.835602
 11
54.362511
 21
224.835602
  0
CIRCLE
  8
0
  6
CONTINUOUS
 10
57.862499
 20
220.835602
 40
2.250000
  0
ARC
  8
0
  6
CONTINUOUS
 10
58.862499
 20
221.835602
 40
3.000000
 50
0.000000
 51
90.000000
  0
LINE
  8
0
  6
CONTINUOUS
 10
61.862499
 20
221.835602
 11
61.862499
 21
217.335602
  0
LINE
  8
0
  6
CENTER
 10
79.362503
 20
209.869827
 11
79.362503
 21
274.001862
  0
LINE
  8
0
  6
CONTINUOUS
 10
56.776718
 20
266.335632
 11
55.362507
 21
264.921417
  0
LINE
  8
0
  6
CONTINUOUS
 10
55.362507
 20
224.835632
 11
55.362507
 21
264.921417
  0
LINE
  8
0
  6
CONTINUOUS
 10
96.862503
 20
266.335632
 11
56.776718
 21
266.335632
  0
LINE
  8
0
  6
CONTINUOUS
 10
103.362495
 20
259.835632
 11
103.362495
 21
219.749832
  0
LINE
  8
0
  6
CONTINUOUS
 10
61.862499
 20
218.335632
 11
101.948280
 21
218.335632
  0
LINE
  8
0
  6
CONTINUOUS
 10
101.948280
 20
218.335632
 11
103.362495
 21
219.749832
  0
LINE
  8
0
  6
CONTINUOUS
 10
54.862499
 20
218.835602
 11
54.862499
 21
187.335632
  0
LINE
  8
0
  6
CONTINUOUS
 10
342.362488
 20
114.629372
 11
337.433594
 21
114.629372
  0
LINE
  8
0
  6
CENTER
 10
297.157501
 20
59.629375
 11
433.575012
 21
59.629375
  0
TEXT
  8
0
 10
-6.000000
 20
-1.000000
 40
4.000000
 41
1.000000
  1
GFM-18-40~240-S90WT
 50
0.000000
  0
ENDSEC
  0
EOF
