  0
SECTION
  2
HEADER
  9
$CLAYER
  8
1
  9
$LTSCALE
 40
3.0
  0
ENDSEC
  0
SECTION
  2
TABLES
  0
TABLE
  2
LTYPE
 70
     4
  0
LTYPE
  2
CONTINUOUS
  3
solid line
 70
    64
 72
    65
 73
     0
 40
0.0
  0
LTYPE
  2
DASHED
  3
__ __ __ __ __ __ __ __ __ __ __ __ __ __ __
 70
    64
 72
    65
 73
     2
 40
0.75
 49
0.5
 49
-0.25
  0
LTYPE
  2
CENTER
  3
____ _ ____ _ ____ _ ____ _ ____ _ ____ _ ____
 70
    64
 72
    65
 73
     4
 40
2.0
 49
1.25
 49
-0.25
 49
0.25
 49
-0.25
  0
LTYPE
  2
PHANTOM
  3
_____ _ _ _____ _ _ _____ _ _ _____ _ _ ____
 70
    64
 72
    65
 73
     6
 40
2.5
 49
1.25
 49
-0.25
 49
0.25
 49
-0.25
 49
0.25
 49
-0.25
  0
ENDTAB
  0
TABLE
  2
LAYER
 70
     1
  0
LAYER
  2
0
 70
    64
 62
     7
  6
CONTINUOUS
  0
ENDTAB
  0
TABLE
  2
STYLE
 70
     1
  0
STYLE
  2
STANDARD
 70
     0
 40
0.000000
 41
1.000000
 50
0.000000
 71
     0
 42
3.000000
  3
txt
  4
BIGFONT
  0
ENDTAB
  0
ENDSEC
  0
SECTION
  2
BLOCKS
  0
ENDSEC
  0
SECTION
  2
ENTITIES
  0
LINE
  8
0
  6
CONTINUOUS
 10
9.457339
 20
56.456875
 11
9.457339
 21
101.456879
  0
LINE
  8
0
  6
CONTINUOUS
 10
9.457339
 20
56.456875
 11
9.457339
 21
11.456875
  0
LINE
  8
0
  6
CONTINUOUS
 10
9.957339
 20
105.456879
 11
9.957339
 21
11.456875
  0
LINE
  8
0
  6
CONTINUOUS
 10
15.047529
 20
109.456879
 11
29.957338
 21
109.456879
  0
LINE
  8
0
  6
CONTINUOUS
 10
15.047529
 20
3.456875
 11
29.957338
 21
3.456875
  0
LINE
  8
0
  6
CONTINUOUS
 10
9.957339
 20
11.456875
 11
9.957339
 21
7.456875
  0
LINE
  8
0
  6
CONTINUOUS
 10
10.575369
 20
106.692978
 11
9.957339
 21
105.456879
  0
ARC
  8
0
  6
CONTINUOUS
 10
15.047529
 20
104.456879
 40
5.000000
 50
90.000000
 51
153.435196
  0
LINE
  8
0
  6
CONTINUOUS
 10
10.575369
 20
6.220805
 11
9.957339
 21
7.456875
  0
ARC
  8
0
  6
CONTINUOUS
 10
15.047529
 20
8.456875
 40
5.000000
 50
206.565002
 51
270.000000
  0
LINE
  8
0
  6
CONTINUOUS
 10
9.457339
 20
11.456875
 11
9.957339
 21
10.956875
  0
LINE
  8
0
  6
CONTINUOUS
 10
9.457339
 20
101.456879
 11
9.957339
 21
101.956879
  0
LINE
  8
0
  6
CONTINUOUS
 10
29.957338
 20
99.080276
 11
11.832339
 21
99.080276
  0
LINE
  8
0
  6
CONTINUOUS
 10
29.957338
 20
13.833525
 11
11.832339
 21
13.833525
  0
LINE
  8
0
  6
CONTINUOUS
 10
29.957338
 20
3.456875
 11
29.957338
 21
109.456879
  0
LINE
  8
0
  6
CENTER
 10
-4.684844
 20
56.456875
 11
171.368591
 21
56.456875
  0
LINE
  8
0
  6
CENTER
 10
126.667038
 20
71.456879
 11
205.957336
 21
71.456879
  0
LINE
  8
0
  6
CONTINUOUS
 10
29.957338
 20
109.456879
 11
159.957336
 21
109.456879
  0
LINE
  8
0
  6
CONTINUOUS
 10
29.957338
 20
3.456875
 11
159.957336
 21
3.456875
  0
LINE
  8
0
  6
CONTINUOUS
 10
159.957336
 20
3.456875
 11
159.957336
 21
109.456879
  0
LINE
  8
0
  6
CONTINUOUS
 10
29.957338
 20
99.080276
 11
149.957336
 21
99.080276
  0
LINE
  8
0
  6
CONTINUOUS
 10
29.957338
 20
13.833515
 11
149.957336
 21
13.833515
  0
LINE
  8
0
  6
CONTINUOUS
 10
149.957336
 20
107.456879
 11
149.957336
 21
5.456865
  0
ARC
  8
0
  6
CONTINUOUS
 10
151.957336
 20
107.456879
 40
2.000000
 50
90.000000
 51
180.000000
  0
ARC
  8
0
  6
CONTINUOUS
 10
151.957336
 20
5.456875
 40
2.000000
 50
180.000000
 51
270.000000
  0
LINE
  8
0
  6
CENTER
 10
145.707336
 20
12.456875
 11
164.457336
 21
12.456875
  0
LINE
  8
0
  6
CENTER
 10
146.707336
 20
100.456879
 11
163.707336
 21
100.456879
  0
LINE
  8
0
  6
DASHED
 10
149.957336
 20
104.706879
 11
159.957336
 21
104.706879
  0
LINE
  8
0
  6
DASHED
 10
149.957336
 20
96.206879
 11
159.957336
 21
96.206879
  0
LINE
  8
0
  6
DASHED
 10
149.957336
 20
16.706875
 11
159.957336
 21
16.706875
  0
LINE
  8
0
  6
DASHED
 10
149.957336
 20
8.206875
 11
159.957336
 21
8.206875
  0
LINE
  8
0
  6
CONTINUOUS
 10
163.957336
 20
94.956879
 11
159.957336
 21
94.956879
  0
LINE
  8
0
  6
CONTINUOUS
 10
163.957336
 20
47.956875
 11
159.957336
 21
47.956875
  0
LINE
  8
0
  6
CONTINUOUS
 10
164.957336
 20
48.956875
 11
164.957336
 21
93.956879
  0
ARC
  8
0
  6
CONTINUOUS
 10
163.957336
 20
93.956879
 40
1.000000
 50
0.000000
 51
90.000000
  0
ARC
  8
0
  6
CONTINUOUS
 10
163.957336
 20
93.956879
 40
1.000000
 50
0.000000
 51
90.000000
  0
ARC
  8
0
  6
CONTINUOUS
 10
163.957336
 20
48.956875
 40
1.000000
 50
-90.000000
 51
0.000000
  0
LINE
  8
0
  6
CENTER
 10
314.457336
 20
-4.768785
 11
314.457336
 21
150.906555
  0
LINE
  8
0
  6
CONTINUOUS
 10
367.457336
 20
9.374015
 11
367.457336
 21
103.618279
  0
LINE
  8
0
  6
CONTINUOUS
 10
261.457336
 20
9.295285
 11
261.457336
 21
103.618073
  0
LINE
  8
0
  6
CONTINUOUS
 10
362.544525
 20
108.617477
 11
314.457336
 21
109.456879
  0
LINE
  8
0
  6
CONTINUOUS
 10
266.370026
 20
108.617378
 11
314.457336
 21
109.456879
  0
ARC
  8
0
  6
CONTINUOUS
 10
362.457336
 20
103.618279
 40
5.000000
 50
0.000000
 51
89.000137
  0
ARC
  8
0
  6
CONTINUOUS
 10
266.457336
 20
103.618172
 40
5.000000
 50
91.000610
 51
180.000000
  0
CIRCLE
  8
0
  6
CONTINUOUS
 10
358.457336
 20
100.618279
 40
4.250000
  0
CIRCLE
  8
0
  6
CONTINUOUS
 10
270.457336
 20
100.618073
 40
4.250000
  0
CIRCLE
  8
0
  6
CONTINUOUS
 10
270.457336
 20
12.295125
 40
4.250000
  0
CIRCLE
  8
0
  6
CONTINUOUS
 10
358.520935
 20
12.456875
 40
4.250000
  0
LINE
  8
0
  6
CENTER
 10
358.457336
 20
107.956879
 11
358.457336
 21
90.206879
  0
LINE
  8
0
  6
CENTER
 10
358.457336
 20
5.956875
 11
358.457336
 21
21.206875
  0
LINE
  8
0
  6
CENTER
 10
262.457336
 20
100.456879
 11
278.207336
 21
100.456879
  0
LINE
  8
0
  6
CENTER
 10
366.207336
 20
100.456879
 11
349.207336
 21
100.456879
  0
LINE
  8
0
  6
CENTER
 10
270.457336
 20
107.956879
 11
270.457336
 21
91.956879
  0
LINE
  8
0
  6
CENTER
 10
270.457336
 20
5.456875
 11
270.457336
 21
21.456875
  0
LINE
  8
0
  6
CENTER
 10
263.957336
 20
12.456875
 11
278.707336
 21
12.456875
  0
LINE
  8
0
  6
CENTER
 10
365.957336
 20
12.456875
 11
349.207336
 21
12.456875
  0
LINE
  8
0
  6
CENTER
 10
286.457336
 20
71.456879
 11
342.957336
 21
71.456879
  0
LINE
  8
0
  6
CONTINUOUS
 10
362.457336
 20
72.149178
 11
362.457336
 21
40.764515
  0
LINE
  8
0
  6
CONTINUOUS
 10
266.457336
 20
72.149178
 11
266.457336
 21
40.764526
  0
ARC
  8
0
  6
CONTINUOUS
 10
314.457336
 20
56.456875
 40
50.500000
 50
18.103800
 51
161.896194
  0
ARC
  8
0
  6
CONTINUOUS
 10
314.457336
 20
56.456875
 40
50.500000
 50
198.103806
 51
341.896210
  0
LINE
  8
0
  6
CONTINUOUS
 10
308.082336
 20
34.010105
 11
308.082336
 21
28.456875
  0
LINE
  8
0
  6
CONTINUOUS
 10
311.269836
 20
36.027195
 11
311.269836
 21
38.019375
  0
LINE
  8
0
  6
CONTINUOUS
 10
317.644836
 20
36.027195
 11
317.644836
 21
38.019375
  0
LINE
  8
0
  6
CONTINUOUS
 10
313.834747
 20
36.848965
 11
313.834747
 21
29.502775
  0
LINE
  8
0
  6
CONTINUOUS
 10
315.030151
 20
36.848965
 11
315.030151
 21
29.502775
  0
LINE
  8
0
  6
CONTINUOUS
 10
321.305450
 20
36.848965
 11
321.305450
 21
29.452965
  0
LINE
  8
0
  6
CONTINUOUS
 10
322.401154
 20
32.926846
 11
322.401154
 21
29.452965
  0
LINE
  8
0
  6
CONTINUOUS
 10
306.569824
 20
36.749355
 11
303.497925
 21
36.749355
  0
LINE
  8
0
  6
CONTINUOUS
 10
303.497925
 20
36.749355
 11
302.778137
 21
35.856853
  0
LINE
  8
0
  6
CONTINUOUS
 10
302.864746
 20
38.019375
 11
301.707336
 21
36.537376
  0
LINE
  8
0
  6
CONTINUOUS
 10
302.778137
 20
30.347805
 11
303.509430
 21
29.577484
  0
LINE
  8
0
  6
CONTINUOUS
 10
301.707336
 20
29.697735
 11
302.937134
 21
28.456875
  0
LINE
  8
0
  6
CONTINUOUS
 10
301.707336
 20
36.537376
 11
301.707336
 21
29.697735
  0
LINE
  8
0
  6
CONTINUOUS
 10
302.778137
 20
35.856853
 11
302.778137
 21
30.347805
  0
LINE
  8
0
  6
CONTINUOUS
 10
307.160950
 20
36.177914
 11
306.557739
 21
36.749355
  0
LINE
  8
0
  6
CONTINUOUS
 10
307.151337
 20
38.019375
 11
308.082336
 21
36.986237
  0
LINE
  8
0
  6
CONTINUOUS
 10
307.160950
 20
36.027195
 11
308.082336
 21
36.027195
  0
LINE
  8
0
  6
CONTINUOUS
 10
302.864746
 20
38.019375
 11
307.151337
 21
38.019375
  0
LINE
  8
0
  6
CONTINUOUS
 10
307.160950
 20
32.964195
 11
305.492554
 21
32.964195
  0
LINE
  8
0
  6
CONTINUOUS
 10
307.160950
 20
31.968105
 11
307.160950
 21
32.764984
  0
LINE
  8
0
  6
CONTINUOUS
 10
305.168732
 20
29.577484
 11
303.509430
 21
29.577484
  0
ARC
  8
0
  6
CONTINUOUS
 10
305.168732
 20
31.569675
 40
1.992188
 50
-89.999786
 51
0.000109
  0
LINE
  8
0
  6
CONTINUOUS
 10
307.160950
 20
29.219135
 11
307.160950
 21
28.456875
  0
LINE
  8
0
  6
CONTINUOUS
 10
308.082336
 20
36.986237
 11
308.082336
 21
36.027195
  0
LINE
  8
0
  6
CONTINUOUS
 10
307.160950
 20
32.964195
 11
307.160950
 21
31.569675
  0
LINE
  8
0
  6
CONTINUOUS
 10
305.492554
 20
34.010105
 11
305.492554
 21
32.964195
  0
LINE
  8
0
  6
CONTINUOUS
 10
307.160950
 20
28.456875
 11
308.082336
 21
28.456875
  0
LINE
  8
0
  6
CONTINUOUS
 10
307.160950
 20
29.219135
 11
306.252350
 21
28.456875
  0
LINE
  8
0
  6
CONTINUOUS
 10
315.030151
 20
29.502775
 11
315.428528
 21
29.502775
  0
LINE
  8
0
  6
CONTINUOUS
 10
313.361633
 20
29.502775
 11
313.361633
 21
28.456875
  0
LINE
  8
0
  6
CONTINUOUS
 10
315.428528
 20
29.502775
 11
315.428528
 21
28.456875
  0
LINE
  8
0
  6
CONTINUOUS
 10
316.979950
 20
36.027195
 11
317.644836
 21
36.027195
  0
LINE
  8
0
  6
CONTINUOUS
 10
311.269836
 20
36.027195
 11
311.977448
 21
36.027195
  0
LINE
  8
0
  6
CONTINUOUS
 10
311.269836
 20
38.019375
 11
317.644836
 21
38.019375
  0
LINE
  8
0
  6
CONTINUOUS
 10
313.361633
 20
28.456875
 11
315.428528
 21
28.456875
  0
LINE
  8
0
  6
CONTINUOUS
 10
313.361633
 20
29.502775
 11
313.834747
 21
29.502775
  0
ARC
  8
0
  6
CONTINUOUS
 10
324.654846
 20
35.466885
 40
2.552490
 50
-73.981873
 51
90.003510
  0
ARC
  8
0
  6
CONTINUOUS
 10
324.654846
 20
35.466885
 40
1.557192
 50
-82.585274
 51
62.411850
  0
LINE
  8
0
  6
CONTINUOUS
 10
320.832336
 20
38.019375
 11
324.654846
 21
38.019375
  0
LINE
  8
0
  6
CONTINUOUS
 10
320.832336
 20
38.019375
 11
320.832336
 21
36.848965
  0
LINE
  8
0
  6
CONTINUOUS
 10
322.401154
 20
36.848965
 11
322.401154
 21
33.922714
  0
LINE
  8
0
  6
CONTINUOUS
 10
325.359253
 20
33.013496
 11
326.939026
 21
29.452965
  0
LINE
  8
0
  6
CONTINUOUS
 10
324.441650
 20
32.926846
 11
325.936646
 21
29.452965
  0
LINE
  8
0
  6
CONTINUOUS
 10
320.832336
 20
29.452965
 11
321.305450
 21
29.452965
  0
LINE
  8
0
  6
CONTINUOUS
 10
322.401154
 20
29.452965
 11
322.836945
 21
29.452965
  0
LINE
  8
0
  6
CONTINUOUS
 10
322.836945
 20
28.456875
 11
320.832336
 21
28.456875
  0
LINE
  8
0
  6
CONTINUOUS
 10
325.738129
 20
29.452965
 11
325.936646
 21
29.452965
  0
LINE
  8
0
  6
CONTINUOUS
 10
326.939026
 20
29.452965
 11
327.207336
 21
29.452965
  0
LINE
  8
0
  6
CONTINUOUS
 10
325.738129
 20
28.456875
 11
327.207336
 21
28.456875
  0
LINE
  8
0
  6
CONTINUOUS
 10
327.207336
 20
29.452965
 11
327.207336
 21
28.456875
  0
LINE
  8
0
  6
CONTINUOUS
 10
325.738129
 20
29.452965
 11
325.738129
 21
28.456875
  0
LINE
  8
0
  6
CONTINUOUS
 10
322.836945
 20
29.452965
 11
322.836945
 21
28.456875
  0
LINE
  8
0
  6
CONTINUOUS
 10
320.832336
 20
29.452965
 11
320.832336
 21
28.456875
  0
LINE
  8
0
  6
CONTINUOUS
 10
312.319824
 20
36.848965
 11
311.977448
 21
36.027195
  0
LINE
  8
0
  6
CONTINUOUS
 10
316.691132
 20
36.848965
 11
316.979950
 21
36.027195
  0
LINE
  8
0
  6
CONTINUOUS
 10
315.030151
 20
36.848965
 11
316.691132
 21
36.848965
  0
LINE
  8
0
  6
CONTINUOUS
 10
313.834747
 20
36.848965
 11
312.319824
 21
36.848965
  0
LINE
  8
0
  6
CONTINUOUS
 10
320.832336
 20
36.848965
 11
321.305450
 21
36.848965
  0
LINE
  8
0
  6
CONTINUOUS
 10
322.401154
 20
36.848965
 11
325.376038
 21
36.847034
  0
LINE
  8
0
  6
CONTINUOUS
 10
307.160950
 20
36.177914
 11
307.160950
 21
36.027195
  0
LINE
  8
0
  6
CONTINUOUS
 10
302.937134
 20
28.456875
 11
306.252350
 21
28.456875
  0
LINE
  8
0
  6
CONTINUOUS
 10
322.401154
 20
33.922714
 11
324.855835
 21
33.922714
  0
LINE
  8
0
  6
CONTINUOUS
 10
322.401154
 20
32.926846
 11
324.441650
 21
32.926846
  0
LINE
  8
0
  6
CONTINUOUS
 10
305.492554
 20
34.010105
 11
308.082336
 21
34.010105
  0
LINE
  8
0
  6
CONTINUOUS
 10
196.957336
 20
62.456875
 11
196.957336
 21
80.456879
  0
LINE
  8
0
  6
CONTINUOUS
 10
166.957336
 20
80.456879
 11
196.957336
 21
80.456879
  0
LINE
  8
0
  6
CONTINUOUS
 10
166.957336
 20
62.456875
 11
196.957336
 21
62.456875
  0
LINE
  8
0
  6
CONTINUOUS
 10
166.957336
 20
81.456879
 11
166.957336
 21
61.456875
  0
LINE
  8
0
  6
CONTINUOUS
 10
164.957336
 20
81.456879
 11
166.957336
 21
81.456879
  0
LINE
  8
0
  6
CONTINUOUS
 10
164.957336
 20
61.456875
 11
166.957336
 21
61.456875
  0
ARC
  8
0
  6
CONTINUOUS
 10
172.957336
 20
71.456879
 40
3.000000
 50
90.000000
 51
270.000000
  0
LINE
  8
0
  6
CONTINUOUS
 10
172.957336
 20
74.456879
 11
196.957336
 21
74.456879
  0
LINE
  8
0
  6
CONTINUOUS
 10
172.957336
 20
68.456879
 11
196.957336
 21
68.456879
  0
LINE
  8
0
  6
CONTINUOUS
 10
308.957336
 20
74.456879
 11
308.957336
 21
68.456879
  0
LINE
  8
0
  6
CONTINUOUS
 10
302.957336
 20
74.456879
 11
302.957336
 21
68.456879
  0
LINE
  8
0
  6
CONTINUOUS
 10
302.957336
 20
74.456879
 11
308.957336
 21
74.456879
  0
LINE
  8
0
  6
CONTINUOUS
 10
302.957336
 20
68.456879
 11
308.957336
 21
68.456879
  0
ARC
  8
0
  6
CONTINUOUS
 10
314.457336
 20
71.456879
 40
9.000000
 50
-160.528793
 51
160.528793
  0
CIRCLE
  8
0
  6
CONTINUOUS
 10
314.457336
 20
71.456879
 40
23.500000
  0
LINE
  8
0
  6
CONTINUOUS
 10
362.544525
 20
4.296275
 11
314.457336
 21
3.456875
  0
LINE
  8
0
  6
CONTINUOUS
 10
266.370026
 20
4.296375
 11
314.457336
 21
3.456875
  0
ARC
  8
0
  6
CONTINUOUS
 10
362.457336
 20
9.295475
 40
5.000000
 50
-89.000137
 51
0.000000
  0
ARC
  8
0
  6
CONTINUOUS
 10
266.457336
 20
9.295575
 40
5.000000
 50
-180.000000
 51
-91.000610
  0
LINE
  8
0
  6
CENTER
 10
249.798584
 20
56.456875
 11
380.366699
 21
56.456875
  0
LINE
  8
0
  6
CENTER
 10
-6.162500
 20
239.163132
 11
203.058441
 21
239.163132
  0
LINE
  8
0
  6
CONTINUOUS
 10
29.957338
 20
292.163116
 11
159.957336
 21
292.163116
  0
LINE
  8
0
  6
CONTINUOUS
 10
29.957338
 20
186.163132
 11
159.957336
 21
186.163132
  0
LINE
  8
0
  6
CONTINUOUS
 10
159.957336
 20
186.163132
 11
159.957336
 21
292.163116
  0
LINE
  8
0
  6
CONTINUOUS
 10
29.957338
 20
270.663116
 11
149.957336
 21
270.663116
  0
LINE
  8
0
  6
CONTINUOUS
 10
29.957338
 20
207.663132
 11
149.957336
 21
207.663132
  0
LINE
  8
0
  6
CONTINUOUS
 10
149.957336
 20
290.163116
 11
149.957336
 21
270.663116
  0
ARC
  8
0
  6
CONTINUOUS
 10
151.957336
 20
290.163116
 40
2.000000
 50
90.000000
 51
180.000000
  0
ARC
  8
0
  6
CONTINUOUS
 10
151.957336
 20
188.163132
 40
2.000000
 50
180.000000
 51
270.000000
  0
LINE
  8
0
  6
CENTER
 10
145.707336
 20
195.163132
 11
164.457336
 21
195.163132
  0
LINE
  8
0
  6
CENTER
 10
146.707336
 20
283.163116
 11
163.707336
 21
283.163116
  0
LINE
  8
0
  6
DASHED
 10
149.957336
 20
287.413116
 11
159.957336
 21
287.413116
  0
LINE
  8
0
  6
DASHED
 10
149.957336
 20
278.913116
 11
159.957336
 21
278.913116
  0
LINE
  8
0
  6
DASHED
 10
149.957336
 20
199.413132
 11
159.957336
 21
199.413132
  0
LINE
  8
0
  6
DASHED
 10
149.957336
 20
190.913132
 11
159.957336
 21
190.913132
  0
LINE
  8
0
  6
CONTINUOUS
 10
164.957352
 20
216.663132
 11
164.957352
 21
261.663116
  0
LINE
  8
0
  6
CONTINUOUS
 10
163.957352
 20
262.663116
 11
159.957352
 21
262.663116
  0
LINE
  8
0
  6
CONTINUOUS
 10
163.957352
 20
215.663132
 11
159.957352
 21
215.663132
  0
ARC
  8
0
  6
CONTINUOUS
 10
163.957352
 20
261.663116
 40
1.000000
 50
0.000000
 51
90.000000
  0
ARC
  8
0
  6
CONTINUOUS
 10
163.957352
 20
216.663132
 40
1.000000
 50
-90.000000
 51
0.000000
  0
LINE
  8
0
  6
CONTINUOUS
 10
196.957336
 20
227.663116
 11
196.957336
 21
248.163116
  0
LINE
  8
0
  6
CONTINUOUS
 10
166.957352
 20
248.163116
 11
196.957336
 21
248.163116
  0
LINE
  8
0
  6
CONTINUOUS
 10
166.957352
 20
230.163132
 11
169.957352
 21
230.163132
  0
LINE
  8
0
  6
CONTINUOUS
 10
166.957352
 20
249.163116
 11
166.957352
 21
229.163132
  0
LINE
  8
0
  6
CONTINUOUS
 10
164.957352
 20
249.163116
 11
166.957352
 21
249.163116
  0
LINE
  8
0
  6
CONTINUOUS
 10
164.957352
 20
229.163132
 11
166.957352
 21
229.163132
  0
LINE
  8
0
  6
CONTINUOUS
 10
169.957352
 20
230.678131
 11
169.957352
 21
227.663116
  0
LINE
  8
0
  6
CONTINUOUS
 10
169.957352
 20
227.663116
 11
196.957336
 21
227.663116
  0
LINE
  8
0
  6
CONTINUOUS
 10
169.957352
 20
230.678131
 11
196.957336
 21
230.678131
  0
LINE
  8
0
  6
CONTINUOUS
 10
9.457344
 20
239.163132
 11
9.457344
 21
284.163116
  0
LINE
  8
0
  6
CONTINUOUS
 10
9.457344
 20
239.163132
 11
9.457344
 21
194.163132
  0
LINE
  8
0
  6
CONTINUOUS
 10
9.957344
 20
288.163116
 11
9.957344
 21
194.163132
  0
LINE
  8
0
  6
CONTINUOUS
 10
15.047534
 20
292.163116
 11
29.957338
 21
292.163116
  0
LINE
  8
0
  6
CONTINUOUS
 10
15.047534
 20
186.163132
 11
29.957338
 21
186.163132
  0
LINE
  8
0
  6
CONTINUOUS
 10
9.957344
 20
194.163132
 11
9.957344
 21
190.163132
  0
LINE
  8
0
  6
CONTINUOUS
 10
10.575344
 20
289.399200
 11
9.957344
 21
288.163116
  0
ARC
  8
0
  6
CONTINUOUS
 10
15.047534
 20
287.163116
 40
4.999999
 50
90.000000
 51
153.435196
  0
LINE
  8
0
  6
CONTINUOUS
 10
10.575344
 20
188.927063
 11
9.957344
 21
190.163132
  0
ARC
  8
0
  6
CONTINUOUS
 10
15.047534
 20
191.163132
 40
4.999999
 50
206.565002
 51
270.000000
  0
LINE
  8
0
  6
CONTINUOUS
 10
9.457344
 20
194.163132
 11
9.957344
 21
193.663132
  0
LINE
  8
0
  6
CONTINUOUS
 10
9.457344
 20
284.163116
 11
9.957344
 21
284.663116
  0
LINE
  8
0
  6
CONTINUOUS
 10
29.957338
 20
270.663116
 11
11.832344
 21
270.663116
  0
LINE
  8
0
  6
CONTINUOUS
 10
29.957338
 20
207.663132
 11
11.832344
 21
207.663132
  0
LINE
  8
0
  6
CONTINUOUS
 10
29.957338
 20
186.163132
 11
29.957338
 21
214.163101
  0
LINE
  8
0
  6
CONTINUOUS
 10
29.957338
 20
264.163116
 11
29.957338
 21
292.163116
  0
LINE
  8
0
  6
CONTINUOUS
 10
149.957336
 20
207.663132
 11
149.957336
 21
188.163116
  0
LINE
  8
0
  6
CONTINUOUS
 10
22.457338
 20
110.956879
 11
68.957336
 21
110.956879
  0
LINE
  8
0
  6
CONTINUOUS
 10
70.957329
 20
140.956879
 11
70.957336
 21
112.956879
  0
LINE
  8
0
  6
CONTINUOUS
 10
20.957338
 20
140.956879
 11
20.957338
 21
112.956879
  0
LINE
  8
0
  6
CONTINUOUS
 10
18.957338
 20
122.956879
 11
70.957336
 21
122.956879
  0
LINE
  8
0
  6
CONTINUOUS
 10
68.957336
 20
110.956879
 11
70.957336
 21
112.956879
  0
LINE
  8
0
  6
CONTINUOUS
 10
20.957338
 20
112.956879
 11
22.957338
 21
110.956879
  0
LINE
  8
0
  6
CONTINUOUS
 10
20.957338
 20
112.956879
 11
70.957336
 21
112.956879
  0
LINE
  8
0
  6
CONTINUOUS
 10
21.957338
 20
141.956879
 11
69.957329
 21
141.956879
  0
LINE
  8
0
  6
CONTINUOUS
 10
69.957329
 20
141.956879
 11
70.957329
 21
140.956879
  0
LINE
  8
0
  6
CONTINUOUS
 10
21.957338
 20
141.956879
 11
20.957338
 21
140.956879
  0
LINE
  8
0
  6
CONTINUOUS
 10
20.957338
 20
140.956879
 11
70.957329
 21
140.956879
  0
LINE
  8
0
  6
CENTER
 10
13.013583
 20
132.456879
 11
25.088589
 21
132.456879
  0
LINE
  8
0
  6
CONTINUOUS
 10
18.957354
 20
138.956879
 11
18.957338
 21
122.956879
  0
LINE
  8
0
  6
CONTINUOUS
 10
19.957338
 20
139.956879
 11
20.957338
 21
139.956879
  0
ARC
  8
0
  6
CONTINUOUS
 10
19.957359
 20
138.956879
 40
1.000000
 50
90.000000
 51
180.000000
  0
LINE
  8
0
  6
CONTINUOUS
 10
15.457354
 20
136.456879
 11
15.457354
 21
128.456879
  0
LINE
  8
0
  6
CONTINUOUS
 10
15.457354
 20
136.456879
 11
18.957354
 21
137.956879
  0
LINE
  8
0
  6
CONTINUOUS
 10
15.457339
 20
128.456879
 11
18.957338
 21
126.956879
  0
LINE
  8
0
  6
CENTER
 10
45.957340
 20
103.127502
 11
45.957340
 21
150.714996
  0
LINE
  8
0
  6
CONTINUOUS
 10
22.457338
 20
110.956879
 11
22.457338
 21
109.456879
  0
LINE
  8
0
  6
CONTINUOUS
 10
68.457336
 20
110.956879
 11
68.457336
 21
109.456879
  0
LINE
  8
0
  6
CONTINUOUS
 10
291.457336
 20
110.956879
 11
337.457336
 21
110.956879
  0
LINE
  8
0
  6
CONTINUOUS
 10
339.457336
 20
140.956879
 11
339.457336
 21
112.956879
  0
LINE
  8
0
  6
CONTINUOUS
 10
289.457336
 20
140.956879
 11
289.457336
 21
112.956879
  0
LINE
  8
0
  6
CONTINUOUS
 10
289.457336
 20
122.956879
 11
339.457336
 21
122.956879
  0
LINE
  8
0
  6
CONTINUOUS
 10
337.457336
 20
110.956879
 11
339.457336
 21
112.956879
  0
LINE
  8
0
  6
CONTINUOUS
 10
289.457336
 20
112.956879
 11
291.457336
 21
110.956879
  0
LINE
  8
0
  6
CONTINUOUS
 10
289.457336
 20
112.956879
 11
339.457336
 21
112.956879
  0
LINE
  8
0
  6
CONTINUOUS
 10
290.457336
 20
141.956879
 11
338.457336
 21
141.956879
  0
LINE
  8
0
  6
CONTINUOUS
 10
338.457336
 20
141.956879
 11
339.457336
 21
140.956879
  0
LINE
  8
0
  6
CONTINUOUS
 10
290.457336
 20
141.956879
 11
289.457336
 21
140.956879
  0
LINE
  8
0
  6
CONTINUOUS
 10
289.457336
 20
140.956879
 11
339.457336
 21
140.956879
  0
LINE
  8
0
  6
CONTINUOUS
 10
336.957336
 20
110.956879
 11
336.957336
 21
109.064133
  0
LINE
  8
0
  6
CONTINUOUS
 10
291.957336
 20
110.956879
 11
291.957336
 21
109.064148
  0
LINE
  8
0
  6
CONTINUOUS
 10
19.957338
 20
246.663101
 11
20.957338
 21
246.663101
  0
ARC
  8
0
  6
CONTINUOUS
 10
19.957359
 20
245.663101
 40
1.000000
 50
90.000000
 51
180.000000
  0
LINE
  8
0
  6
CONTINUOUS
 10
15.457354
 20
243.163101
 11
15.457354
 21
235.163101
  0
LINE
  8
0
  6
CONTINUOUS
 10
15.457354
 20
243.163101
 11
18.957354
 21
244.663101
  0
LINE
  8
0
  6
CONTINUOUS
 10
15.457339
 20
235.163101
 11
18.957338
 21
233.663101
  0
LINE
  8
0
  6
CONTINUOUS
 10
18.957354
 20
245.663101
 11
18.957354
 21
232.663101
  0
LINE
  8
0
  6
CONTINUOUS
 10
19.957338
 20
231.663101
 11
20.957338
 21
231.663101
  0
ARC
  8
0
  6
CONTINUOUS
 10
19.957359
 20
232.663101
 40
1.000000
 50
-180.000000
 51
-90.000000
  0
LINE
  8
0
  6
CONTINUOUS
 10
20.957338
 20
216.163101
 11
20.957338
 21
262.163116
  0
LINE
  8
0
  6
CONTINUOUS
 10
22.957338
 20
264.163116
 11
20.957338
 21
262.163116
  0
LINE
  8
0
  6
CONTINUOUS
 10
22.957338
 20
264.163116
 11
68.957329
 21
264.163116
  0
LINE
  8
0
  6
CONTINUOUS
 10
63.457340
 20
259.663116
 11
63.457340
 21
264.163116
  0
ARC
  8
0
  6
CONTINUOUS
 10
66.457336
 20
259.663116
 40
3.000000
 50
180.000000
 51
270.000000
  0
LINE
  8
0
  6
CONTINUOUS
 10
66.457336
 20
256.663116
 11
70.957329
 21
256.663116
  0
CIRCLE
  8
0
  6
CONTINUOUS
 10
67.457336
 20
260.663116
 40
2.250000
  0
LINE
  8
0
  6
CONTINUOUS
 10
70.957336
 20
216.163101
 11
70.957329
 21
262.163116
  0
LINE
  8
0
  6
CONTINUOUS
 10
68.957329
 20
264.163116
 11
70.957329
 21
262.163116
  0
LINE
  8
0
  6
CONTINUOUS
 10
68.957336
 20
214.163101
 11
70.957336
 21
216.163101
  0
LINE
  8
0
  6
CONTINUOUS
 10
68.957336
 20
214.163101
 11
22.957338
 21
214.163101
  0
LINE
  8
0
  6
CONTINUOUS
 10
20.957338
 20
216.163101
 11
22.957338
 21
214.163101
  0
LINE
  8
0
  6
CONTINUOUS
 10
25.457338
 20
221.663101
 11
20.957350
 21
221.663101
  0
CIRCLE
  8
0
  6
CONTINUOUS
 10
24.457338
 20
217.663101
 40
2.250000
  0
ARC
  8
0
  6
CONTINUOUS
 10
25.457338
 20
218.663101
 40
3.000000
 50
0.000000
 51
90.000000
  0
LINE
  8
0
  6
CONTINUOUS
 10
28.457338
 20
218.663101
 11
28.457338
 21
214.163101
  0
LINE
  8
0
  6
CENTER
 10
45.957340
 20
206.697327
 11
45.957340
 21
270.829346
  0
LINE
  8
0
  6
CONTINUOUS
 10
23.371557
 20
263.163116
 11
21.957344
 21
261.748901
  0
LINE
  8
0
  6
CONTINUOUS
 10
21.957344
 20
221.663132
 11
21.957344
 21
261.748901
  0
LINE
  8
0
  6
CONTINUOUS
 10
63.457340
 20
263.163116
 11
23.371557
 21
263.163116
  0
LINE
  8
0
  6
CONTINUOUS
 10
69.957336
 20
256.663116
 11
69.957336
 21
216.577332
  0
LINE
  8
0
  6
CONTINUOUS
 10
28.457338
 20
215.163132
 11
68.543121
 21
215.163132
  0
LINE
  8
0
  6
CONTINUOUS
 10
68.543121
 20
215.163132
 11
69.957336
 21
216.577332
  0
TEXT
  8
0
 10
-6.000000
 20
-4.000000
 40
4.000000
 41
1.000000
  1
GFM-18-160~240-T40WT
 50
0.000000
  0
ENDSEC
  0
EOF
