  0
SECTION
  2
HEADER
  9
$CLAYER
  8
1
  9
$LTSCALE
 40
3.0
  0
ENDSEC
  0
SECTION
  2
TABLES
  0
TABLE
  2
LTYPE
 70
     4
  0
LTYPE
  2
CONTINUOUS
  3
solid line
 70
    64
 72
    65
 73
     0
 40
0.0
  0
LTYPE
  2
DASHED
  3
__ __ __ __ __ __ __ __ __ __ __ __ __ __ __
 70
    64
 72
    65
 73
     2
 40
0.75
 49
0.5
 49
-0.25
  0
LTYPE
  2
CENTER
  3
____ _ ____ _ ____ _ ____ _ ____ _ ____ _ ____
 70
    64
 72
    65
 73
     4
 40
2.0
 49
1.25
 49
-0.25
 49
0.25
 49
-0.25
  0
LTYPE
  2
PHANTOM
  3
_____ _ _ _____ _ _ _____ _ _ _____ _ _ ____
 70
    64
 72
    65
 73
     6
 40
2.5
 49
1.25
 49
-0.25
 49
0.25
 49
-0.25
 49
0.25
 49
-0.25
  0
ENDTAB
  0
TABLE
  2
LAYER
 70
     1
  0
LAYER
  2
0
 70
    64
 62
     7
  6
CONTINUOUS
  0
ENDTAB
  0
TABLE
  2
STYLE
 70
     1
  0
STYLE
  2
STANDARD
 70
     0
 40
0.000000
 41
1.000000
 50
0.000000
 71
     0
 42
3.000000
  3
txt
  4
BIGFONT
  0
ENDTAB
  0
ENDSEC
  0
SECTION
  2
BLOCKS
  0
ENDSEC
  0
SECTION
  2
ENTITIES
  0
LINE
  8
0
  6
CONTINUOUS
 10
9.457339
 20
61.744373
 11
9.457339
 21
106.744377
  0
LINE
  8
0
  6
CONTINUOUS
 10
9.457339
 20
61.744373
 11
9.457339
 21
16.744375
  0
LINE
  8
0
  6
CONTINUOUS
 10
9.957339
 20
110.744377
 11
9.957339
 21
16.744375
  0
LINE
  8
0
  6
CONTINUOUS
 10
15.047529
 20
114.744377
 11
29.957338
 21
114.744377
  0
LINE
  8
0
  6
CONTINUOUS
 10
15.047529
 20
8.744375
 11
29.957338
 21
8.744375
  0
LINE
  8
0
  6
CONTINUOUS
 10
9.957339
 20
16.744375
 11
9.957339
 21
12.744375
  0
LINE
  8
0
  6
CONTINUOUS
 10
10.575369
 20
111.980476
 11
9.957339
 21
110.744377
  0
ARC
  8
0
  6
CONTINUOUS
 10
15.047529
 20
109.744377
 40
5.000000
 50
90.000000
 51
153.435196
  0
LINE
  8
0
  6
CONTINUOUS
 10
10.575369
 20
11.508305
 11
9.957339
 21
12.744375
  0
ARC
  8
0
  6
CONTINUOUS
 10
15.047529
 20
13.744375
 40
5.000000
 50
206.565002
 51
270.000000
  0
LINE
  8
0
  6
CONTINUOUS
 10
9.457339
 20
16.744375
 11
9.957339
 21
16.244375
  0
LINE
  8
0
  6
CONTINUOUS
 10
9.457339
 20
106.744377
 11
9.957339
 21
107.244377
  0
LINE
  8
0
  6
CONTINUOUS
 10
29.957338
 20
104.367775
 11
11.832339
 21
104.367775
  0
LINE
  8
0
  6
CONTINUOUS
 10
29.957338
 20
19.121025
 11
11.832339
 21
19.121025
  0
LINE
  8
0
  6
CONTINUOUS
 10
30.457338
 20
116.244377
 11
30.457338
 21
114.744377
  0
LINE
  8
0
  6
CONTINUOUS
 10
23.457338
 20
116.244377
 11
23.457338
 21
114.744377
  0
LINE
  8
0
  6
CONTINUOUS
 10
23.457338
 20
116.244377
 11
30.457338
 21
116.244377
  0
LINE
  8
0
  6
CONTINUOUS
 10
27.857328
 20
129.244370
 11
27.857328
 21
116.244377
  0
LINE
  8
0
  6
CONTINUOUS
 10
26.057339
 20
129.869370
 11
26.057339
 21
116.244377
  0
LINE
  8
0
  6
CONTINUOUS
 10
24.257339
 20
127.806877
 11
24.257339
 21
116.244377
  0
LINE
  8
0
  6
CONTINUOUS
 10
29.657339
 20
128.619370
 11
29.657339
 21
116.244377
  0
LINE
  8
0
  6
CONTINUOUS
 10
26.057339
 20
129.869370
 11
27.857328
 21
129.244370
  0
LINE
  8
0
  6
CONTINUOUS
 10
24.257339
 20
127.806877
 11
26.057339
 21
128.431870
  0
LINE
  8
0
  6
CONTINUOUS
 10
29.657339
 20
128.619370
 11
27.858330
 21
128.171677
  0
LINE
  8
0
  6
CONTINUOUS
 10
29.957338
 20
8.744375
 11
29.957338
 21
114.744377
  0
LINE
  8
0
  6
CENTER
 10
-4.684844
 20
61.744373
 11
171.368591
 21
61.744373
  0
LINE
  8
0
  6
CENTER
 10
126.667038
 20
76.744377
 11
205.957336
 21
76.744377
  0
LINE
  8
0
  6
CONTINUOUS
 10
29.957338
 20
114.744377
 11
159.957336
 21
114.744377
  0
LINE
  8
0
  6
CONTINUOUS
 10
29.957338
 20
8.744375
 11
159.957336
 21
8.744375
  0
LINE
  8
0
  6
CONTINUOUS
 10
159.957336
 20
8.744375
 11
159.957336
 21
114.744377
  0
LINE
  8
0
  6
CONTINUOUS
 10
29.957338
 20
104.367775
 11
149.957336
 21
104.367775
  0
LINE
  8
0
  6
CONTINUOUS
 10
29.957338
 20
19.121016
 11
149.957336
 21
19.121016
  0
LINE
  8
0
  6
CONTINUOUS
 10
149.957336
 20
112.744377
 11
149.957336
 21
10.744365
  0
ARC
  8
0
  6
CONTINUOUS
 10
151.957336
 20
112.744377
 40
2.000000
 50
90.000000
 51
180.000000
  0
ARC
  8
0
  6
CONTINUOUS
 10
151.957336
 20
10.744375
 40
2.000000
 50
180.000000
 51
270.000000
  0
LINE
  8
0
  6
CENTER
 10
145.707336
 20
17.744375
 11
164.457336
 21
17.744375
  0
LINE
  8
0
  6
CENTER
 10
146.707336
 20
105.744377
 11
163.707336
 21
105.744377
  0
LINE
  8
0
  6
DASHED
 10
149.957336
 20
109.994377
 11
159.957336
 21
109.994377
  0
LINE
  8
0
  6
DASHED
 10
149.957336
 20
101.494377
 11
159.957336
 21
101.494377
  0
LINE
  8
0
  6
DASHED
 10
149.957336
 20
21.994375
 11
159.957336
 21
21.994375
  0
LINE
  8
0
  6
DASHED
 10
149.957336
 20
13.494375
 11
159.957336
 21
13.494375
  0
LINE
  8
0
  6
CONTINUOUS
 10
163.957336
 20
100.244377
 11
159.957336
 21
100.244377
  0
LINE
  8
0
  6
CONTINUOUS
 10
163.957336
 20
53.244373
 11
159.957336
 21
53.244373
  0
LINE
  8
0
  6
CONTINUOUS
 10
164.957336
 20
54.244373
 11
164.957336
 21
99.244377
  0
ARC
  8
0
  6
CONTINUOUS
 10
163.957336
 20
99.244377
 40
1.000000
 50
0.000000
 51
90.000000
  0
ARC
  8
0
  6
CONTINUOUS
 10
163.957336
 20
99.244377
 40
1.000000
 50
0.000000
 51
90.000000
  0
ARC
  8
0
  6
CONTINUOUS
 10
163.957336
 20
54.244373
 40
1.000000
 50
-90.000000
 51
0.000000
  0
LINE
  8
0
  6
CENTER
 10
314.457336
 20
0.518715
 11
314.457336
 21
125.994377
  0
LINE
  8
0
  6
CONTINUOUS
 10
367.457336
 20
14.661515
 11
367.457336
 21
108.905777
  0
LINE
  8
0
  6
CONTINUOUS
 10
261.457336
 20
14.582785
 11
261.457336
 21
108.905579
  0
LINE
  8
0
  6
CONTINUOUS
 10
362.544525
 20
113.904976
 11
314.457336
 21
114.744377
  0
LINE
  8
0
  6
CONTINUOUS
 10
266.370026
 20
113.904877
 11
314.457336
 21
114.744377
  0
ARC
  8
0
  6
CONTINUOUS
 10
362.457336
 20
108.905777
 40
5.000000
 50
0.000000
 51
89.000137
  0
ARC
  8
0
  6
CONTINUOUS
 10
266.457336
 20
108.905678
 40
5.000000
 50
91.000610
 51
180.000000
  0
CIRCLE
  8
0
  6
CONTINUOUS
 10
358.457336
 20
105.905777
 40
4.250000
  0
CIRCLE
  8
0
  6
CONTINUOUS
 10
270.457336
 20
105.905579
 40
4.250000
  0
CIRCLE
  8
0
  6
CONTINUOUS
 10
270.457336
 20
17.582624
 40
4.250000
  0
CIRCLE
  8
0
  6
CONTINUOUS
 10
358.520935
 20
17.744375
 40
4.250000
  0
LINE
  8
0
  6
CENTER
 10
358.457336
 20
113.244377
 11
358.457336
 21
95.494377
  0
LINE
  8
0
  6
CENTER
 10
358.457336
 20
11.244375
 11
358.457336
 21
26.494375
  0
LINE
  8
0
  6
CENTER
 10
262.457336
 20
105.744377
 11
278.207336
 21
105.744377
  0
LINE
  8
0
  6
CENTER
 10
366.207336
 20
105.744377
 11
349.207336
 21
105.744377
  0
LINE
  8
0
  6
CENTER
 10
270.457336
 20
113.244377
 11
270.457336
 21
97.244377
  0
LINE
  8
0
  6
CENTER
 10
270.457336
 20
10.744375
 11
270.457336
 21
26.744375
  0
LINE
  8
0
  6
CENTER
 10
263.957336
 20
17.744375
 11
278.707336
 21
17.744375
  0
LINE
  8
0
  6
CENTER
 10
365.957336
 20
17.744375
 11
349.207336
 21
17.744375
  0
LINE
  8
0
  6
CENTER
 10
286.457336
 20
76.744377
 11
342.957336
 21
76.744377
  0
LINE
  8
0
  6
CONTINUOUS
 10
362.457336
 20
77.436676
 11
362.457336
 21
46.052013
  0
LINE
  8
0
  6
CONTINUOUS
 10
266.457336
 20
77.436676
 11
266.457336
 21
46.052025
  0
ARC
  8
0
  6
CONTINUOUS
 10
314.457336
 20
61.744373
 40
50.500000
 50
18.103800
 51
161.896194
  0
ARC
  8
0
  6
CONTINUOUS
 10
314.457336
 20
61.744373
 40
50.500000
 50
198.103806
 51
341.896210
  0
LINE
  8
0
  6
CONTINUOUS
 10
308.082336
 20
39.297604
 11
308.082336
 21
33.744373
  0
LINE
  8
0
  6
CONTINUOUS
 10
311.269836
 20
41.314693
 11
311.269836
 21
43.306873
  0
LINE
  8
0
  6
CONTINUOUS
 10
317.644836
 20
41.314693
 11
317.644836
 21
43.306873
  0
LINE
  8
0
  6
CONTINUOUS
 10
313.834747
 20
42.136463
 11
313.834747
 21
34.790276
  0
LINE
  8
0
  6
CONTINUOUS
 10
315.030151
 20
42.136463
 11
315.030151
 21
34.790276
  0
LINE
  8
0
  6
CONTINUOUS
 10
321.305450
 20
42.136463
 11
321.305450
 21
34.740463
  0
LINE
  8
0
  6
CONTINUOUS
 10
322.401154
 20
38.214344
 11
322.401154
 21
34.740463
  0
LINE
  8
0
  6
CONTINUOUS
 10
306.569824
 20
42.036854
 11
303.497925
 21
42.036854
  0
LINE
  8
0
  6
CONTINUOUS
 10
303.497925
 20
42.036854
 11
302.778137
 21
41.144356
  0
LINE
  8
0
  6
CONTINUOUS
 10
302.864746
 20
43.306873
 11
301.707336
 21
41.824875
  0
LINE
  8
0
  6
CONTINUOUS
 10
302.778137
 20
35.635303
 11
303.509430
 21
34.864986
  0
LINE
  8
0
  6
CONTINUOUS
 10
301.707336
 20
34.985233
 11
302.937134
 21
33.744373
  0
LINE
  8
0
  6
CONTINUOUS
 10
301.707336
 20
41.824875
 11
301.707336
 21
34.985233
  0
LINE
  8
0
  6
CONTINUOUS
 10
302.778137
 20
41.144356
 11
302.778137
 21
35.635303
  0
LINE
  8
0
  6
CONTINUOUS
 10
307.160950
 20
41.465416
 11
306.557739
 21
42.036854
  0
LINE
  8
0
  6
CONTINUOUS
 10
307.151337
 20
43.306873
 11
308.082336
 21
42.273735
  0
LINE
  8
0
  6
CONTINUOUS
 10
307.160950
 20
41.314693
 11
308.082336
 21
41.314693
  0
LINE
  8
0
  6
CONTINUOUS
 10
302.864746
 20
43.306873
 11
307.151337
 21
43.306873
  0
LINE
  8
0
  6
CONTINUOUS
 10
307.160950
 20
38.251694
 11
305.492554
 21
38.251694
  0
LINE
  8
0
  6
CONTINUOUS
 10
307.160950
 20
37.255604
 11
307.160950
 21
38.052486
  0
LINE
  8
0
  6
CONTINUOUS
 10
305.168732
 20
34.864986
 11
303.509430
 21
34.864986
  0
ARC
  8
0
  6
CONTINUOUS
 10
305.168732
 20
36.857174
 40
1.992188
 50
-89.999786
 51
0.000109
  0
LINE
  8
0
  6
CONTINUOUS
 10
307.160950
 20
34.506634
 11
307.160950
 21
33.744373
  0
LINE
  8
0
  6
CONTINUOUS
 10
308.082336
 20
42.273735
 11
308.082336
 21
41.314693
  0
LINE
  8
0
  6
CONTINUOUS
 10
307.160950
 20
38.251694
 11
307.160950
 21
36.857174
  0
LINE
  8
0
  6
CONTINUOUS
 10
305.492554
 20
39.297604
 11
305.492554
 21
38.251694
  0
LINE
  8
0
  6
CONTINUOUS
 10
307.160950
 20
33.744373
 11
308.082336
 21
33.744373
  0
LINE
  8
0
  6
CONTINUOUS
 10
307.160950
 20
34.506634
 11
306.252350
 21
33.744373
  0
LINE
  8
0
  6
CONTINUOUS
 10
315.030151
 20
34.790276
 11
315.428528
 21
34.790276
  0
LINE
  8
0
  6
CONTINUOUS
 10
313.361633
 20
34.790276
 11
313.361633
 21
33.744373
  0
LINE
  8
0
  6
CONTINUOUS
 10
315.428528
 20
34.790276
 11
315.428528
 21
33.744373
  0
LINE
  8
0
  6
CONTINUOUS
 10
316.979950
 20
41.314693
 11
317.644836
 21
41.314693
  0
LINE
  8
0
  6
CONTINUOUS
 10
311.269836
 20
41.314693
 11
311.977448
 21
41.314693
  0
LINE
  8
0
  6
CONTINUOUS
 10
311.269836
 20
43.306873
 11
317.644836
 21
43.306873
  0
LINE
  8
0
  6
CONTINUOUS
 10
313.361633
 20
33.744373
 11
315.428528
 21
33.744373
  0
LINE
  8
0
  6
CONTINUOUS
 10
313.361633
 20
34.790276
 11
313.834747
 21
34.790276
  0
ARC
  8
0
  6
CONTINUOUS
 10
324.654846
 20
40.754387
 40
2.552490
 50
-73.981873
 51
90.003510
  0
ARC
  8
0
  6
CONTINUOUS
 10
324.654846
 20
40.754387
 40
1.557192
 50
-82.585274
 51
62.411850
  0
LINE
  8
0
  6
CONTINUOUS
 10
320.832336
 20
43.306873
 11
324.654846
 21
43.306873
  0
LINE
  8
0
  6
CONTINUOUS
 10
320.832336
 20
43.306873
 11
320.832336
 21
42.136463
  0
LINE
  8
0
  6
CONTINUOUS
 10
322.401154
 20
42.136463
 11
322.401154
 21
39.210217
  0
LINE
  8
0
  6
CONTINUOUS
 10
325.359253
 20
38.300995
 11
326.939026
 21
34.740463
  0
LINE
  8
0
  6
CONTINUOUS
 10
324.441650
 20
38.214344
 11
325.936646
 21
34.740463
  0
LINE
  8
0
  6
CONTINUOUS
 10
320.832336
 20
34.740463
 11
321.305450
 21
34.740463
  0
LINE
  8
0
  6
CONTINUOUS
 10
322.401154
 20
34.740463
 11
322.836945
 21
34.740463
  0
LINE
  8
0
  6
CONTINUOUS
 10
322.836945
 20
33.744373
 11
320.832336
 21
33.744373
  0
LINE
  8
0
  6
CONTINUOUS
 10
325.738129
 20
34.740463
 11
325.936646
 21
34.740463
  0
LINE
  8
0
  6
CONTINUOUS
 10
326.939026
 20
34.740463
 11
327.207336
 21
34.740463
  0
LINE
  8
0
  6
CONTINUOUS
 10
325.738129
 20
33.744373
 11
327.207336
 21
33.744373
  0
LINE
  8
0
  6
CONTINUOUS
 10
327.207336
 20
34.740463
 11
327.207336
 21
33.744373
  0
LINE
  8
0
  6
CONTINUOUS
 10
325.738129
 20
34.740463
 11
325.738129
 21
33.744373
  0
LINE
  8
0
  6
CONTINUOUS
 10
322.836945
 20
34.740463
 11
322.836945
 21
33.744373
  0
LINE
  8
0
  6
CONTINUOUS
 10
320.832336
 20
34.740463
 11
320.832336
 21
33.744373
  0
LINE
  8
0
  6
CONTINUOUS
 10
312.319824
 20
42.136463
 11
311.977448
 21
41.314693
  0
LINE
  8
0
  6
CONTINUOUS
 10
316.691132
 20
42.136463
 11
316.979950
 21
41.314693
  0
LINE
  8
0
  6
CONTINUOUS
 10
315.030151
 20
42.136463
 11
316.691132
 21
42.136463
  0
LINE
  8
0
  6
CONTINUOUS
 10
313.834747
 20
42.136463
 11
312.319824
 21
42.136463
  0
LINE
  8
0
  6
CONTINUOUS
 10
320.832336
 20
42.136463
 11
321.305450
 21
42.136463
  0
LINE
  8
0
  6
CONTINUOUS
 10
322.401154
 20
42.136463
 11
325.376038
 21
42.134537
  0
LINE
  8
0
  6
CONTINUOUS
 10
307.160950
 20
41.465416
 11
307.160950
 21
41.314693
  0
LINE
  8
0
  6
CONTINUOUS
 10
302.937134
 20
33.744373
 11
306.252350
 21
33.744373
  0
LINE
  8
0
  6
CONTINUOUS
 10
322.401154
 20
39.210217
 11
324.855835
 21
39.210217
  0
LINE
  8
0
  6
CONTINUOUS
 10
322.401154
 20
38.214344
 11
324.441650
 21
38.214344
  0
LINE
  8
0
  6
CONTINUOUS
 10
305.492554
 20
39.297604
 11
308.082336
 21
39.297604
  0
LINE
  8
0
  6
CONTINUOUS
 10
196.957336
 20
67.744377
 11
196.957336
 21
85.744377
  0
LINE
  8
0
  6
CONTINUOUS
 10
166.957336
 20
85.744377
 11
196.957336
 21
85.744377
  0
LINE
  8
0
  6
CONTINUOUS
 10
166.957336
 20
67.744377
 11
196.957336
 21
67.744377
  0
LINE
  8
0
  6
CONTINUOUS
 10
166.957336
 20
86.744377
 11
166.957336
 21
66.744377
  0
LINE
  8
0
  6
CONTINUOUS
 10
164.957336
 20
86.744377
 11
166.957336
 21
86.744377
  0
LINE
  8
0
  6
CONTINUOUS
 10
164.957336
 20
66.744377
 11
166.957336
 21
66.744377
  0
ARC
  8
0
  6
CONTINUOUS
 10
172.957336
 20
76.744377
 40
3.000000
 50
90.000000
 51
270.000000
  0
LINE
  8
0
  6
CONTINUOUS
 10
172.957336
 20
79.744377
 11
196.957336
 21
79.744377
  0
LINE
  8
0
  6
CONTINUOUS
 10
172.957336
 20
73.744377
 11
196.957336
 21
73.744377
  0
LINE
  8
0
  6
CONTINUOUS
 10
308.957336
 20
79.744377
 11
308.957336
 21
73.744377
  0
LINE
  8
0
  6
CONTINUOUS
 10
302.957336
 20
79.744377
 11
302.957336
 21
73.744377
  0
LINE
  8
0
  6
CONTINUOUS
 10
302.957336
 20
79.744377
 11
308.957336
 21
79.744377
  0
LINE
  8
0
  6
CONTINUOUS
 10
302.957336
 20
73.744377
 11
308.957336
 21
73.744377
  0
ARC
  8
0
  6
CONTINUOUS
 10
314.457336
 20
76.744377
 40
9.000000
 50
-160.528793
 51
160.528793
  0
CIRCLE
  8
0
  6
CONTINUOUS
 10
314.457336
 20
76.744377
 40
23.500000
  0
LINE
  8
0
  6
CONTINUOUS
 10
362.544525
 20
9.583775
 11
314.457336
 21
8.744375
  0
LINE
  8
0
  6
CONTINUOUS
 10
266.370026
 20
9.583875
 11
314.457336
 21
8.744375
  0
ARC
  8
0
  6
CONTINUOUS
 10
362.457336
 20
14.582975
 40
5.000000
 50
-89.000137
 51
0.000000
  0
ARC
  8
0
  6
CONTINUOUS
 10
266.457336
 20
14.583075
 40
5.000000
 50
-180.000000
 51
-91.000610
  0
LINE
  8
0
  6
CENTER
 10
249.798584
 20
61.744373
 11
380.366699
 21
61.744373
  0
LINE
  8
0
  6
CENTER
 10
-6.162500
 20
244.450623
 11
203.058441
 21
244.450623
  0
LINE
  8
0
  6
CONTINUOUS
 10
29.957338
 20
297.450623
 11
159.957336
 21
297.450623
  0
LINE
  8
0
  6
CONTINUOUS
 10
29.957338
 20
191.450623
 11
159.957336
 21
191.450623
  0
LINE
  8
0
  6
CONTINUOUS
 10
159.957336
 20
191.450623
 11
159.957336
 21
297.450623
  0
LINE
  8
0
  6
CONTINUOUS
 10
29.957338
 20
275.950623
 11
149.957336
 21
275.950623
  0
LINE
  8
0
  6
CONTINUOUS
 10
29.957338
 20
212.950623
 11
149.957336
 21
212.950623
  0
LINE
  8
0
  6
CONTINUOUS
 10
149.957336
 20
295.450623
 11
149.957336
 21
275.950623
  0
ARC
  8
0
  6
CONTINUOUS
 10
151.957336
 20
295.450623
 40
2.000000
 50
90.000000
 51
180.000000
  0
ARC
  8
0
  6
CONTINUOUS
 10
151.957336
 20
193.450623
 40
2.000000
 50
180.000000
 51
270.000000
  0
LINE
  8
0
  6
CENTER
 10
145.707336
 20
200.450623
 11
164.457336
 21
200.450623
  0
LINE
  8
0
  6
CENTER
 10
146.707336
 20
288.450623
 11
163.707336
 21
288.450623
  0
LINE
  8
0
  6
DASHED
 10
149.957336
 20
292.700623
 11
159.957336
 21
292.700623
  0
LINE
  8
0
  6
DASHED
 10
149.957336
 20
284.200623
 11
159.957336
 21
284.200623
  0
LINE
  8
0
  6
DASHED
 10
149.957336
 20
204.700623
 11
159.957336
 21
204.700623
  0
LINE
  8
0
  6
DASHED
 10
149.957336
 20
196.200623
 11
159.957336
 21
196.200623
  0
LINE
  8
0
  6
CONTINUOUS
 10
164.957352
 20
221.950638
 11
164.957352
 21
266.950623
  0
LINE
  8
0
  6
CONTINUOUS
 10
163.957352
 20
267.950623
 11
159.957352
 21
267.950623
  0
LINE
  8
0
  6
CONTINUOUS
 10
163.957352
 20
220.950638
 11
159.957352
 21
220.950638
  0
ARC
  8
0
  6
CONTINUOUS
 10
163.957352
 20
266.950623
 40
1.000000
 50
0.000000
 51
90.000000
  0
ARC
  8
0
  6
CONTINUOUS
 10
163.957352
 20
221.950638
 40
1.000000
 50
-90.000000
 51
0.000000
  0
LINE
  8
0
  6
CONTINUOUS
 10
196.957336
 20
232.950623
 11
196.957336
 21
253.450623
  0
LINE
  8
0
  6
CONTINUOUS
 10
166.957352
 20
253.450623
 11
196.957336
 21
253.450623
  0
LINE
  8
0
  6
CONTINUOUS
 10
166.957352
 20
235.450623
 11
169.957352
 21
235.450623
  0
LINE
  8
0
  6
CONTINUOUS
 10
166.957352
 20
254.450623
 11
166.957352
 21
234.450623
  0
LINE
  8
0
  6
CONTINUOUS
 10
164.957352
 20
254.450623
 11
166.957352
 21
254.450623
  0
LINE
  8
0
  6
CONTINUOUS
 10
164.957352
 20
234.450623
 11
166.957352
 21
234.450623
  0
LINE
  8
0
  6
CONTINUOUS
 10
169.957352
 20
235.965622
 11
169.957352
 21
232.950623
  0
LINE
  8
0
  6
CONTINUOUS
 10
169.957352
 20
232.950623
 11
196.957336
 21
232.950623
  0
LINE
  8
0
  6
CONTINUOUS
 10
169.957352
 20
235.965622
 11
196.957336
 21
235.965622
  0
LINE
  8
0
  6
CONTINUOUS
 10
9.457344
 20
244.450623
 11
9.457344
 21
289.450623
  0
LINE
  8
0
  6
CONTINUOUS
 10
9.457344
 20
244.450623
 11
9.457344
 21
199.450638
  0
LINE
  8
0
  6
CONTINUOUS
 10
9.957344
 20
293.450623
 11
9.957344
 21
199.450638
  0
LINE
  8
0
  6
CONTINUOUS
 10
15.047534
 20
297.450623
 11
29.957338
 21
297.450623
  0
LINE
  8
0
  6
CONTINUOUS
 10
15.047534
 20
191.450638
 11
29.957338
 21
191.450638
  0
LINE
  8
0
  6
CONTINUOUS
 10
9.957344
 20
199.450638
 11
9.957344
 21
195.450638
  0
LINE
  8
0
  6
CONTINUOUS
 10
10.575344
 20
294.686707
 11
9.957344
 21
293.450623
  0
ARC
  8
0
  6
CONTINUOUS
 10
15.047534
 20
292.450623
 40
4.999999
 50
90.000000
 51
153.435196
  0
LINE
  8
0
  6
CONTINUOUS
 10
10.575344
 20
194.214569
 11
9.957344
 21
195.450638
  0
ARC
  8
0
  6
CONTINUOUS
 10
15.047534
 20
196.450638
 40
4.999999
 50
206.565002
 51
270.000000
  0
LINE
  8
0
  6
CONTINUOUS
 10
9.457344
 20
199.450638
 11
9.957344
 21
198.950638
  0
LINE
  8
0
  6
CONTINUOUS
 10
9.457344
 20
289.450623
 11
9.957344
 21
289.950623
  0
LINE
  8
0
  6
CONTINUOUS
 10
29.957338
 20
275.950623
 11
11.832344
 21
275.950623
  0
LINE
  8
0
  6
CONTINUOUS
 10
29.957338
 20
212.950623
 11
11.832344
 21
212.950623
  0
LINE
  8
0
  6
CONTINUOUS
 10
29.957338
 20
191.450638
 11
29.957338
 21
237.584595
  0
LINE
  8
0
  6
CONTINUOUS
 10
23.457338
 20
238.450623
 11
23.457338
 21
250.450623
  0
LINE
  8
0
  6
CONTINUOUS
 10
30.457338
 20
238.450623
 11
30.457338
 21
250.450623
  0
LINE
  8
0
  6
CONTINUOUS
 10
24.457338
 20
251.450623
 11
29.457338
 21
251.450623
  0
LINE
  8
0
  6
CONTINUOUS
 10
29.457338
 20
237.450623
 11
24.457338
 21
237.450623
  0
ARC
  8
0
  6
CONTINUOUS
 10
29.457338
 20
250.450623
 40
1.000000
 50
0.000000
 51
90.000000
  0
ARC
  8
0
  6
CONTINUOUS
 10
24.457338
 20
250.450623
 40
1.000000
 50
90.000000
 51
180.000000
  0
ARC
  8
0
  6
CONTINUOUS
 10
24.457338
 20
238.450623
 40
1.000000
 50
180.000000
 51
270.000000
  0
ARC
  8
0
  6
CONTINUOUS
 10
29.457338
 20
238.450623
 40
1.000000
 50
-90.000000
 51
0.000000
  0
LINE
  8
0
  6
CONTINUOUS
 10
27.957338
 20
240.950623
 11
27.957338
 21
247.950623
  0
LINE
  8
0
  6
CONTINUOUS
 10
25.957338
 20
240.950623
 11
25.957338
 21
247.950623
  0
ARC
  8
0
  6
CONTINUOUS
 10
26.957338
 20
247.950623
 40
1.000000
 50
90.000000
 51
180.000000
  0
ARC
  8
0
  6
CONTINUOUS
 10
26.957338
 20
247.950623
 40
1.000000
 50
0.000000
 51
90.000000
  0
ARC
  8
0
  6
CONTINUOUS
 10
26.957338
 20
240.950623
 40
1.000000
 50
180.000000
 51
270.000000
  0
ARC
  8
0
  6
CONTINUOUS
 10
26.957338
 20
240.950623
 40
1.000000
 50
-90.000000
 51
0.000000
  0
LINE
  8
0
  6
CONTINUOUS
 10
29.957338
 20
251.316650
 11
29.957338
 21
297.450623
  0
LINE
  8
0
  6
CONTINUOUS
 10
149.957336
 20
212.950623
 11
149.957336
 21
193.450623
  0
TEXT
  8
0
 10
-6.000000
 20
0.000000
 40
4.000000
 41
1.000000
  1
GFM-18-80~240-T60
 50
0.000000
  0
ENDSEC
  0
EOF
