  0
SECTION
  2
HEADER
  9
$ACADVER
  1
AC1014
  9
$ACADMAINTVER
 70
     9
  9
$DWGCODEPAGE
  3
ANSI_932
  9
$INSBASE
 10
0.0
 20
0.0
 30
0.0
  9
$EXTMIN
 10
52.69885903607951
 20
54.02615897327099
 30
0.0
  9
$EXTMAX
 10
504.8458197411531
 20
340.7380969747703
 30
0.0
  9
$LIMMIN
 10
-56.10306750215102
 20
-31.34337698376828
  9
$LIMMAX
 10
818.7513232585141
 20
432.5570667055663
  9
$ORTHOMODE
 70
     1
  9
$REGENMODE
 70
     1
  9
$FILLMODE
 70
     1
  9
$QTEXTMODE
 70
     0
  9
$MIRRTEXT
 70
     0
  9
$DRAGMODE
 70
     2
  9
$LTSCALE
 40
2.0
  9
$OSMODE
 70
    37
  9
$ATTMODE
 70
     1
  9
$TEXTSIZE
 40
2.0
  9
$TRACEWID
 40
1.0
  9
$TEXTSTYLE
  7
STANDARD
  9
$CLAYER
  8
0
  9
$CELTYPE
  6
BYLAYER
  9
$CECOLOR
 62
   256
  9
$CELTSCALE
 40
1.0
  9
$DELOBJ
 70
     1
  9
$DISPSILH
 70
     0
  9
$DIMSCALE
 40
2.0
  9
$DIMASZ
 40
1.8
  9
$DIMEXO
 40
0.625
  9
$DIMDLI
 40
3.75
  9
$DIMRND
 40
0.0
  9
$DIMDLE
 40
0.0
  9
$DIMEXE
 40
0.8
  9
$DIMTP
 40
0.0
  9
$DIMTM
 40
0.0
  9
$DIMTXT
 40
1.8
  9
$DIMCEN
 40
2.5
  9
$DIMTSZ
 40
0.0
  9
$DIMTOL
 70
     0
  9
$DIMLIM
 70
     0
  9
$DIMTIH
 70
     0
  9
$DIMTOH
 70
     0
  9
$DIMSE1
 70
     0
  9
$DIMSE2
 70
     0
  9
$DIMTAD
 70
     1
  9
$DIMZIN
 70
     8
  9
$DIMBLK
  1

  9
$DIMASO
 70
     1
  9
$DIMSHO
 70
     1
  9
$DIMPOST
  1

  9
$DIMAPOST
  1

  9
$DIMALT
 70
     0
  9
$DIMALTD
 70
     4
  9
$DIMALTF
 40
0.0394
  9
$DIMLFAC
 40
1.0
  9
$DIMTOFL
 70
     1
  9
$DIMTVP
 40
0.0
  9
$DIMTIX
 70
     0
  9
$DIMSOXD
 70
     0
  9
$DIMSAH
 70
     0
  9
$DIMBLK1
  1

  9
$DIMBLK2
  1

  9
$DIMSTYLE
  2
STANDARD
  9
$DIMCLRD
 70
     0
  9
$DIMCLRE
 70
     0
  9
$DIMCLRT
 70
     0
  9
$DIMTFAC
 40
1.0
  9
$DIMGAP
 40
0.75
  9
$DIMJUST
 70
     0
  9
$DIMSD1
 70
     0
  9
$DIMSD2
 70
     0
  9
$DIMTOLJ
 70
     1
  9
$DIMTZIN
 70
     0
  9
$DIMALTZ
 70
     0
  9
$DIMALTTZ
 70
     0
  9
$DIMFIT
 70
     3
  9
$DIMUPT
 70
     0
  9
$DIMUNIT
 70
     8
  9
$DIMDEC
 70
     2
  9
$DIMTDEC
 70
     2
  9
$DIMALTU
 70
     8
  9
$DIMALTTD
 70
     4
  9
$DIMTXSTY
  7
STANDARD
  9
$DIMAUNIT
 70
     0
  9
$LUNITS
 70
     2
  9
$LUPREC
 70
     3
  9
$SKETCHINC
 40
1.0
  9
$FILLETRAD
 40
10.0
  9
$AUNITS
 70
     0
  9
$AUPREC
 70
     2
  9
$MENU
  1
.
  9
$ELEVATION
 40
0.0
  9
$PELEVATION
 40
0.0
  9
$THICKNESS
 40
0.0
  9
$LIMCHECK
 70
     0
  9
$BLIPMODE
 70
     0
  9
$CHAMFERA
 40
0.0
  9
$CHAMFERB
 40
0.0
  9
$CHAMFERC
 40
20.0
  9
$CHAMFERD
 40
0.0
  9
$SKPOLY
 70
     0
  9
$TDCREATE
 40
2453760.705877812
  9
$TDUPDATE
 40
2453832.510163113
  9
$TDINDWG
 40
0.5174954861
  9
$TDUSRTIMER
 40
0.5174954861
  9
$USRTIMER
 70
     1
  9
$ANGBASE
 50
0.0
  9
$ANGDIR
 70
     0
  9
$PDMODE
 70
     0
  9
$PDSIZE
 40
-10.0
  9
$PLINEWID
 40
0.0
  9
$COORDS
 70
     0
  9
$SPLFRAME
 70
     0
  9
$SPLINETYPE
 70
     6
  9
$SPLINESEGS
 70
     8
  9
$ATTDIA
 70
     0
  9
$ATTREQ
 70
     1
  9
$HANDLING
 70
-16383
  9
$HANDSEED
  5
1B48
  9
$SURFTAB1
 70
     6
  9
$SURFTAB2
 70
     6
  9
$SURFTYPE
 70
     6
  9
$SURFU
 70
     6
  9
$SURFV
 70
     6
  9
$UCSNAME
  2

  9
$UCSORG
 10
0.0
 20
0.0
 30
0.0
  9
$UCSXDIR
 10
1.0
 20
0.0
 30
0.0
  9
$UCSYDIR
 10
0.0
 20
1.0
 30
0.0
  9
$PUCSNAME
  2

  9
$PUCSORG
 10
0.0
 20
0.0
 30
0.0
  9
$PUCSXDIR
 10
1.0
 20
0.0
 30
0.0
  9
$PUCSYDIR
 10
0.0
 20
1.0
 30
0.0
  9
$USERI1
 70
     0
  9
$USERI2
 70
     0
  9
$USERI3
 70
     0
  9
$USERI4
 70
     0
  9
$USERI5
 70
     0
  9
$USERR1
 40
0.0
  9
$USERR2
 40
0.0
  9
$USERR3
 40
0.0
  9
$USERR4
 40
0.0
  9
$USERR5
 40
0.0
  9
$WORLDVIEW
 70
     1
  9
$SHADEDGE
 70
     3
  9
$SHADEDIF
 70
    70
  9
$TILEMODE
 70
     1
  9
$MAXACTVP
 70
    48
  9
$PINSBASE
 10
0.0
 20
0.0
 30
0.0
  9
$PLIMCHECK
 70
     0
  9
$PEXTMIN
 10
0.0
 20
0.0
 30
0.0
  9
$PEXTMAX
 10
0.0
 20
0.0
 30
0.0
  9
$PLIMMIN
 10
0.0
 20
0.0
  9
$PLIMMAX
 10
12.0
 20
9.0
  9
$UNITMODE
 70
     0
  9
$VISRETAIN
 70
     1
  9
$PLINEGEN
 70
     0
  9
$PSLTSCALE
 70
     1
  9
$TREEDEPTH
 70
  3020
  9
$PICKSTYLE
 70
     1
  9
$CMLSTYLE
  2
STANDARD
  9
$CMLJUST
 70
     0
  9
$CMLSCALE
 40
1.0
  9
$PROXYGRAPHICS
 70
     1
  9
$MEASUREMENT
 70
     0
  0
ENDSEC
  0
SECTION
  2
CLASSES
  0
CLASS
  1
DICTIONARYVAR
  2
AcDbDictionaryVar
  3
AutoCAD 2000
 90
        0
280
     0
281
     0
  0
CLASS
  1
ACDBDICTIONARYWDFLT
  2
AcDbDictionaryWithDefault
  3
AutoCAD 2000
 90
        0
280
     0
281
     0
  0
CLASS
  1
ACDBPLACEHOLDER
  2
AcDbPlaceHolder
  3
AutoCAD 2000
 90
        0
280
     0
281
     0
  0
CLASS
  1
LAYOUT
  2
AcDbLayout
  3
AutoCAD 2000
 90
        0
280
     0
281
     0
  0
CLASS
  1
LONG_TRANSACTION
  2
AcDbLongTransaction
  3
AutoCAD 2000
 90
        0
280
     0
281
     0
  0
CLASS
  1
LWPOLYLINE
  2
AcDbPolyline
  3
AutoCAD 2000
 90
        0
280
     0
281
     1
  0
CLASS
  1
HATCH
  2
AcDbHatch
  3
AutoCAD 2000
 90
        0
280
     0
281
     1
  0
CLASS
  1
XRECORD
  2
AcDbXrecord
  3
AutoCAD 2000
 90
        0
280
     0
281
     0
  0
ENDSEC
  0
SECTION
  2
TABLES
  0
TABLE
  2
VPORT
  5
6E
330
0
100
AcDbSymbolTable
 70
     2
  0
VPORT
  5
1B22
330
6E
100
AcDbSymbolTableRecord
100
AcDbViewportTableRecord
  2
*ACTIVE
 70
     0
 10
0.0
 20
0.0
 11
1.0
 21
1.0
 12
266.6209688835833
 22
178.291688616277
 13
0.0
 23
0.0
 14
10.0
 24
10.0
 15
15.0
 25
15.0
 16
0.0
 26
0.0
 36
1.0
 17
0.0
 27
0.0
 37
0.0
 40
327.4732612312366
 41
1.566970091027308
 42
50.0
 43
0.0
 44
0.0
 50
0.0
 51
0.0
 71
     0
 72
   100
 73
     1
 74
     3
 75
     0
 76
     0
 77
     0
 78
     0
  0
ENDTAB
  0
TABLE
  2
LTYPE
  5
69
330
0
100
AcDbSymbolTable
 70
     4
  0
LTYPE
  5
6A
330
69
100
AcDbSymbolTableRecord
100
AcDbLinetypeTableRecord
  2
BYBLOCK
 70
     0
  3

 72
    65
 73
     0
 40
0.0
  0
LTYPE
  5
6B
330
69
100
AcDbSymbolTableRecord
100
AcDbLinetypeTableRecord
  2
BYLAYER
 70
     0
  3

 72
    65
 73
     0
 40
0.0
  0
LTYPE
  5
8
330
69
100
AcDbSymbolTableRecord
100
AcDbLinetypeTableRecord
  2
CONTINUOUS
 70
     0
  3
Solid line
 72
    65
 73
     0
 40
0.0
  0
LTYPE
  5
27C
330
69
100
AcDbSymbolTableRecord
100
AcDbLinetypeTableRecord
  2
SEKKEI_A2_
 70
     0
  3
center(A2)  ____ _ ____ _ ____ _ ____ _ ____ _ 
 72
    65
 73
     4
 40
14.28749999999999
 49
9.525
 74
     0
 49
-1.587499999999999
 74
     0
 49
1.587499999999999
 74
     0
 49
-1.587499999999999
 74
     0
  0
LTYPE
  5
2B4
330
69
100
AcDbSymbolTableRecord
100
AcDbLinetypeTableRecord
  2
HIDDEN2
 70
     0
  3
Hidden (.5x) _ _ _ _ _ _ _ _ _ _ _ _ _ _ _ _ _
 72
    65
 73
     2
 40
4.762499999999999
 49
3.174999999999999
 74
     0
 49
-1.587499999999999
 74
     0
  0
LTYPE
  5
48F
330
69
100
AcDbSymbolTableRecord
100
AcDbLinetypeTableRecord
  2
SEKKEI_H
 70
     0
  3
Hidden-S _ _ _ _ _ _ _ _ _ _ _ _ _ _ _ _ _
 72
    65
 73
     2
 40
2.381249999999999
 49
1.587499999999999
 74
     0
 49
-0.79375
 74
     0
  0
ENDTAB
  0
TABLE
  2
LAYER
  5
66
330
0
100
AcDbSymbolTable
 70
     9
  0
LAYER
  5
5E
330
66
100
AcDbSymbolTableRecord
100
AcDbLayerTableRecord
  2
0
 70
     0
 62
     7
  6
CONTINUOUS
  0
LAYER
  5
3E
330
66
100
AcDbSymbolTableRecord
100
AcDbLayerTableRecord
  2
CENTER
 70
     0
 62
     3
  6
SEKKEI_A2_
  0
LAYER
  5
2B5
330
66
100
AcDbSymbolTableRecord
100
AcDbLayerTableRecord
  2
HIDS
 70
     0
 62
     1
  6
HIDDEN2
  0
LAYER
  5
2BA
330
66
100
AcDbSymbolTableRecord
100
AcDbLayerTableRecord
  2
HOJO
 70
     0
 62
     4
  6
CONTINUOUS
  0
LAYER
  5
3FA
330
66
100
AcDbSymbolTableRecord
100
AcDbLayerTableRecord
  2
TITLE
 70
     0
 62
     4
  6
CONTINUOUS
  0
ENDTAB
  0
TABLE
  2
STYLE
  5
67
330
0
100
AcDbSymbolTable
 70
     1
  0
STYLE
  5
16
330
67
100
AcDbSymbolTableRecord
100
AcDbTextStyleTableRecord
  2
STANDARD
 70
     0
 40
0.0
 41
1.0
 50
0.0
 71
     0
 42
2.0
  3
simplex.shx
  4
extfont.shx
  0
ENDTAB
  0
TABLE
  2
VIEW
  5
6C
330
0
100
AcDbSymbolTable
 70
     0
  0
ENDTAB
  0
TABLE
  2
UCS
  5
6D
330
0
100
AcDbSymbolTable
 70
     0
  0
ENDTAB
  0
TABLE
  2
APPID
  5
70
330
0
100
AcDbSymbolTable
 70
     1
  0
APPID
  5
71
330
70
100
AcDbSymbolTableRecord
100
AcDbRegAppTableRecord
  2
ACAD
 70
     0
  0
ENDTAB
  0
TABLE
  2
DIMSTYLE
  5
72
330
0
100
AcDbSymbolTable
 70
     1
  0
DIMSTYLE
105
73
330
72
100
AcDbSymbolTableRecord
100
AcDbDimStyleTableRecord
  2
STANDARD
 70
     0
  3

  4

  5

  6

  7

 40
2.0
 41
1.8
 42
0.625
 43
3.75
 44
0.8
 45
0.0
 46
0.0
 47
0.0
 48
0.0
140
1.8
141
2.5
142
0.0
143
0.0394
144
1.0
145
0.0
146
1.0
147
0.75
 71
     0
 72
     0
 73
     0
 74
     0
 75
     0
 76
     0
 77
     1
 78
     8
170
     0
171
     4
172
     1
173
     0
174
     0
175
     0
176
     0
177
     0
178
     0
270
     8
271
     2
272
     2
273
     8
274
     4
340
16
275
     0
280
     0
281
     0
282
     0
283
     1
284
     0
285
     0
286
     0
287
     3
288
     0
  0
ENDTAB
  0
TABLE
  2
BLOCK_RECORD
  5
1
330
0
100
AcDbSymbolTable
 70
    63
  0
BLOCK_RECORD
  5
2
102
{ACAD_XDICTIONARY
360
1B44
102
}
330
1
100
AcDbSymbolTableRecord
100
AcDbBlockTableRecord
  2
*MODEL_SPACE
  0
BLOCK_RECORD
  5
1B1D
102
{ACAD_XDICTIONARY
360
1B46
102
}
330
1
100
AcDbSymbolTableRecord
100
AcDbBlockTableRecord
  2
*PAPER_SPACE
  0
ENDTAB
  0
ENDSEC
  0
SECTION
  2
BLOCKS
  0
BLOCK
  5
5D
330
2
100
AcDbEntity
  8
0
100
AcDbBlockBegin
  2
*MODEL_SPACE
 70
     0
 10
0.0
 20
0.0
 30
0.0
  3
*MODEL_SPACE
  1

  0
ENDBLK
  5
5F
330
2
100
AcDbEntity
  8
0
100
AcDbBlockEnd
  0
BLOCK
  5
1B1F
330
1B1D
100
AcDbEntity
 67
     1
  8
0
100
AcDbBlockBegin
  2
*PAPER_SPACE
 70
     0
 10
0.0
 20
0.0
 30
0.0
  3
*PAPER_SPACE
  1

  0
ENDBLK
  5
1B20
330
1B1D
100
AcDbEntity
 67
     1
  8
0
100
AcDbBlockEnd
  0
ENDSEC
  0
SECTION
  2
ENTITIES
  0
TEXT
  5
5FA
330
2
100
AcDbEntity
  8
TITLE
100
AcDbText
 10
297.7448126715821
 20
271.8186883545588
 30
0.0
 40
5.0
  1
GFMN-12-5~30-T60K
100
AcDbText
  0
TEXT
  5
5FB
330
2
100
AcDbEntity
  8
TITLE
100
AcDbText
 10
409.4749184720396
 20
287.6412289885174
 30
0.0
 40
5.0
  1
GFMN-12-5~60-S40K
100
AcDbText
  0
TEXT
  5
5FC
330
2
100
AcDbEntity
  8
TITLE
100
AcDbText
 10
297.4694948997736
 20
287.3734167325452
 30
0.0
 40
5.0
  1
GFMN-12-5~60-T40K
100
AcDbText
  0
TEXT
  5
5FD
330
2
100
AcDbEntity
  8
TITLE
100
AcDbText
 10
297.7918041650126
 20
318.7157641169688
 30
0.0
 40
5.0
  1
GFMN-12-5~240-T15K
100
AcDbText
  0
TEXT
  5
5FE
330
2
100
AcDbEntity
  8
TITLE
100
AcDbText
 10
409.845819741153
 20
302.3023849724008
 30
0.0
 40
5.0
  1
GFMN-12-5~120-S25K
100
AcDbText
  0
TEXT
  5
5FF
330
2
100
AcDbEntity
  8
TITLE
100
AcDbText
 10
297.7918041650126
 20
303.4362501918559
 30
0.0
 40
5.0
  1
GFMN-12-5~120-T25K
100
AcDbText
  0
TEXT
  5
600
330
2
100
AcDbEntity
  8
TITLE
100
AcDbText
 10
409.5705029494372
 20
317.8827173119568
 30
0.0
 40
5.0
  1
GFMN-12-5~240-S15K
100
AcDbText
  0
LINE
  5
601
330
2
100
AcDbEntity
  8
CENTER
100
AcDbLine
 10
354.4740794476807
 20
99.96365997327101
 30
0.0
 11
451.4190714476808
 21
99.96365997327101
 31
0.0
  0
ARC
  5
602
330
2
100
AcDbEntity
  8
0
100
AcDbCircle
 10
404.4207964476807
 20
99.96365997327101
 30
0.0
 40
36.0
100
AcDbArc
 50
199.1880950000001
 51
340.81189
  0
ARC
  5
603
330
2
100
AcDbEntity
  8
0
100
AcDbCircle
 10
404.4207964476807
 20
99.96365997327101
 30
0.0
 40
36.0
100
AcDbArc
 50
19.18812000000024
 51
160.8119049999998
  0
ARC
  5
604
330
2
100
AcDbEntity
  8
0
100
AcDbCircle
 10
404.4207964476807
 20
99.96365997327101
 30
0.0
 40
36.0
100
AcDbArc
 50
199.1880950000001
 51
340.81189
  0
ARC
  5
605
330
2
100
AcDbEntity
  8
0
100
AcDbCircle
 10
404.4207964476807
 20
99.96365997327101
 30
0.0
 40
36.0
100
AcDbArc
 50
19.18812000000024
 51
160.8119049999998
  0
LINE
  5
606
330
2
100
AcDbEntity
  8
CENTER
100
AcDbLine
 10
367.5146074476807
 20
67.96365897327098
 30
0.0
 11
378.2646074476807
 21
67.96365897327098
 31
0.0
  0
LINE
  5
607
330
2
100
AcDbEntity
  8
CENTER
100
AcDbLine
 10
367.5146074476807
 20
131.9636589732709
 30
0.0
 11
378.2646074476807
 21
131.9636589732709
 31
0.0
  0
LINE
  5
608
330
2
100
AcDbEntity
  8
0
100
AcDbLine
 10
370.3510024476808
 20
62.558209973271
 30
0.0
 11
404.4207964476807
 21
61.96365897327098
 31
0.0
  0
LINE
  5
609
330
2
100
AcDbEntity
  8
0
100
AcDbLine
 10
370.3510024476808
 20
137.368859973271
 30
0.0
 11
404.4207964476807
 21
137.9636589732709
 31
0.0
  0
LINE
  5
60A
330
2
100
AcDbEntity
  8
0
100
AcDbLine
 10
67.00510603607949
 20
264.7025630688375
 30
0.0
 11
67.00510603607949
 21
334.7025630688376
 31
0.0
  0
LINE
  5
60B
330
2
100
AcDbEntity
  8
0
100
AcDbLine
 10
116.0051080360794
 20
259.7025630688376
 30
0.0
 11
116.0051080360794
 21
339.7025630688375
 31
0.0
  0
LINE
  5
60C
330
2
100
AcDbEntity
  8
0
100
AcDbLine
 10
125.5052300360795
 20
324.7025630688376
 30
0.0
 11
125.5052300360795
 21
337.7025630688375
 31
0.0
  0
LINE
  5
60D
330
2
100
AcDbEntity
  8
0
100
AcDbLine
 10
239.5051100360794
 20
337.7025630688375
 30
0.0
 11
239.5051100360794
 21
261.7025630688376
 31
0.0
  0
LINE
  5
60E
330
2
100
AcDbEntity
  8
0
100
AcDbLine
 10
69.50510603607949
 20
75.96365897327098
 30
0.0
 11
116.0051080360794
 21
75.96365897327098
 31
0.0
  0
LINE
  5
60F
330
2
100
AcDbEntity
  8
0
100
AcDbLine
 10
69.50510603607949
 20
125.9636589732709
 30
0.0
 11
116.0051080360794
 21
125.9636589732709
 31
0.0
  0
LINE
  5
610
330
2
100
AcDbEntity
  8
0
100
AcDbLine
 10
69.50510603607949
 20
273.7025630688376
 30
0.0
 11
116.0051080360794
 21
273.7025630688376
 31
0.0
  0
LINE
  5
611
330
2
100
AcDbEntity
  8
0
100
AcDbLine
 10
72.00510603607949
 20
259.7025630688376
 30
0.0
 11
116.0051080360794
 21
259.7025630688376
 31
0.0
  0
LINE
  5
612
330
2
100
AcDbEntity
  8
CENTER
100
AcDbLine
 10
52.69885903607951
 20
299.7025630688376
 30
0.0
 11
273.7851010360794
 21
299.7025630688376
 31
0.0
  0
LINE
  5
613
330
2
100
AcDbEntity
  8
CENTER
100
AcDbLine
 10
57.99807603607951
 20
99.96365997327101
 30
0.0
 11
247.6865140360795
 21
99.96365997327101
 31
0.0
  0
LINE
  5
614
330
2
100
AcDbEntity
  8
0
100
AcDbLine
 10
72.00510603607949
 20
59.96365897327098
 30
0.0
 11
116.0051080360794
 21
59.96365897327098
 31
0.0
  0
LINE
  5
615
330
2
100
AcDbEntity
  8
0
100
AcDbLine
 10
72.00510603607949
 20
139.9636589732709
 30
0.0
 11
116.0051080360794
 21
139.9636589732709
 31
0.0
  0
LINE
  5
616
330
2
100
AcDbEntity
  8
0
100
AcDbLine
 10
67.00510603607949
 20
64.96365897327098
 30
0.0
 11
67.00510603607949
 21
134.9636589732709
 31
0.0
  0
ARC
  5
617
330
2
100
AcDbEntity
  8
0
100
AcDbCircle
 10
72.00510603607949
 20
64.96365897327098
 30
0.0
 40
5.0
100
AcDbArc
 50
180.0
 51
270.0
  0
ARC
  5
618
330
2
100
AcDbEntity
  8
0
100
AcDbCircle
 10
72.0051290360795
 20
134.9636589732709
 30
0.0
 40
5.0
100
AcDbArc
 50
90.0
 51
180.0
  0
ARC
  5
619
330
2
100
AcDbEntity
  8
0
100
AcDbCircle
 10
72.00510603607949
 20
264.7025630688375
 30
0.0
 40
5.0
100
AcDbArc
 50
180.0
 51
270.0
  0
LINE
  5
61A
330
2
100
AcDbEntity
  8
0
100
AcDbLine
 10
366.4207964476807
 20
66.55759997327101
 30
0.0
 11
366.4207964476807
 21
123.892560973271
 31
0.0
  0
CIRCLE
  5
61B
330
2
100
AcDbEntity
  8
0
100
AcDbCircle
 10
372.4207964476808
 20
67.96365897327098
 30
0.0
 40
3.25
  0
LINE
  5
61C
330
2
100
AcDbEntity
  8
CENTER
100
AcDbLine
 10
372.4207964476808
 20
63.15115897327098
 30
0.0
 11
372.4207964476808
 21
73.65115897327098
 31
0.0
  0
LINE
  5
61D
330
2
100
AcDbEntity
  8
0
100
AcDbLine
 10
231.5051100360794
 20
135.9636589732709
 30
0.0
 11
231.5051100360794
 21
63.96365897327098
 31
0.0
  0
LINE
  5
61E
330
2
100
AcDbEntity
  8
0
100
AcDbLine
 10
239.5051100360794
 20
137.9636589732709
 30
0.0
 11
239.5051100360794
 21
61.96367797327098
 31
0.0
  0
LINE
  5
61F
330
2
100
AcDbEntity
  8
0
100
AcDbLine
 10
125.5051080360795
 20
61.96367797327098
 30
0.0
 11
125.5051080360795
 21
137.9636589732709
 31
0.0
  0
LINE
  5
620
330
2
100
AcDbEntity
  8
0
100
AcDbLine
 10
116.0051080360794
 20
59.96365897327098
 30
0.0
 11
116.0051080360794
 21
139.9636589732709
 31
0.0
  0
LINE
  5
621
330
2
100
AcDbEntity
  8
0
100
AcDbLine
 10
125.5051080360795
 20
61.96367797327098
 30
0.0
 11
239.5051100360794
 21
61.96367797327098
 31
0.0
  0
LINE
  5
622
330
2
100
AcDbEntity
  8
0
100
AcDbLine
 10
116.0051080360794
 20
61.96365897327098
 30
0.0
 11
125.5051080360795
 21
61.96365897327098
 31
0.0
  0
ARC
  5
623
330
2
100
AcDbEntity
  8
0
100
AcDbCircle
 10
233.5051100360794
 20
63.96367797327099
 30
0.0
 40
2.0
100
AcDbArc
 50
180.0
 51
270.0
  0
LINE
  5
624
330
2
100
AcDbEntity
  8
HIDS
  6
SEKKEI_H
100
AcDbLine
 10
231.5051100360794
 20
64.71365897327098
 30
0.0
 11
239.5051100360794
 21
64.71365897327098
 31
0.0
  0
ARC
  5
625
330
2
100
AcDbEntity
  8
0
100
AcDbCircle
 10
370.4207964476808
 20
66.55762997327099
 30
0.0
 40
4.0
100
AcDbArc
 50
180.0
 51
269.0004879999996
  0
LINE
  5
626
330
2
100
AcDbEntity
  8
0
100
AcDbLine
 10
166.5049100360795
 20
276.7025630688375
 30
0.0
 11
231.5052320360795
 21
276.7025630688376
 31
0.0
  0
LINE
  5
627
330
2
100
AcDbEntity
  8
0
100
AcDbLine
 10
125.5052300360795
 20
261.7025850688376
 30
0.0
 11
239.5052320360795
 21
261.7025850688376
 31
0.0
  0
LINE
  5
628
330
2
100
AcDbEntity
  8
0
100
AcDbLine
 10
125.5051080360795
 20
69.71468897327099
 30
0.0
 11
231.5051100360794
 21
69.71468897327099
 31
0.0
  0
LINE
  5
629
330
2
100
AcDbEntity
  8
0
100
AcDbLine
 10
125.5051080360795
 20
130.212659973271
 30
0.0
 11
231.5051100360794
 21
130.212659973271
 31
0.0
  0
LINE
  5
62A
330
2
100
AcDbEntity
  8
0
100
AcDbLine
 10
125.5051080360795
 20
137.9636589732709
 30
0.0
 11
239.5051100360794
 21
137.9636589732709
 31
0.0
  0
LINE
  5
62B
330
2
100
AcDbEntity
  8
0
100
AcDbLine
 10
116.0051080360794
 20
69.71465897327101
 30
0.0
 11
125.5051080360795
 21
69.71465897327101
 31
0.0
  0
ARC
  5
62C
330
2
100
AcDbEntity
  8
0
100
AcDbCircle
 10
116.0051080360794
 20
122.5886589732709
 30
0.0
 40
4.5
100
AcDbArc
 50
0.0
 51
90.0
  0
ARC
  5
62D
330
2
100
AcDbEntity
  8
0
100
AcDbCircle
 10
116.0051080360794
 20
122.5886589732709
 30
0.0
 40
3.0
100
AcDbArc
 50
0.0
 51
90.0
  0
LINE
  5
62E
330
2
100
AcDbEntity
  8
HOJO
100
AcDbLine
 10
117.5075080360795
 20
118.3505599732709
 30
0.0
 11
119.0051080360794
 21
117.551859973271
 31
0.0
  0
ARC
  5
62F
330
2
100
AcDbEntity
  8
0
100
AcDbCircle
 10
116.0051080360794
 20
122.5886589732709
 30
0.0
 40
1.5
100
AcDbArc
 50
0.0
 51
90.0
  0
LINE
  5
630
330
2
100
AcDbEntity
  8
0
100
AcDbLine
 10
117.5051080360794
 20
122.5886589732709
 30
0.0
 11
117.5051080360794
 21
118.3460599732709
 31
0.0
  0
LINE
  5
631
330
2
100
AcDbEntity
  8
HOJO
100
AcDbLine
 10
119.0051080360794
 20
118.5865599732709
 30
0.0
 11
120.5051080360795
 21
119.3657599732709
 31
0.0
  0
LINE
  5
632
330
2
100
AcDbEntity
  8
0
100
AcDbLine
 10
119.0051080360794
 20
122.5886589732709
 30
0.0
 11
119.0051080360794
 21
117.551859973271
 31
0.0
  0
LINE
  5
633
330
2
100
AcDbEntity
  8
0
100
AcDbLine
 10
120.5051080360795
 20
122.5886589732709
 30
0.0
 11
120.5051080360795
 21
119.3657599732709
 31
0.0
  0
LINE
  5
634
330
2
100
AcDbEntity
  8
0
100
AcDbLine
 10
116.0051080360794
 20
130.212659973271
 30
0.0
 11
125.5051080360795
 21
130.212659973271
 31
0.0
  0
LINE
  5
63A
330
2
100
AcDbEntity
  8
0
100
AcDbLine
 10
116.0051080360794
 20
137.9636589732709
 30
0.0
 11
125.5051080360795
 21
137.9636589732709
 31
0.0
  0
LINE
  5
640
330
2
100
AcDbEntity
  8
0
100
AcDbLine
 10
125.5052300360795
 20
261.7025850688376
 30
0.0
 11
125.5052300360795
 21
274.7025630688376
 31
0.0
  0
LINE
  5
641
330
2
100
AcDbEntity
  8
0
100
AcDbLine
 10
116.0051080360794
 20
261.7025630688376
 30
0.0
 11
125.5052300360795
 21
261.7025630688376
 31
0.0
  0
LINE
  5
642
330
2
100
AcDbEntity
  8
HOJO
100
AcDbLine
 10
117.5075080360795
 20
263.6885250688375
 30
0.0
 11
119.0051080360794
 21
262.8898260688375
 31
0.0
  0
ARC
  5
643
330
2
100
AcDbEntity
  8
0
100
AcDbCircle
 10
116.0051080360794
 20
267.9266230688376
 30
0.0
 40
4.5
100
AcDbArc
 50
0.0
 51
90.0
  0
ARC
  5
644
330
2
100
AcDbEntity
  8
0
100
AcDbCircle
 10
116.0051080360794
 20
267.9266230688376
 30
0.0
 40
3.0
100
AcDbArc
 50
0.0
 51
90.0
  0
ARC
  5
645
330
2
100
AcDbEntity
  8
0
100
AcDbCircle
 10
116.0051080360794
 20
267.9266230688376
 30
0.0
 40
1.5
100
AcDbArc
 50
0.0
 51
90.0
  0
LINE
  5
646
330
2
100
AcDbEntity
  8
0
100
AcDbLine
 10
117.5051080360794
 20
267.9266230688376
 30
0.0
 11
117.5051080360794
 21
263.6840230688375
 31
0.0
  0
LINE
  5
647
330
2
100
AcDbEntity
  8
0
100
AcDbLine
 10
120.5051080360795
 20
267.9266230688376
 30
0.0
 11
120.5051080360795
 21
264.7037220688375
 31
0.0
  0
LINE
  5
648
330
2
100
AcDbEntity
  8
0
100
AcDbLine
 10
119.0051080360794
 20
267.9266230688376
 30
0.0
 11
119.0051080360794
 21
262.8898260688375
 31
0.0
  0
LINE
  5
649
330
2
100
AcDbEntity
  8
HOJO
100
AcDbLine
 10
119.0051080360794
 20
263.9245250688376
 30
0.0
 11
120.5051080360795
 21
264.7037220688375
 31
0.0
  0
LINE
  5
64F
330
2
100
AcDbEntity
  8
0
100
AcDbLine
 10
116.5050010360795
 20
276.7025630688376
 30
0.0
 11
116.0051080360794
 21
276.7025630688376
 31
0.0
  0
LINE
  5
659
330
2
100
AcDbEntity
  8
CENTER
100
AcDbLine
 10
211.8888080360794
 20
110.963659973271
 30
0.0
 11
274.5395110360794
 21
110.963659973271
 31
0.0
  0
LINE
  5
65A
330
2
100
AcDbEntity
  8
0
100
AcDbLine
 10
243.0051100360794
 20
127.4636589732709
 30
0.0
 11
243.0051100360794
 21
94.46365997327101
 31
0.0
  0
ARC
  5
65B
330
2
100
AcDbEntity
  8
0
100
AcDbCircle
 10
249.0051100360795
 20
110.963659973271
 30
0.0
 40
2.0
100
AcDbArc
 50
90.0
 51
180.0
  0
LINE
  5
65C
330
2
100
AcDbEntity
  8
0
100
AcDbLine
 10
245.0051100360794
 20
118.463659973271
 30
0.0
 11
245.0051100360794
 21
103.463659973271
 31
0.0
  0
LINE
  5
65D
330
2
100
AcDbEntity
  8
0
100
AcDbLine
 10
267.0051030360795
 20
104.963659973271
 30
0.0
 11
267.0051030360795
 21
116.963659973271
 31
0.0
  0
LINE
  5
65E
330
2
100
AcDbEntity
  8
0
100
AcDbLine
 10
242.0051100360794
 20
93.46365997327101
 30
0.0
 11
239.5051100360794
 21
93.46365997327101
 31
0.0
  0
LINE
  5
65F
330
2
100
AcDbEntity
  8
CENTER
100
AcDbLine
 10
228.2551100360795
 20
67.96365897327098
 30
0.0
 11
244.0051100360794
 21
67.96365897327098
 31
0.0
  0
LINE
  5
660
330
2
100
AcDbEntity
  8
HIDS
  6
SEKKEI_H
100
AcDbLine
 10
231.5051100360794
 20
71.21365897327098
 30
0.0
 11
239.5051100360794
 21
71.21365897327098
 31
0.0
  0
LINE
  5
661
330
2
100
AcDbEntity
  8
0
100
AcDbLine
 10
249.0051100360795
 20
108.9636599732709
 30
0.0
 11
267.0051030360795
 21
108.9636599732709
 31
0.0
  0
LINE
  5
662
330
2
100
AcDbEntity
  8
0
100
AcDbLine
 10
249.0051100360795
 20
112.963659973271
 30
0.0
 11
267.0051030360795
 21
112.963659973271
 31
0.0
  0
LINE
  5
663
330
2
100
AcDbEntity
  8
0
100
AcDbLine
 10
245.0051100360794
 20
104.963659973271
 30
0.0
 11
267.0051030360795
 21
104.963659973271
 31
0.0
  0
ARC
  5
664
330
2
100
AcDbEntity
  8
0
100
AcDbCircle
 10
242.0051100360794
 20
94.46365997327101
 30
0.0
 40
1.0
100
AcDbArc
 50
270.0
 51
0.0
  0
ARC
  5
665
330
2
100
AcDbEntity
  8
0
100
AcDbCircle
 10
249.0051100360795
 20
110.963659973271
 30
0.0
 40
2.0
100
AcDbArc
 50
180.0
 51
270.0
  0
LINE
  5
666
330
2
100
AcDbEntity
  8
0
100
AcDbLine
 10
245.0051100360794
 20
103.463659973271
 30
0.0
 11
243.0051100360794
 21
103.463659973271
 31
0.0
  0
LINE
  5
667
330
2
100
AcDbEntity
  8
0
100
AcDbLine
 10
242.0051100360794
 20
128.4636589732709
 30
0.0
 11
239.5051100360794
 21
128.4636589732709
 31
0.0
  0
LINE
  5
668
330
2
100
AcDbEntity
  8
CENTER
100
AcDbLine
 10
226.5051100360794
 20
131.9636589732709
 30
0.0
 11
243.2551100360794
 21
131.9636589732709
 31
0.0
  0
ARC
  5
669
330
2
100
AcDbEntity
  8
0
100
AcDbCircle
 10
233.5051100360794
 20
135.9636589732709
 30
0.0
 40
2.0
100
AcDbArc
 50
90.0
 51
180.0
  0
LINE
  5
66A
330
2
100
AcDbEntity
  8
HIDS
  6
SEKKEI_H
100
AcDbLine
 10
231.5051100360794
 20
128.7136589732709
 30
0.0
 11
239.5051100360794
 21
128.7136589732709
 31
0.0
  0
LINE
  5
66B
330
2
100
AcDbEntity
  8
HIDS
  6
SEKKEI_H
100
AcDbLine
 10
231.5051100360794
 20
135.2136589732709
 30
0.0
 11
239.5051100360794
 21
135.2136589732709
 31
0.0
  0
LINE
  5
66C
330
2
100
AcDbEntity
  8
0
100
AcDbLine
 10
245.0051100360794
 20
116.963659973271
 30
0.0
 11
267.0051030360795
 21
116.963659973271
 31
0.0
  0
LINE
  5
66D
330
2
100
AcDbEntity
  8
0
100
AcDbLine
 10
245.0051100360794
 20
118.463659973271
 30
0.0
 11
243.0051100360794
 21
118.463659973271
 31
0.0
  0
ARC
  5
66E
330
2
100
AcDbEntity
  8
0
100
AcDbCircle
 10
242.0051100360794
 20
127.4636589732709
 30
0.0
 40
1.0
100
AcDbArc
 50
0.0
 51
90.0
  0
LINE
  5
66F
330
2
100
AcDbEntity
  8
0
100
AcDbLine
 10
364.4207964476807
 20
78.03477097327101
 30
0.0
 11
364.4207964476807
 21
122.9636589732709
 31
0.0
  0
LINE
  5
670
330
2
100
AcDbEntity
  8
0
100
AcDbLine
 10
370.4207964476808
 20
111.795859973271
 30
0.0
 11
370.4207964476808
 21
88.131499973271
 31
0.0
  0
ARC
  5
671
330
2
100
AcDbEntity
  8
0
100
AcDbCircle
 10
369.4207964476808
 20
78.03477097327101
 30
0.0
 40
5.0
100
AcDbArc
 50
180.0
 51
224.9983979999999
  0
LINE
  5
672
330
2
100
AcDbEntity
  8
0
100
AcDbLine
 10
365.8851664476807
 20
74.499333973271
 30
0.0
 11
366.4207964476807
 21
73.963670973271
 31
0.0
  0
LINE
  5
673
330
2
100
AcDbEntity
  8
CENTER
100
AcDbLine
 10
372.4207964476808
 20
136.7761589732709
 30
0.0
 11
372.4207964476808
 21
126.2761589732709
 31
0.0
  0
ARC
  5
674
330
2
100
AcDbEntity
  8
0
100
AcDbCircle
 10
370.4207964476808
 20
133.369460973271
 30
0.0
 40
4.0
100
AcDbArc
 50
91.00064099999967
 51
180.0
  0
ARC
  5
675
330
2
100
AcDbEntity
  8
0
100
AcDbCircle
 10
367.4207964476808
 20
122.9636589732709
 30
0.0
 40
3.0
100
AcDbArc
 50
109.471603
 51
180.0
  0
LINE
  5
676
330
2
100
AcDbEntity
  8
0
100
AcDbLine
 10
366.4207964476807
 20
123.576360973271
 30
0.0
 11
366.4207964476807
 21
133.369460973271
 31
0.0
  0
CIRCLE
  5
677
330
2
100
AcDbEntity
  8
0
100
AcDbCircle
 10
372.4207964476808
 20
131.9636589732709
 30
0.0
 40
3.25
  0
LINE
  5
678
330
2
100
AcDbEntity
  8
0
100
AcDbLine
 10
231.5052320360795
 20
276.7025630688376
 30
0.0
 11
231.5052320360795
 21
263.7025630688376
 31
0.0
  0
LINE
  5
679
330
2
100
AcDbEntity
  8
CENTER
100
AcDbLine
 10
228.2551100360795
 20
267.7025630688376
 30
0.0
 11
244.0051100360794
 21
267.7025630688376
 31
0.0
  0
ARC
  5
67A
330
2
100
AcDbEntity
  8
0
100
AcDbCircle
 10
233.5052320360795
 20
263.7025850688376
 30
0.0
 40
2.0
100
AcDbArc
 50
180.0
 51
270.0
  0
LINE
  5
67B
330
2
100
AcDbEntity
  8
HIDS
  6
SEKKEI_H
100
AcDbLine
 10
231.5051100360794
 20
264.4525630688375
 30
0.0
 11
239.5051100360794
 21
264.4525630688375
 31
0.0
  0
LINE
  5
67C
330
2
100
AcDbEntity
  8
HIDS
  6
SEKKEI_H
100
AcDbLine
 10
231.5051100360794
 20
270.9525630688375
 30
0.0
 11
239.5051100360794
 21
270.9525630688375
 31
0.0
  0
LINE
  5
67D
330
2
100
AcDbEntity
  8
0
100
AcDbLine
 10
242.0051100360794
 20
282.2025630688376
 30
0.0
 11
239.5051100360794
 21
282.2025630688376
 31
0.0
  0
LINE
  5
67E
330
2
100
AcDbEntity
  8
0
100
AcDbLine
 10
242.0051100360794
 20
317.2025630688376
 30
0.0
 11
239.5051100360794
 21
317.2025630688376
 31
0.0
  0
LINE
  5
67F
330
2
100
AcDbEntity
  8
0
100
AcDbLine
 10
243.0051100360794
 20
283.2025630688375
 30
0.0
 11
243.0051100360794
 21
316.2025630688376
 31
0.0
  0
LINE
  5
680
330
2
100
AcDbEntity
  8
0
100
AcDbLine
 10
245.0051100360794
 20
307.2025630688376
 30
0.0
 11
245.0051100360794
 21
292.2025630688376
 31
0.0
  0
LINE
  5
681
330
2
100
AcDbEntity
  8
0
100
AcDbLine
 10
267.0051030360795
 20
292.2025630688376
 30
0.0
 11
267.0051030360795
 21
305.7025630688376
 31
0.0
  0
LINE
  5
682
330
2
100
AcDbEntity
  8
0
100
AcDbLine
 10
247.0051100360795
 20
294.0455650688376
 30
0.0
 11
267.0051030360795
 21
294.0455650688376
 31
0.0
  0
LINE
  5
683
330
2
100
AcDbEntity
  8
0
100
AcDbLine
 10
247.0051100360795
 20
292.2025630688376
 30
0.0
 11
267.0051030360795
 21
292.2025630688376
 31
0.0
  0
ARC
  5
684
330
2
100
AcDbEntity
  8
0
100
AcDbCircle
 10
242.0051100360794
 20
283.2025630688375
 30
0.0
 40
1.0
100
AcDbArc
 50
270.0
 51
0.0
  0
LINE
  5
685
330
2
100
AcDbEntity
  8
0
100
AcDbLine
 10
243.0051100360794
 20
292.2025630688376
 30
0.0
 11
245.0051100360794
 21
292.2025630688376
 31
0.0
  0
LINE
  5
686
330
2
100
AcDbEntity
  8
0
100
AcDbLine
 10
247.0051100360795
 20
294.0455650688376
 30
0.0
 11
247.0051100360795
 21
292.2025630688376
 31
0.0
  0
LINE
  5
687
330
2
100
AcDbEntity
  8
0
100
AcDbLine
 10
245.0051100360794
 20
293.7025630688376
 30
0.0
 11
247.0051100360795
 21
293.7025630688376
 31
0.0
  0
LINE
  5
688
330
2
100
AcDbEntity
  8
0
100
AcDbLine
 10
245.0051100360794
 20
305.7025630688376
 30
0.0
 11
267.0051030360795
 21
305.7025630688376
 31
0.0
  0
LINE
  5
689
330
2
100
AcDbEntity
  8
0
100
AcDbLine
 10
243.0051100360794
 20
307.2025630688376
 30
0.0
 11
245.0051100360794
 21
307.2025630688376
 31
0.0
  0
ARC
  5
68A
330
2
100
AcDbEntity
  8
0
100
AcDbCircle
 10
242.0051100360794
 20
316.2025630688376
 30
0.0
 40
1.0
100
AcDbArc
 50
0.0
 51
90.0
  0
LINE
  5
68B
330
2
100
AcDbEntity
  8
0
100
AcDbLine
 10
69.50510603607949
 20
323.7025630688376
 30
0.0
 11
116.0051080360794
 21
323.7025630688376
 31
0.0
  0
LINE
  5
68C
330
2
100
AcDbEntity
  8
0
100
AcDbLine
 10
72.00510603607949
 20
339.7025630688375
 30
0.0
 11
116.0051080360794
 21
339.7025630688375
 31
0.0
  0
ARC
  5
68D
330
2
100
AcDbEntity
  8
0
100
AcDbCircle
 10
72.00510603607949
 20
334.7025630688376
 30
0.0
 40
5.0
100
AcDbArc
 50
90.0
 51
180.0
  0
LINE
  5
68E
330
2
100
AcDbEntity
  8
0
100
AcDbLine
 10
166.5051080360794
 20
322.7025630688376
 30
0.0
 11
231.5052320360795
 21
322.7025630688376
 31
0.0
  0
LINE
  5
68F
330
2
100
AcDbEntity
  8
0
100
AcDbLine
 10
125.5052300360795
 20
337.7025470688375
 30
0.0
 11
239.5052320360795
 21
337.7025470688375
 31
0.0
  0
LINE
  5
690
330
2
100
AcDbEntity
  8
0
100
AcDbLine
 10
116.5050010360795
 20
322.7025630688376
 30
0.0
 11
116.0051080360794
 21
322.7025630688376
 31
0.0
  0
LINE
  5
691
330
2
100
AcDbEntity
  8
0
100
AcDbLine
 10
116.0051080360794
 20
337.7025630688375
 30
0.0
 11
125.5052300360795
 21
337.7025630688375
 31
0.0
  0
LINE
  5
692
330
2
100
AcDbEntity
  8
CENTER
100
AcDbLine
 10
226.5051100360794
 20
331.7025630688376
 30
0.0
 11
243.2551100360794
 21
331.7025630688376
 31
0.0
  0
LINE
  5
693
330
2
100
AcDbEntity
  8
0
100
AcDbLine
 10
231.5052320360795
 20
335.7025470688375
 30
0.0
 11
231.5052320360795
 21
322.7025630688376
 31
0.0
  0
LINE
  5
694
330
2
100
AcDbEntity
  8
HIDS
  6
SEKKEI_H
100
AcDbLine
 10
231.5051100360794
 20
328.4525630688376
 30
0.0
 11
239.5051100360794
 21
328.4525630688376
 31
0.0
  0
LINE
  5
695
330
2
100
AcDbEntity
  8
HIDS
  6
SEKKEI_H
100
AcDbLine
 10
231.5051100360794
 20
334.9525630688376
 30
0.0
 11
239.5051100360794
 21
334.9525630688376
 31
0.0
  0
ARC
  5
696
330
2
100
AcDbEntity
  8
0
100
AcDbCircle
 10
233.5052320360795
 20
335.7025630688376
 30
0.0
 40
2.0
100
AcDbArc
 50
90.0
 51
180.0
  0
CIRCLE
  5
697
330
2
100
AcDbEntity
  8
0
100
AcDbCircle
 10
436.4208114476808
 20
67.96365897327098
 30
0.0
 40
3.25
  0
LINE
  5
698
330
2
100
AcDbEntity
  8
CENTER
100
AcDbLine
 10
436.4208114476808
 20
63.15115897327098
 30
0.0
 11
436.4208114476808
 21
73.65115897327098
 31
0.0
  0
LINE
  5
699
330
2
100
AcDbEntity
  8
0
100
AcDbLine
 10
442.4208114476808
 20
66.557748973271
 30
0.0
 11
442.4208114476808
 21
133.369559973271
 31
0.0
  0
LINE
  5
69A
330
2
100
AcDbEntity
  8
CENTER
100
AcDbLine
 10
404.4207964476807
 20
54.02615897327099
 30
0.0
 11
404.4207964476807
 21
189.8511739732709
 31
0.0
  0
ARC
  5
69B
330
2
100
AcDbEntity
  8
0
100
AcDbCircle
 10
438.4208114476808
 20
66.55772997327099
 30
0.0
 40
4.0
100
AcDbArc
 50
271.000183
 51
0.0
  0
LINE
  5
69C
330
2
100
AcDbEntity
  8
0
100
AcDbLine
 10
382.4919014476808
 20
59.96365897327098
 30
0.0
 11
427.4208114476808
 21
59.96365897327098
 31
0.0
  0
LINE
  5
69D
330
2
100
AcDbEntity
  8
0
100
AcDbLine
 10
438.4906044476807
 20
62.55835097327099
 30
0.0
 11
404.4207964476807
 21
61.96365897327098
 31
0.0
  0
ARC
  5
69E
330
2
100
AcDbEntity
  8
0
100
AcDbCircle
 10
382.4919014476808
 20
64.96365897327098
 30
0.0
 40
5.0
100
AcDbArc
 50
224.9999999999997
 51
270.0
  0
LINE
  5
69F
330
2
100
AcDbEntity
  8
0
100
AcDbLine
 10
378.9563034476807
 20
61.42812897327099
 30
0.0
 11
377.9590044476807
 21
62.42543997327101
 31
0.0
  0
ARC
  5
6A0
330
2
100
AcDbEntity
  8
0
100
AcDbCircle
 10
427.4208114476808
 20
62.963650973271
 30
0.0
 40
3.0
100
AcDbArc
 50
270.0
 51
349.4934999999999
  0
ARC
  5
6A1
330
2
100
AcDbEntity
  8
0
100
AcDbCircle
 10
438.4208114476808
 20
133.369559973271
 30
0.0
 40
4.0
100
AcDbArc
 50
0.0
 51
89.00013700000005
  0
CIRCLE
  5
6A2
330
2
100
AcDbEntity
  8
0
100
AcDbCircle
 10
404.4207964476807
 20
110.963659973271
 30
0.0
 40
17.5
  0
ARC
  5
6A3
330
2
100
AcDbEntity
  8
0
100
AcDbCircle
 10
404.4207964476807
 20
110.963659973271
 30
0.0
 40
6.0
100
AcDbArc
 50
199.4712069999998
 51
160.5287930000001
  0
LINE
  5
6A4
330
2
100
AcDbEntity
  8
CENTER
100
AcDbLine
 10
384.1707964476808
 20
110.963659973271
 30
0.0
 11
426.6708114476807
 21
110.963659973271
 31
0.0
  0
LINE
  5
6A5
330
2
100
AcDbEntity
  8
0
100
AcDbLine
 10
398.4120064476807
 20
84.67556897327099
 30
0.0
 11
398.4120064476807
 21
83.52712997327101
 31
0.0
  0
LINE
  5
6A6
330
2
100
AcDbEntity
  8
0
100
AcDbLine
 10
398.4120064476807
 20
83.85526097327101
 30
0.0
 11
398.4120064476807
 21
84.51151097327102
 31
0.0
  0
LINE
  5
6A7
330
2
100
AcDbEntity
  8
0
100
AcDbLine
 10
394.8026014476807
 20
87.057759973271
 30
0.0
 11
394.8026014476807
 21
82.520879973271
 31
0.0
  0
LINE
  5
6A8
330
2
100
AcDbEntity
  8
0
100
AcDbLine
 10
393.9207964476807
 20
87.618190973271
 30
0.0
 11
393.9207964476807
 21
81.98553997327099
 31
0.0
  0
LINE
  5
6A9
330
2
100
AcDbEntity
  8
0
100
AcDbLine
 10
399.1707964476808
 20
85.53689897327101
 30
0.0
 11
399.1707964476808
 21
80.96365897327098
 31
0.0
  0
LINE
  5
6AA
330
2
100
AcDbEntity
  8
0
100
AcDbLine
 10
394.9335984476808
 20
80.96365897327098
 30
0.0
 11
397.6638074476808
 21
80.96365897327098
 31
0.0
  0
ARC
  5
6AB
330
2
100
AcDbEntity
  8
0
100
AcDbCircle
 10
396.7713974476808
 20
83.52712997327101
 30
0.0
 40
1.640625
100
AcDbArc
 50
270.0002139999998
 51
0.0001089999998967
  0
LINE
  5
6AC
330
2
100
AcDbEntity
  8
0
100
AcDbLine
 10
396.7713974476808
 20
81.88651097327101
 30
0.0
 11
395.4048964476808
 21
81.88651097327101
 31
0.0
  0
LINE
  5
6AD
330
2
100
AcDbEntity
  8
0
100
AcDbLine
 10
393.9207964476807
 20
81.98553997327099
 30
0.0
 11
394.9335984476808
 21
80.96365897327098
 31
0.0
  0
LINE
  5
6AE
330
2
100
AcDbEntity
  8
0
100
AcDbLine
 10
394.8026014476807
 20
82.520879973271
 30
0.0
 11
395.4048964476808
 21
81.88651097327101
 31
0.0
  0
LINE
  5
6AF
330
2
100
AcDbEntity
  8
0
100
AcDbLine
 10
398.4120064476807
 20
81.591408973271
 30
0.0
 11
397.6638074476808
 21
80.96365897327098
 31
0.0
  0
LINE
  5
6B0
330
2
100
AcDbEntity
  8
0
100
AcDbLine
 10
398.4120064476807
 20
80.96365897327098
 30
0.0
 11
399.1707964476808
 21
80.96365897327098
 31
0.0
  0
LINE
  5
6B1
330
2
100
AcDbEntity
  8
0
100
AcDbLine
 10
398.4120064476807
 20
81.591408973271
 30
0.0
 11
398.4120064476807
 21
80.96365897327098
 31
0.0
  0
LINE
  5
6B2
330
2
100
AcDbEntity
  8
0
100
AcDbLine
 10
397.0379984476808
 20
85.53689897327101
 30
0.0
 11
399.1707964476808
 21
85.53689897327101
 31
0.0
  0
LINE
  5
6B3
330
2
100
AcDbEntity
  8
0
100
AcDbLine
 10
398.4120064476807
 20
84.67556897327099
 30
0.0
 11
397.0379984476808
 21
84.67556897327099
 31
0.0
  0
LINE
  5
6B4
330
2
100
AcDbEntity
  8
0
100
AcDbLine
 10
394.8739054476808
 20
88.83865997327101
 30
0.0
 11
398.4041024476807
 21
88.83865997327101
 31
0.0
  0
LINE
  5
6B5
330
2
100
AcDbEntity
  8
0
100
AcDbLine
 10
397.9252054476808
 20
87.79275997327099
 30
0.0
 11
395.3954054476808
 21
87.79275997327099
 31
0.0
  0
LINE
  5
6B6
330
2
100
AcDbEntity
  8
0
100
AcDbLine
 10
397.0379984476808
 20
85.53689897327101
 30
0.0
 11
397.0379984476808
 21
84.67556897327099
 31
0.0
  0
LINE
  5
6B7
330
2
100
AcDbEntity
  8
0
100
AcDbLine
 10
394.8739054476808
 20
88.83865997327101
 30
0.0
 11
393.9207964476807
 21
87.618190973271
 31
0.0
  0
LINE
  5
6B8
330
2
100
AcDbEntity
  8
0
100
AcDbLine
 10
395.3954054476808
 20
87.79275997327099
 30
0.0
 11
394.8026014476807
 21
87.057759973271
 31
0.0
  0
LINE
  5
6B9
330
2
100
AcDbEntity
  8
0
100
AcDbLine
 10
398.4120064476807
 20
87.322160973271
 30
0.0
 11
398.4120064476807
 21
87.19802997327098
 31
0.0
  0
LINE
  5
6BA
330
2
100
AcDbEntity
  8
0
100
AcDbLine
 10
399.1707964476808
 20
87.98783997327097
 30
0.0
 11
399.1707964476808
 21
87.19802997327098
 31
0.0
  0
LINE
  5
6BB
330
2
100
AcDbEntity
  8
0
100
AcDbLine
 10
398.4120064476807
 20
87.19802997327098
 30
0.0
 11
399.1707964476808
 21
87.19802997327098
 31
0.0
  0
LINE
  5
6BC
330
2
100
AcDbEntity
  8
0
100
AcDbLine
 10
398.4041024476807
 20
88.83865997327101
 30
0.0
 11
399.1707964476808
 21
87.98783997327097
 31
0.0
  0
LINE
  5
6BD
330
2
100
AcDbEntity
  8
0
100
AcDbLine
 10
398.4120064476807
 20
87.322160973271
 30
0.0
 11
397.9153024476808
 21
87.79275997327099
 31
0.0
  0
LINE
  5
6BE
330
2
100
AcDbEntity
  8
0
100
AcDbLine
 10
404.8925064476807
 20
87.87478997327099
 30
0.0
 11
404.8925064476807
 21
81.82498897327098
 31
0.0
  0
LINE
  5
6BF
330
2
100
AcDbEntity
  8
0
100
AcDbLine
 10
403.9081004476807
 20
87.87478997327099
 30
0.0
 11
403.9081004476807
 21
81.82498897327098
 31
0.0
  0
LINE
  5
6C0
330
2
100
AcDbEntity
  8
0
100
AcDbLine
 10
403.5184984476808
 20
81.82498897327098
 30
0.0
 11
403.9081004476807
 21
81.82498897327098
 31
0.0
  0
LINE
  5
6C1
330
2
100
AcDbEntity
  8
0
100
AcDbLine
 10
403.5184984476808
 20
80.96365897327098
 30
0.0
 11
405.2206004476808
 21
80.96365897327098
 31
0.0
  0
LINE
  5
6C2
330
2
100
AcDbEntity
  8
0
100
AcDbLine
 10
405.2206004476808
 20
81.82498897327098
 30
0.0
 11
405.2206004476808
 21
80.96365897327098
 31
0.0
  0
LINE
  5
6C3
330
2
100
AcDbEntity
  8
0
100
AcDbLine
 10
403.5184984476808
 20
81.82498897327098
 30
0.0
 11
403.5184984476808
 21
80.96365897327098
 31
0.0
  0
LINE
  5
6C4
330
2
100
AcDbEntity
  8
0
100
AcDbLine
 10
404.8925064476807
 20
81.82498897327098
 30
0.0
 11
405.2206004476808
 21
81.82498897327098
 31
0.0
  0
LINE
  5
6C5
330
2
100
AcDbEntity
  8
0
100
AcDbLine
 10
404.8925064476807
 20
87.87478997327099
 30
0.0
 11
406.2603954476807
 21
87.87478997327099
 31
0.0
  0
LINE
  5
6C6
330
2
100
AcDbEntity
  8
0
100
AcDbLine
 10
401.7957964476807
 20
88.83865997327101
 30
0.0
 11
407.0457964476807
 21
88.83865997327101
 31
0.0
  0
LINE
  5
6C7
330
2
100
AcDbEntity
  8
0
100
AcDbLine
 10
403.9081004476807
 20
87.87478997327099
 30
0.0
 11
402.6604964476808
 21
87.87478997327099
 31
0.0
  0
LINE
  5
6C8
330
2
100
AcDbEntity
  8
0
100
AcDbLine
 10
402.6604964476808
 20
87.87478997327099
 30
0.0
 11
402.3786054476808
 21
87.19802997327098
 31
0.0
  0
LINE
  5
6C9
330
2
100
AcDbEntity
  8
0
100
AcDbLine
 10
401.7957964476807
 20
87.19802997327098
 30
0.0
 11
402.3786054476808
 21
87.19802997327098
 31
0.0
  0
LINE
  5
6CA
330
2
100
AcDbEntity
  8
0
100
AcDbLine
 10
401.7957964476807
 20
87.19802997327098
 30
0.0
 11
401.7957964476807
 21
88.83865997327101
 31
0.0
  0
LINE
  5
6CB
330
2
100
AcDbEntity
  8
0
100
AcDbLine
 10
406.2603954476807
 20
87.87478997327099
 30
0.0
 11
406.4982034476807
 21
87.19802997327098
 31
0.0
  0
LINE
  5
6CC
330
2
100
AcDbEntity
  8
0
100
AcDbLine
 10
406.4982034476807
 20
87.19802997327098
 30
0.0
 11
407.0457964476807
 21
87.19802997327098
 31
0.0
  0
LINE
  5
6CD
330
2
100
AcDbEntity
  8
0
100
AcDbLine
 10
407.0457964476807
 20
87.19802997327098
 30
0.0
 11
407.0457964476807
 21
88.83865997327101
 31
0.0
  0
LINE
  5
6CE
330
2
100
AcDbEntity
  8
0
100
AcDbLine
 10
400.9207964476807
 20
108.9636599732709
 30
0.0
 11
396.9207964476808
 21
108.9636599732709
 31
0.0
  0
LINE
  5
6CF
330
2
100
AcDbEntity
  8
0
100
AcDbLine
 10
400.9207964476807
 20
112.963659973271
 30
0.0
 11
396.9207964476808
 21
112.963659973271
 31
0.0
  0
LINE
  5
6D0
330
2
100
AcDbEntity
  8
0
100
AcDbLine
 10
396.9207964476808
 20
112.963659973271
 30
0.0
 11
396.9207964476808
 21
108.9636599732709
 31
0.0
  0
LINE
  5
6D1
330
2
100
AcDbEntity
  8
0
100
AcDbLine
 10
400.9207964476807
 20
108.9636599732709
 30
0.0
 11
400.9207964476807
 21
112.963659973271
 31
0.0
  0
LINE
  5
6D2
330
2
100
AcDbEntity
  8
0
100
AcDbLine
 10
438.4208114476808
 20
111.795859973271
 30
0.0
 11
438.4208114476808
 21
88.13150997327099
 31
0.0
  0
LINE
  5
6D3
330
2
100
AcDbEntity
  8
0
100
AcDbLine
 10
412.6431014476808
 20
84.64480997327099
 30
0.0
 11
413.8743944476807
 21
81.78396997327098
 31
0.0
  0
LINE
  5
6D4
330
2
100
AcDbEntity
  8
0
100
AcDbLine
 10
413.3988084476808
 20
84.716168973271
 30
0.0
 11
414.6998024476808
 21
81.78396997327098
 31
0.0
  0
LINE
  5
6D5
330
2
100
AcDbEntity
  8
0
100
AcDbLine
 10
410.9628034476807
 20
84.64480997327099
 30
0.0
 11
410.9628034476807
 21
81.78396997327098
 31
0.0
  0
LINE
  5
6D6
330
2
100
AcDbEntity
  8
0
100
AcDbLine
 10
410.0603984476808
 20
87.87478997327099
 30
0.0
 11
410.0603984476808
 21
81.78396997327098
 31
0.0
  0
LINE
  5
6D7
330
2
100
AcDbEntity
  8
0
100
AcDbLine
 10
409.6707964476808
 20
81.78396997327098
 30
0.0
 11
409.6707964476808
 21
80.96365897327098
 31
0.0
  0
LINE
  5
6D8
330
2
100
AcDbEntity
  8
0
100
AcDbLine
 10
411.3217054476808
 20
81.78396997327098
 30
0.0
 11
411.3217054476808
 21
80.96365897327098
 31
0.0
  0
LINE
  5
6D9
330
2
100
AcDbEntity
  8
0
100
AcDbLine
 10
411.3217054476808
 20
80.96365897327098
 30
0.0
 11
409.6707964476808
 21
80.96365897327098
 31
0.0
  0
LINE
  5
6DA
330
2
100
AcDbEntity
  8
0
100
AcDbLine
 10
410.9628034476807
 20
81.78396997327098
 30
0.0
 11
411.3217054476808
 21
81.78396997327098
 31
0.0
  0
LINE
  5
6DB
330
2
100
AcDbEntity
  8
0
100
AcDbLine
 10
409.6707964476808
 20
81.78396997327098
 30
0.0
 11
410.0603984476808
 21
81.78396997327098
 31
0.0
  0
LINE
  5
6DC
330
2
100
AcDbEntity
  8
0
100
AcDbLine
 10
413.7108044476807
 20
81.78396997327098
 30
0.0
 11
413.7108044476807
 21
80.96365897327098
 31
0.0
  0
LINE
  5
6DD
330
2
100
AcDbEntity
  8
0
100
AcDbLine
 10
414.9207964476808
 20
81.78396997327098
 30
0.0
 11
414.9207964476808
 21
80.96365897327098
 31
0.0
  0
LINE
  5
6DE
330
2
100
AcDbEntity
  8
0
100
AcDbLine
 10
413.7108044476807
 20
80.96365897327098
 30
0.0
 11
414.9207964476808
 21
80.96365897327098
 31
0.0
  0
LINE
  5
6DF
330
2
100
AcDbEntity
  8
0
100
AcDbLine
 10
414.6998024476808
 20
81.78396997327098
 30
0.0
 11
414.9207964476808
 21
81.78396997327098
 31
0.0
  0
LINE
  5
6E0
330
2
100
AcDbEntity
  8
0
100
AcDbLine
 10
413.7108044476807
 20
81.78396997327098
 30
0.0
 11
413.8743944476807
 21
81.78396997327098
 31
0.0
  0
ARC
  5
6E1
330
2
100
AcDbEntity
  8
0
100
AcDbCircle
 10
412.8186994476807
 20
86.73660997327102
 30
0.0
 40
1.282395
100
AcDbArc
 50
277.4147260000003
 51
62.41184999999949
  0
ARC
  5
6E2
330
2
100
AcDbEntity
  8
0
100
AcDbCircle
 10
412.8186994476807
 20
86.73660997327102
 30
0.0
 40
2.102050999999999
100
AcDbArc
 50
286.0181269999995
 51
90.00350999999964
  0
LINE
  5
6E3
330
2
100
AcDbEntity
  8
0
100
AcDbLine
 10
410.9628034476807
 20
84.64480997327099
 30
0.0
 11
412.6431014476808
 21
84.64480997327099
 31
0.0
  0
LINE
  5
6E4
330
2
100
AcDbEntity
  8
0
100
AcDbLine
 10
410.9628034476807
 20
85.46494097327098
 30
0.0
 11
412.9841964476808
 21
85.46494097327098
 31
0.0
  0
LINE
  5
6E5
330
2
100
AcDbEntity
  8
0
100
AcDbLine
 10
410.9628034476807
 20
87.87478997327099
 30
0.0
 11
413.4127084476807
 21
87.87319997327101
 31
0.0
  0
LINE
  5
6E6
330
2
100
AcDbEntity
  8
0
100
AcDbLine
 10
409.6707964476808
 20
87.87478997327099
 30
0.0
 11
410.0603984476808
 21
87.87478997327099
 31
0.0
  0
LINE
  5
6E7
330
2
100
AcDbEntity
  8
0
100
AcDbLine
 10
410.9628034476807
 20
87.87478997327099
 30
0.0
 11
410.9628034476807
 21
85.46494097327098
 31
0.0
  0
LINE
  5
6E8
330
2
100
AcDbEntity
  8
0
100
AcDbLine
 10
409.6707964476808
 20
88.83865997327101
 30
0.0
 11
409.6707964476808
 21
87.87478997327099
 31
0.0
  0
LINE
  5
6E9
330
2
100
AcDbEntity
  8
0
100
AcDbLine
 10
409.6707964476808
 20
88.83865997327101
 30
0.0
 11
412.8186994476807
 21
88.83865997327101
 31
0.0
  0
LINE
  5
6EA
330
2
100
AcDbEntity
  8
CENTER
100
AcDbLine
 10
441.3270914476807
 20
67.96365897327098
 30
0.0
 11
430.5770914476807
 21
67.96365897327098
 31
0.0
  0
LINE
  5
6EC
330
2
100
AcDbEntity
  8
0
100
AcDbLine
 10
404.4207964476807
 20
137.9636589732709
 30
0.0
 11
438.4906044476807
 21
137.3689589732709
 31
0.0
  0
ARC
  5
6ED
330
2
100
AcDbEntity
  8
0
100
AcDbCircle
 10
381.4207964476807
 20
136.9636589732709
 30
0.0
 40
3.0
100
AcDbArc
 50
98.89579528650614
 51
169.4954069999998
  0
LINE
  5
6EE
330
2
100
AcDbEntity
  8
CENTER
100
AcDbLine
 10
436.4208114476808
 20
136.7761589732709
 30
0.0
 11
436.4208114476808
 21
126.2761589732709
 31
0.0
  0
CIRCLE
  5
6EF
330
2
100
AcDbEntity
  8
0
100
AcDbCircle
 10
436.4208114476808
 20
131.9636589732709
 30
0.0
 40
3.25
  0
LINE
  5
6F0
330
2
100
AcDbEntity
  8
CENTER
100
AcDbLine
 10
441.3270914476807
 20
131.9636589732709
 30
0.0
 11
430.5770914476807
 21
131.9636589732709
 31
0.0
  0
ARC
  5
6F1
330
2
100
AcDbEntity
  8
0
100
AcDbCircle
 10
426.3497964476808
 20
134.9636589732709
 30
0.0
 40
5.0
100
AcDbArc
 50
45.0001300000002
 51
74.00827623471949
  0
LINE
  5
6F2
330
2
100
AcDbEntity
  8
0
100
AcDbLine
 10
429.8852884476808
 20
138.4991589732709
 30
0.0
 11
430.8826944476808
 21
137.5017599732709
 31
0.0
  0
LINE
  5
6F3
330
2
100
AcDbEntity
  8
0
100
AcDbLine
 10
444.4208114476808
 20
76.96365897327098
 30
0.0
 11
444.4208114476808
 21
121.892560973271
 31
0.0
  0
ARC
  5
6F4
330
2
100
AcDbEntity
  8
0
100
AcDbCircle
 10
441.4208114476807
 20
76.963649973271
 30
0.0
 40
3.0
100
AcDbArc
 50
289.4714739999998
 51
0.0
  0
ARC
  5
6F5
330
2
100
AcDbEntity
  8
0
100
AcDbCircle
 10
439.4208114476808
 20
121.892560973271
 30
0.0
 40
5.0
100
AcDbArc
 50
0.0
 51
45.00016000000012
  0
LINE
  5
6F6
330
2
100
AcDbEntity
  8
0
100
AcDbLine
 10
442.9563034476807
 20
125.4281599732709
 30
0.0
 11
442.4208114476808
 21
125.9636589732709
 31
0.0
  0
TEXT
  5
707
330
2
100
AcDbEntity
  8
TITLE
100
AcDbText
 10
409.4749184720396
 20
280.6667213441961
 30
0.0
 40
5.0
  1
GFMN-12-5~60-S40WK
100
AcDbText
  0
TEXT
  5
708
330
2
100
AcDbEntity
  8
TITLE
100
AcDbText
 10
297.4694948997736
 20
280.0429338752469
 30
0.0
 40
5.0
  1
GFMN-12-5~60-T40WK
100
AcDbText
  0
TEXT
  5
709
330
2
100
AcDbEntity
  8
TITLE
100
AcDbText
 10
409.845819741153
 20
294.9719021151026
 30
0.0
 40
5.0
  1
GFMN-12-5~120-S25WK
100
AcDbText
  0
TEXT
  5
70A
330
2
100
AcDbEntity
  8
TITLE
100
AcDbText
 10
297.7918041650126
 20
295.0049088983185
 30
0.0
 40
5.0
  1
GFMN-12-5~120-T25WK
100
AcDbText
  0
TEXT
  5
70B
330
2
100
AcDbEntity
  8
TITLE
100
AcDbText
 10
409.5705029494372
 20
310.277020001785
 30
0.0
 40
5.0
  1
GFMN-12-5~240-S15WK
100
AcDbText
  0
TEXT
  5
70C
330
2
100
AcDbEntity
  8
TITLE
100
AcDbText
 10
297.7918041650126
 20
311.110066806797
 30
0.0
 40
5.0
  1
GFMN-12-5~240-T15WK
100
AcDbText
  0
ARC
  5
1604
330
2
100
AcDbEntity
  8
0
100
AcDbCircle
 10
382.9207964476807
 20
175.563673973271
 30
0.0
 40
9.0
100
AcDbArc
 50
74.1191499917157
 51
105.880850008278
  0
SPLINE
  5
1605
330
2
100
AcDbEntity
  8
0
100
AcDbSpline
210
0.0
220
0.0
230
1.0
 70
     8
 71
     3
 72
    11
 73
     7
 74
     0
 42
0.0000000001
 43
0.0000000001
 40
0.0
 40
0.0
 40
0.0
 40
0.0
 40
0.4601364636755307
 40
1.04988694485363
 40
1.713742833862792
 40
2.320347933405154
 40
2.320347933405154
 40
2.320347933405154
 40
2.320347933405179
 10
383.2082964481358
 20
183.046673973271
 30
0.0
 10
383.2307141052435
 20
183.2016974129509
 30
0.0
 10
383.2818641604768
 20
183.5554122308684
 30
0.0
 10
383.7177493220104
 20
183.9801399024701
 30
0.0
 10
384.3228000370179
 20
184.1993270824359
 30
0.0
 10
384.7479846611937
 20
184.1303357828253
 30
0.0
 10
384.9505362708448
 20
184.1161155106486
 30
0.0
  0
LINE
  5
1606
330
2
100
AcDbEntity
  8
0
100
AcDbLine
 10
386.9207964476808
 20
181.9636739732709
 30
0.0
 11
379.4207964476807
 21
181.963673973271
 31
0.0
  0
LINE
  5
1607
330
2
100
AcDbEntity
  8
0
100
AcDbLine
 10
381.4207964476807
 20
139.4636589732709
 30
0.0
 11
427.4207814476808
 21
139.4636589732709
 31
0.0
  0
LINE
  5
1609
330
2
100
AcDbEntity
  8
0
100
AcDbLine
 10
379.4207964476807
 20
151.4636589732709
 30
0.0
 11
429.4207814476808
 21
151.4636589732709
 31
0.0
  0
LINE
  5
160A
330
2
100
AcDbEntity
  8
0
100
AcDbLine
 10
379.4207964476807
 20
141.4636589732709
 30
0.0
 11
429.4207814476808
 21
141.4636589732709
 31
0.0
  0
LINE
  5
160B
330
2
100
AcDbEntity
  8
0
100
AcDbLine
 10
379.4207964476807
 20
152.4636589732709
 30
0.0
 11
429.4207814476808
 21
152.4636589732709
 31
0.0
  0
LINE
  5
160C
330
2
100
AcDbEntity
  8
CENTER
100
AcDbLine
 10
374.3771894664722
 20
167.4636589732709
 30
0.0
 11
434.4644034288893
 21
167.4636589732709
 31
0.0
  0
LINE
  5
1643
330
2
100
AcDbEntity
  8
0
100
AcDbLine
 10
379.4207964476807
 20
183.4636739732709
 30
0.0
 11
379.4207964476807
 21
141.4636589732709
 31
0.0
  0
LINE
  5
1644
330
2
100
AcDbEntity
  8
0
100
AcDbLine
 10
379.4207964476807
 20
141.4636589732709
 30
0.0
 11
381.4207964476807
 21
139.4636589732709
 31
0.0
  0
LINE
  5
1645
330
2
100
AcDbEntity
  8
0
100
AcDbLine
 10
381.9207964476808
 20
139.4636589732709
 30
0.0
 11
381.9207964476807
 21
137.5708483357895
 31
0.0
  0
LINE
  5
1646
330
2
100
AcDbEntity
  8
0
100
AcDbLine
 10
381.5828876316542
 20
184.463673973271
 30
0.0
 11
380.4207964476808
 21
184.463673973271
 31
0.0
  0
LINE
  5
1647
330
2
100
AcDbEntity
  8
0
100
AcDbLine
 10
379.4207964476807
 20
181.963673973271
 30
0.0
 11
379.5187325865686
 21
183.0830891630893
 31
0.0
  0
ARC
  5
1648
330
2
100
AcDbEntity
  8
0
100
AcDbCircle
 10
380.8137856940878
 20
182.9697866975173
 30
0.0
 40
1.3
100
AcDbArc
 50
105.880850008278
 51
174.9999999999999
  0
LINE
  5
1649
330
2
100
AcDbEntity
  8
0
100
AcDbLine
 10
380.8910566245166
 20
184.1161155106486
 30
0.0
 11
380.8707964476807
 21
184.3270922561102
 31
0.0
  0
LINE
  5
164A
330
2
100
AcDbEntity
  8
0
100
AcDbLine
 10
382.6332964472257
 20
183.046673973271
 30
0.0
 11
383.2082964481358
 21
183.046673973271
 31
0.0
  0
SPLINE
  5
164B
330
2
100
AcDbEntity
  8
0
100
AcDbSpline
210
0.0
220
0.0
230
1.0
 70
     8
 71
     3
 72
    11
 73
     7
 74
     0
 42
0.0000000001
 43
0.0000000001
 40
0.0
 40
0.0
 40
0.0
 40
0.0
 40
0.4601364636755307
 40
1.04988694485363
 40
1.713742833862792
 40
2.320347933405154
 40
2.320347933405154
 40
2.320347933405154
 40
2.320347933405179
 10
382.6332964472257
 20
183.046673973271
 30
0.0
 10
382.6108787901178
 20
183.2016974129509
 30
0.0
 10
382.5597287348845
 20
183.5554122308684
 30
0.0
 10
382.1238435733509
 20
183.9801399024701
 30
0.0
 10
381.5187928583435
 20
184.1993270824359
 30
0.0
 10
381.0936082341677
 20
184.1303357828253
 30
0.0
 10
380.8910566245166
 20
184.1161155106486
 30
0.0
  0
LINE
  5
164C
330
2
100
AcDbEntity
  8
0
100
AcDbLine
 10
380.4207964476808
 20
184.463673973271
 30
0.0
 11
379.4207964476807
 21
183.463673973271
 31
0.0
  0
LINE
  5
164D
330
2
100
AcDbEntity
  8
0
100
AcDbLine
 10
159.0049100360795
 20
322.7025630688376
 30
0.0
 11
124.0050010360795
 21
322.7025630688375
 31
0.0
  0
LINE
  5
164E
330
2
100
AcDbEntity
  8
0
100
AcDbLine
 10
159.0049100360795
 20
276.7025630688376
 30
0.0
 11
124.0050010360795
 21
276.7025630688376
 31
0.0
  0
LINE
  5
164F
330
2
100
AcDbEntity
  8
0
100
AcDbLine
 10
118.5050010360795
 20
324.7025630688376
 30
0.0
 11
164.5049100360795
 21
324.7025630688376
 31
0.0
  0
LINE
  5
1650
330
2
100
AcDbEntity
  8
0
100
AcDbLine
 10
118.5050010360795
 20
274.7025630688376
 30
0.0
 11
164.5049100360795
 21
274.7025630688376
 31
0.0
  0
LINE
  5
1652
330
2
100
AcDbEntity
  8
0
100
AcDbLine
 10
116.5050010360795
 20
276.7025630688376
 30
0.0
 11
116.5050010360795
 21
322.7025630688376
 31
0.0
  0
LINE
  5
1653
330
2
100
AcDbEntity
  8
0
100
AcDbLine
 10
118.5050010360795
 20
317.2025630688376
 30
0.0
 11
118.5050010360795
 21
282.2025630688376
 31
0.0
  0
LINE
  5
1654
330
2
100
AcDbEntity
  8
CENTER
100
AcDbLine
 10
141.5051080360794
 20
269.6589560876291
 30
0.0
 11
141.5051080360794
 21
329.746170050046
 31
0.0
  0
ARC
  5
1655
330
2
100
AcDbEntity
  8
0
100
AcDbCircle
 10
120.0050010360795
 20
278.2024710688375
 30
0.0
 40
4.0
100
AcDbArc
 50
0.0
 51
90.0
  0
ARC
  5
1656
330
2
100
AcDbEntity
  8
0
100
AcDbCircle
 10
117.9753010360793
 20
276.1727710688376
 30
0.0
 40
1.742199999999999
100
AcDbArc
 50
359.9986903345002
 51
90.00130966549322
  0
LINE
  5
1657
330
2
100
AcDbEntity
  8
0
100
AcDbLine
 10
120.0050010360795
 20
282.2025630688376
 30
0.0
 11
116.5050010360795
 21
282.2025630688376
 31
0.0
  0
CIRCLE
  5
1658
330
2
100
AcDbEntity
  8
0
100
AcDbCircle
 10
120.0050010360795
 20
278.2024710688375
 30
0.0
 40
3.500000000000028
  0
ARC
  5
1659
330
2
100
AcDbEntity
  8
0
100
AcDbCircle
 10
117.9753010360793
 20
280.2321710688375
 30
0.0
 40
1.742199999999999
100
AcDbArc
 50
269.9986903345067
 51
0.0013096654997424
  0
ARC
  5
165A
330
2
100
AcDbEntity
  8
0
100
AcDbCircle
 10
120.0050010360795
 20
278.2024710688375
 30
0.0
 40
2.049999999999998
100
AcDbArc
 50
180.0
 51
188.0619600839816
  0
LINE
  5
165B
330
2
100
AcDbEntity
  8
0
100
AcDbLine
 10
116.5050010360795
 20
276.7025630688376
 30
0.0
 11
118.5050010360795
 21
274.7025630688376
 31
0.0
  0
ARC
  5
165C
330
2
100
AcDbEntity
  8
0
100
AcDbCircle
 10
120.0050010360795
 20
278.2024710688375
 30
0.0
 40
2.049999999999998
100
AcDbArc
 50
171.9380399160183
 51
180.0
  0
ARC
  5
165D
330
2
100
AcDbEntity
  8
0
100
AcDbCircle
 10
120.0050010360795
 20
278.2024710688375
 30
0.0
 40
2.049999999999998
100
AcDbArc
 50
270.0
 51
278.0619600839818
  0
ARC
  5
165E
330
2
100
AcDbEntity
  8
0
100
AcDbCircle
 10
120.0050010360795
 20
278.2024710688375
 30
0.0
 40
2.049999999999998
100
AcDbArc
 50
261.9380399160181
 51
270.0
  0
ARC
  5
165F
330
2
100
AcDbEntity
  8
0
100
AcDbCircle
 10
120.0050010360795
 20
278.2024710688375
 30
0.0
 40
2.049999999999998
100
AcDbArc
 50
351.9380399160183
 51
0.0
  0
ARC
  5
1660
330
2
100
AcDbEntity
  8
0
100
AcDbCircle
 10
122.0347010360794
 20
276.1727710688376
 30
0.0
 40
1.742199999999999
100
AcDbArc
 50
89.99869033450025
 51
180.0013096654997
  0
ARC
  5
1661
330
2
100
AcDbEntity
  8
0
100
AcDbCircle
 10
120.0050010360795
 20
278.2024710688375
 30
0.0
 40
2.049999999999998
100
AcDbArc
 50
81.93803991601813
 51
90.0
  0
ARC
  5
1662
330
2
100
AcDbEntity
  8
0
100
AcDbCircle
 10
120.0050010360795
 20
278.2024710688375
 30
0.0
 40
2.049999999999998
100
AcDbArc
 50
90.0
 51
98.06196008398188
  0
ARC
  5
1663
330
2
100
AcDbEntity
  8
0
100
AcDbCircle
 10
120.0050010360795
 20
278.2024710688375
 30
0.0
 40
2.049999999999998
100
AcDbArc
 50
0.0
 51
8.061960083981649
  0
ARC
  5
1664
330
2
100
AcDbEntity
  8
0
100
AcDbCircle
 10
122.0347010360794
 20
280.2321710688375
 30
0.0
 40
1.742199999999999
100
AcDbArc
 50
179.9986903345002
 51
270.0013096654997
  0
LINE
  5
1665
330
2
100
AcDbEntity
  8
0
100
AcDbLine
 10
124.0050010360795
 20
278.2024710688375
 30
0.0
 11
124.0050010360795
 21
274.7025630688376
 31
0.0
  0
ARC
  5
1666
330
2
100
AcDbEntity
  8
0
100
AcDbCircle
 10
120.0050010360795
 20
321.2025630688376
 30
0.0
 40
4.0
100
AcDbArc
 50
270.0
 51
0.0
  0
ARC
  5
1667
330
2
100
AcDbEntity
  8
0
100
AcDbCircle
 10
122.0347010360794
 20
323.2322630688375
 30
0.0
 40
1.742199999999999
100
AcDbArc
 50
179.9986903345002
 51
270.0013096654997
  0
ARC
  5
1668
330
2
100
AcDbEntity
  8
0
100
AcDbCircle
 10
117.9753010360793
 20
323.2322630688375
 30
0.0
 40
1.742199999999999
100
AcDbArc
 50
269.9986903345067
 51
0.0013096654997424
  0
CIRCLE
  5
1669
330
2
100
AcDbEntity
  8
0
100
AcDbCircle
 10
120.0050010360795
 20
321.2025630688376
 30
0.0
 40
3.500000000000028
  0
LINE
  5
166A
330
2
100
AcDbEntity
  8
0
100
AcDbLine
 10
120.0050010360795
 20
317.2025630688376
 30
0.0
 11
116.5050010360795
 21
317.2025630688376
 31
0.0
  0
ARC
  5
166B
330
2
100
AcDbEntity
  8
0
100
AcDbCircle
 10
117.9753010360793
 20
319.1728630688376
 30
0.0
 40
1.742199999999999
100
AcDbArc
 50
359.9986903345002
 51
90.00130966549322
  0
ARC
  5
166C
330
2
100
AcDbEntity
  8
0
100
AcDbCircle
 10
120.0050010360795
 20
321.2025630688376
 30
0.0
 40
2.049999999999998
100
AcDbArc
 50
171.9380399160183
 51
180.0
  0
ARC
  5
166D
330
2
100
AcDbEntity
  8
0
100
AcDbCircle
 10
120.0050010360795
 20
321.2025630688376
 30
0.0
 40
2.049999999999998
100
AcDbArc
 50
180.0
 51
188.0619600839816
  0
ARC
  5
166E
330
2
100
AcDbEntity
  8
0
100
AcDbCircle
 10
120.0050010360795
 20
321.2025630688376
 30
0.0
 40
2.049999999999998
100
AcDbArc
 50
270.0
 51
278.0619600839818
  0
ARC
  5
166F
330
2
100
AcDbEntity
  8
0
100
AcDbCircle
 10
120.0050010360795
 20
321.2025630688376
 30
0.0
 40
2.049999999999998
100
AcDbArc
 50
261.9380399160181
 51
270.0
  0
ARC
  5
1670
330
2
100
AcDbEntity
  8
0
100
AcDbCircle
 10
120.0050010360795
 20
321.2025630688376
 30
0.0
 40
2.049999999999998
100
AcDbArc
 50
0.0
 51
8.061960083981649
  0
ARC
  5
1671
330
2
100
AcDbEntity
  8
0
100
AcDbCircle
 10
120.0050010360795
 20
321.2025630688376
 30
0.0
 40
2.049999999999998
100
AcDbArc
 50
351.9380399160183
 51
0.0
  0
ARC
  5
1672
330
2
100
AcDbEntity
  8
0
100
AcDbCircle
 10
122.0347010360794
 20
319.1728630688376
 30
0.0
 40
1.742199999999999
100
AcDbArc
 50
89.99869033450025
 51
180.0013096654997
  0
LINE
  5
1673
330
2
100
AcDbEntity
  8
0
100
AcDbLine
 10
116.5050010360795
 20
322.7025630688376
 30
0.0
 11
118.5050010360795
 21
324.7025630688376
 31
0.0
  0
LINE
  5
1674
330
2
100
AcDbEntity
  8
0
100
AcDbLine
 10
116.5050010360795
 20
322.7025630688376
 30
0.0
 11
118.5050010360795
 21
324.7025630688376
 31
0.0
  0
ARC
  5
1675
330
2
100
AcDbEntity
  8
0
100
AcDbCircle
 10
120.0050010360795
 20
321.2025630688376
 30
0.0
 40
2.049999999999998
100
AcDbArc
 50
81.93803991601813
 51
90.0
  0
ARC
  5
1676
330
2
100
AcDbEntity
  8
0
100
AcDbCircle
 10
120.0050010360795
 20
321.2025630688376
 30
0.0
 40
2.049999999999998
100
AcDbArc
 50
90.0
 51
98.06196008398188
  0
LINE
  5
1677
330
2
100
AcDbEntity
  8
0
100
AcDbLine
 10
124.0050010360795
 20
321.2025630688376
 30
0.0
 11
124.0050010360795
 21
324.7023790688375
 31
0.0
  0
LINE
  5
1678
330
2
100
AcDbEntity
  8
0
100
AcDbLine
 10
166.5051080360794
 20
322.7025630688376
 30
0.0
 11
166.5049100360795
 21
276.7025630688376
 31
0.0
  0
LINE
  5
1679
330
2
100
AcDbEntity
  8
0
100
AcDbLine
 10
164.5049100360795
 20
317.2025630688376
 30
0.0
 11
164.5049100360795
 21
282.2025630688376
 31
0.0
  0
ARC
  5
167A
330
2
100
AcDbEntity
  8
0
100
AcDbCircle
 10
160.9754080360793
 20
276.1727710688376
 30
0.0
 40
1.742199999999999
100
AcDbArc
 50
359.9986903345002
 51
90.00130966549322
  0
ARC
  5
167B
330
2
100
AcDbEntity
  8
0
100
AcDbCircle
 10
163.0051080360795
 20
278.2024710688375
 30
0.0
 40
4.0
100
AcDbArc
 50
90.0
 51
180.0
  0
CIRCLE
  5
167C
330
2
100
AcDbEntity
  8
0
100
AcDbCircle
 10
163.0051080360795
 20
278.2024710688375
 30
0.0
 40
3.500000000000028
  0
ARC
  5
167D
330
2
100
AcDbEntity
  8
0
100
AcDbCircle
 10
160.9754080360793
 20
280.2321710688375
 30
0.0
 40
1.742199999999999
100
AcDbArc
 50
269.9986903345067
 51
0.0013096654997424
  0
LINE
  5
167E
330
2
100
AcDbEntity
  8
0
100
AcDbLine
 10
159.0049100360795
 20
278.2024710688375
 30
0.0
 11
159.0049100360795
 21
274.7025630688376
 31
0.0
  0
ARC
  5
167F
330
2
100
AcDbEntity
  8
0
100
AcDbCircle
 10
163.0051080360795
 20
278.2024710688375
 30
0.0
 40
2.049999999999998
100
AcDbArc
 50
180.0
 51
188.0619600839816
  0
ARC
  5
1680
330
2
100
AcDbEntity
  8
0
100
AcDbCircle
 10
163.0051080360795
 20
278.2024710688375
 30
0.0
 40
2.049999999999998
100
AcDbArc
 50
171.9380399160183
 51
180.0
  0
ARC
  5
1681
330
2
100
AcDbEntity
  8
0
100
AcDbCircle
 10
163.0051080360795
 20
278.2024710688375
 30
0.0
 40
2.049999999999998
100
AcDbArc
 50
270.0
 51
278.0619600839818
  0
ARC
  5
1682
330
2
100
AcDbEntity
  8
0
100
AcDbCircle
 10
163.0051080360795
 20
278.2024710688375
 30
0.0
 40
2.049999999999998
100
AcDbArc
 50
261.9380399160181
 51
270.0
  0
ARC
  5
1683
330
2
100
AcDbEntity
  8
0
100
AcDbCircle
 10
163.0051080360795
 20
278.2024710688375
 30
0.0
 40
2.049999999999998
100
AcDbArc
 50
351.9380399160183
 51
0.0
  0
ARC
  5
1684
330
2
100
AcDbEntity
  8
0
100
AcDbCircle
 10
165.0348080360794
 20
276.1727710688376
 30
0.0
 40
1.742199999999999
100
AcDbArc
 50
89.99869033450025
 51
180.0013096654997
  0
LINE
  5
1685
330
2
100
AcDbEntity
  8
0
100
AcDbLine
 10
166.5049100360795
 20
276.7025630688376
 30
0.0
 11
164.5049100360795
 21
274.7025630688376
 31
0.0
  0
LINE
  5
1686
330
2
100
AcDbEntity
  8
0
100
AcDbLine
 10
164.5049100360795
 20
274.7025630688376
 30
0.0
 11
166.5049100360795
 21
276.7025630688376
 31
0.0
  0
ARC
  5
1687
330
2
100
AcDbEntity
  8
0
100
AcDbCircle
 10
163.0051080360795
 20
278.2024710688375
 30
0.0
 40
2.049999999999998
100
AcDbArc
 50
81.93803991601813
 51
90.0
  0
ARC
  5
1688
330
2
100
AcDbEntity
  8
0
100
AcDbCircle
 10
163.0051080360795
 20
278.2024710688375
 30
0.0
 40
2.049999999999998
100
AcDbArc
 50
90.0
 51
98.06196008398188
  0
LINE
  5
1689
330
2
100
AcDbEntity
  8
0
100
AcDbLine
 10
163.0049100360795
 20
282.2025630688376
 30
0.0
 11
166.5049100360795
 21
282.2025630688376
 31
0.0
  0
ARC
  5
168A
330
2
100
AcDbEntity
  8
0
100
AcDbCircle
 10
163.0051080360795
 20
278.2024710688375
 30
0.0
 40
2.049999999999998
100
AcDbArc
 50
0.0
 51
8.061960083981649
  0
ARC
  5
168B
330
2
100
AcDbEntity
  8
0
100
AcDbCircle
 10
165.0348080360794
 20
280.2321710688375
 30
0.0
 40
1.742199999999999
100
AcDbArc
 50
179.9986903345002
 51
270.0013096654997
  0
ARC
  5
168C
330
2
100
AcDbEntity
  8
0
100
AcDbCircle
 10
160.9754080360793
 20
319.1728630688376
 30
0.0
 40
1.742199999999999
100
AcDbArc
 50
359.9986903345002
 51
90.00130966549322
  0
ARC
  5
168D
330
2
100
AcDbEntity
  8
0
100
AcDbCircle
 10
160.9754080360793
 20
323.2322630688375
 30
0.0
 40
1.742199999999999
100
AcDbArc
 50
269.9986903345067
 51
0.0013096654997424
  0
ARC
  5
168E
330
2
100
AcDbEntity
  8
0
100
AcDbCircle
 10
163.0051080360795
 20
321.2025630688376
 30
0.0
 40
4.0
100
AcDbArc
 50
180.0
 51
270.0
  0
CIRCLE
  5
168F
330
2
100
AcDbEntity
  8
0
100
AcDbCircle
 10
163.0051080360795
 20
321.2025630688376
 30
0.0
 40
3.500000000000028
  0
LINE
  5
1690
330
2
100
AcDbEntity
  8
0
100
AcDbLine
 10
159.0049100360795
 20
321.2025630688376
 30
0.0
 11
159.0049100360795
 21
324.7023790688375
 31
0.0
  0
ARC
  5
1691
330
2
100
AcDbEntity
  8
0
100
AcDbCircle
 10
163.0051080360795
 20
321.2025630688376
 30
0.0
 40
2.049999999999998
100
AcDbArc
 50
171.9380399160183
 51
180.0
  0
ARC
  5
1692
330
2
100
AcDbEntity
  8
0
100
AcDbCircle
 10
163.0051080360795
 20
321.2025630688376
 30
0.0
 40
2.049999999999998
100
AcDbArc
 50
180.0
 51
188.0619600839816
  0
ARC
  5
1693
330
2
100
AcDbEntity
  8
0
100
AcDbCircle
 10
165.0348080360794
 20
323.2322630688375
 30
0.0
 40
1.742199999999999
100
AcDbArc
 50
179.9986903345002
 51
270.0013096654997
  0
ARC
  5
1694
330
2
100
AcDbEntity
  8
0
100
AcDbCircle
 10
163.0051080360795
 20
321.2025630688376
 30
0.0
 40
2.049999999999998
100
AcDbArc
 50
270.0
 51
278.0619600839818
  0
ARC
  5
1695
330
2
100
AcDbEntity
  8
0
100
AcDbCircle
 10
163.0051080360795
 20
321.2025630688376
 30
0.0
 40
2.049999999999998
100
AcDbArc
 50
261.9380399160181
 51
270.0
  0
ARC
  5
1696
330
2
100
AcDbEntity
  8
0
100
AcDbCircle
 10
163.0051080360795
 20
321.2025630688376
 30
0.0
 40
2.049999999999998
100
AcDbArc
 50
0.0
 51
8.061960083981649
  0
ARC
  5
1697
330
2
100
AcDbEntity
  8
0
100
AcDbCircle
 10
163.0051080360795
 20
321.2025630688376
 30
0.0
 40
2.049999999999998
100
AcDbArc
 50
351.9380399160183
 51
0.0
  0
ARC
  5
1698
330
2
100
AcDbEntity
  8
0
100
AcDbCircle
 10
165.0348080360794
 20
319.1728630688376
 30
0.0
 40
1.742199999999999
100
AcDbArc
 50
89.99869033450025
 51
180.0013096654997
  0
LINE
  5
1699
330
2
100
AcDbEntity
  8
0
100
AcDbLine
 10
163.0049100360795
 20
317.2025630688376
 30
0.0
 11
166.5049100360795
 21
317.2025630688376
 31
0.0
  0
ARC
  5
169A
330
2
100
AcDbEntity
  8
0
100
AcDbCircle
 10
163.0051080360795
 20
321.2025630688376
 30
0.0
 40
2.049999999999998
100
AcDbArc
 50
81.93803991601813
 51
90.0
  0
ARC
  5
169B
330
2
100
AcDbEntity
  8
0
100
AcDbCircle
 10
163.0051080360795
 20
321.2025630688376
 30
0.0
 40
2.049999999999998
100
AcDbArc
 50
90.0
 51
98.06196008398188
  0
LINE
  5
169C
330
2
100
AcDbEntity
  8
0
100
AcDbLine
 10
166.5049100360795
 20
322.7025630688376
 30
0.0
 11
164.5049100360795
 21
324.7025630688376
 31
0.0
  0
LINE
  5
169D
330
2
100
AcDbEntity
  8
0
100
AcDbLine
 10
166.5049100360795
 20
322.7025630688376
 30
0.0
 11
164.5049100360795
 21
324.7025630688376
 31
0.0
  0
LINE
  5
169E
330
2
100
AcDbEntity
  8
0
100
AcDbLine
 10
166.5051080360794
 20
322.7025630688376
 30
0.0
 11
164.5049100360795
 21
324.7025630688376
 31
0.0
  0
ARC
  5
169F
330
2
100
AcDbEntity
  8
0
100
AcDbCircle
 10
423.8137856940879
 20
182.9697866975173
 30
0.0
 40
1.3
100
AcDbArc
 50
105.880850008278
 51
174.9999999999999
  0
LINE
  5
16A0
330
2
100
AcDbEntity
  8
0
100
AcDbLine
 10
421.9207964476807
 20
181.9636739732709
 30
0.0
 11
429.4207964476807
 21
181.963673973271
 31
0.0
  0
LINE
  5
16A1
330
2
100
AcDbEntity
  8
0
100
AcDbLine
 10
384.2587052637076
 20
184.4636739732709
 30
0.0
 11
424.5828876316539
 21
184.4636739732709
 31
0.0
  0
LINE
  5
16A3
330
2
100
AcDbEntity
  8
0
100
AcDbLine
 10
386.9207964476808
 20
183.4636739732709
 30
0.0
 11
421.9207964476807
 21
183.4636739732709
 31
0.0
  0
LINE
  5
16A4
330
2
100
AcDbEntity
  8
0
100
AcDbLine
 10
386.4207964476806
 20
181.963673973271
 30
0.0
 11
386.3228603087928
 21
183.0830891630893
 31
0.0
  0
LINE
  5
16A5
330
2
100
AcDbEntity
  8
0
100
AcDbLine
 10
386.9207964476808
 20
181.9636739732709
 30
0.0
 11
386.9207964476808
 21
183.963673973271
 31
0.0
  0
LINE
  5
16A6
330
2
100
AcDbEntity
  8
0
100
AcDbLine
 10
387.4207964476807
 20
184.463673973271
 30
0.0
 11
386.9207964476808
 21
183.963673973271
 31
0.0
  0
LINE
  5
16A7
330
2
100
AcDbEntity
  8
0
100
AcDbLine
 10
384.9505362708448
 20
184.1161155106486
 30
0.0
 11
384.9707964476807
 21
184.3270922561102
 31
0.0
  0
LINE
  5
16A8
330
2
100
AcDbEntity
  8
0
100
AcDbLine
 10
386.9207964476808
 20
183.963673973271
 30
0.0
 11
385.8657738373011
 21
183.963673973271
 31
0.0
  0
ARC
  5
16A9
330
2
100
AcDbEntity
  8
0
100
AcDbCircle
 10
385.0278072012737
 20
182.9697866975173
 30
0.0
 40
1.3
100
AcDbArc
 50
5.000000000000026
 51
74.1191499917157
  0
LINE
  5
16AA
330
2
100
AcDbEntity
  8
0
100
AcDbLine
 10
421.4207964476807
 20
184.463673973271
 30
0.0
 11
421.9207964476807
 21
183.963673973271
 31
0.0
  0
LINE
  5
16AB
330
2
100
AcDbEntity
  8
0
100
AcDbLine
 10
421.9207964476807
 20
181.9636739732709
 30
0.0
 11
421.9207964476807
 21
183.963673973271
 31
0.0
  0
LINE
  5
16AC
330
2
100
AcDbEntity
  8
0
100
AcDbLine
 10
422.4207964476809
 20
181.963673973271
 30
0.0
 11
422.5187325865687
 21
183.0830891630893
 31
0.0
  0
LINE
  5
16AD
330
2
100
AcDbEntity
  8
0
100
AcDbLine
 10
421.9207964476807
 20
183.963673973271
 30
0.0
 11
422.9758190580604
 21
183.963673973271
 31
0.0
  0
LINE
  5
16AE
330
2
100
AcDbEntity
  8
0
100
AcDbLine
 10
429.4207814476808
 20
183.4636739732709
 30
0.0
 11
429.4207814476808
 21
141.4636589732709
 31
0.0
  0
LINE
  5
16AF
330
2
100
AcDbEntity
  8
0
100
AcDbLine
 10
427.4207814476808
 20
139.4636589732709
 30
0.0
 11
429.4207814476808
 21
141.4636589732709
 31
0.0
  0
LINE
  5
16B0
330
2
100
AcDbEntity
  8
0
100
AcDbLine
 10
426.9207814476808
 20
139.4636589732709
 30
0.0
 11
426.9207814476808
 21
137.570914139502
 31
0.0
  0
LINE
  5
16B1
330
2
100
AcDbEntity
  8
0
100
AcDbLine
 10
427.2587052637073
 20
184.463673973271
 30
0.0
 11
428.4207964476808
 21
184.463673973271
 31
0.0
  0
ARC
  5
16B2
330
2
100
AcDbEntity
  8
0
100
AcDbCircle
 10
425.9207964476809
 20
175.563673973271
 30
0.0
 40
9.0
100
AcDbArc
 50
74.1191499917157
 51
105.880850008278
  0
SPLINE
  5
16B3
330
2
100
AcDbEntity
  8
0
100
AcDbSpline
210
0.0
220
0.0
230
1.0
 70
     8
 71
     3
 72
    11
 73
     7
 74
     0
 42
0.0000000001
 43
0.0000000001
 40
0.0
 40
0.0
 40
0.0
 40
0.0
 40
0.4601364636755307
 40
1.04988694485363
 40
1.713742833862792
 40
2.320347933405154
 40
2.320347933405154
 40
2.320347933405154
 40
2.320347933405179
 10
426.2082964481359
 20
183.046673973271
 30
0.0
 10
426.2307141052438
 20
183.2016974129509
 30
0.0
 10
426.2818641604771
 20
183.5554122308684
 30
0.0
 10
426.7177493220105
 20
183.9801399024701
 30
0.0
 10
427.322800037018
 20
184.1993270824359
 30
0.0
 10
427.7479846611938
 20
184.1303357828253
 30
0.0
 10
427.9505362708449
 20
184.1161155106486
 30
0.0
  0
LINE
  5
16B4
330
2
100
AcDbEntity
  8
0
100
AcDbLine
 10
426.2082964481359
 20
183.046673973271
 30
0.0
 11
425.6332964472258
 21
183.046673973271
 31
0.0
  0
LINE
  5
16B5
330
2
100
AcDbEntity
  8
0
100
AcDbLine
 10
427.9505362708449
 20
184.1161155106486
 30
0.0
 11
427.9707964476808
 21
184.3270922561102
 31
0.0
  0
LINE
  5
16B6
330
2
100
AcDbEntity
  8
0
100
AcDbLine
 10
423.8910566245167
 20
184.1161155106486
 30
0.0
 11
423.8707964476808
 21
184.3270922561102
 31
0.0
  0
SPLINE
  5
16B7
330
2
100
AcDbEntity
  8
0
100
AcDbSpline
210
0.0
220
0.0
230
1.0
 70
     8
 71
     3
 72
    11
 73
     7
 74
     0
 42
0.0000000001
 43
0.0000000001
 40
0.0
 40
0.0
 40
0.0
 40
0.0
 40
0.4601364636755307
 40
1.04988694485363
 40
1.713742833862792
 40
2.320347933405154
 40
2.320347933405154
 40
2.320347933405154
 40
2.320347933405179
 10
425.6332964472258
 20
183.046673973271
 30
0.0
 10
425.610878790118
 20
183.2016974129509
 30
0.0
 10
425.5597287348847
 20
183.5554122308684
 30
0.0
 10
425.1238435733511
 20
183.9801399024701
 30
0.0
 10
424.5187928583436
 20
184.1993270824359
 30
0.0
 10
424.0936082341678
 20
184.1303357828253
 30
0.0
 10
423.8910566245167
 20
184.1161155106486
 30
0.0
  0
LINE
  5
16B8
330
2
100
AcDbEntity
  8
0
100
AcDbLine
 10
428.4207964476808
 20
184.463673973271
 30
0.0
 11
429.4207964476807
 21
183.463673973271
 31
0.0
  0
ARC
  5
16B9
330
2
100
AcDbEntity
  8
0
100
AcDbCircle
 10
428.0278072012737
 20
182.9697866975173
 30
0.0
 40
1.3
100
AcDbArc
 50
5.000000000000026
 51
74.1191499917157
  0
LINE
  5
16BA
330
2
100
AcDbEntity
  8
0
100
AcDbLine
 10
429.4207964476807
 20
181.963673973271
 30
0.0
 11
429.3228603087929
 21
183.0830891630893
 31
0.0
  0
LINE
  5
170F
330
2
100
AcDbEntity
  8
0
100
AcDbLine
 10
166.5051080360794
 20
183.4636739732709
 30
0.0
 11
166.5051080360794
 21
141.4636589732709
 31
0.0
  0
LINE
  5
1711
330
2
100
AcDbEntity
  8
0
100
AcDbLine
 10
116.5051010360795
 20
183.4636739732709
 30
0.0
 11
116.5051010360795
 21
141.4636589732709
 31
0.0
  0
LINE
  5
1712
330
2
100
AcDbEntity
  8
CENTER
100
AcDbLine
 10
141.5051080360794
 20
133.0741629732709
 30
0.0
 11
141.5051080360794
 21
189.8511739732709
 31
0.0
  0
LINE
  5
1715
330
2
100
AcDbEntity
  8
CENTER
100
AcDbLine
 10
111.4615010548709
 20
167.4636589732709
 30
0.0
 11
171.548715017288
 21
167.4636589732709
 31
0.0
  0
LINE
  5
1716
330
2
100
AcDbEntity
  8
0
100
AcDbLine
 10
116.5051010360795
 20
152.4636589732709
 30
0.0
 11
166.5051080360794
 21
152.4636589732709
 31
0.0
  0
LINE
  5
1717
330
2
100
AcDbEntity
  8
0
100
AcDbLine
 10
116.5051010360795
 20
141.4636589732709
 30
0.0
 11
166.5051080360794
 21
141.4636589732709
 31
0.0
  0
LINE
  5
1718
330
2
100
AcDbEntity
  8
0
100
AcDbLine
 10
116.5051010360795
 20
151.4636589732709
 30
0.0
 11
166.5051080360794
 21
151.4636589732709
 31
0.0
  0
LINE
  5
1719
330
2
100
AcDbEntity
  8
0
100
AcDbLine
 10
118.0051010360795
 20
139.4636589732709
 30
0.0
 11
164.5051080360794
 21
139.4636589732709
 31
0.0
  0
LINE
  5
171A
330
2
100
AcDbEntity
  8
0
100
AcDbLine
 10
118.0051010360795
 20
139.4636589732709
 30
0.0
 11
118.0051010360795
 21
137.9636589732709
 31
0.0
  0
LINE
  5
171B
330
2
100
AcDbEntity
  8
0
100
AcDbLine
 10
116.5051010360795
 20
141.4636589732709
 30
0.0
 11
118.5051010360795
 21
139.4636589732709
 31
0.0
  0
LINE
  5
171C
330
2
100
AcDbEntity
  8
0
100
AcDbLine
 10
115.6301010360795
 20
156.9636589732709
 30
0.0
 11
117.6301010360795
 21
156.9636589732709
 31
0.0
  0
LINE
  5
171D
330
2
100
AcDbEntity
  8
0
100
AcDbLine
 10
164.5051080360794
 20
139.4636589732709
 30
0.0
 11
166.5051080360794
 21
141.4636589732709
 31
0.0
  0
LINE
  5
171E
330
2
100
AcDbEntity
  8
0
100
AcDbLine
 10
164.0051080360795
 20
139.4636589732709
 30
0.0
 11
164.0051080360795
 21
137.9636589732709
 31
0.0
  0
LINE
  5
171F
330
2
100
AcDbEntity
  8
0
100
AcDbLine
 10
124.0051080360794
 20
183.4636739732709
 30
0.0
 11
159.0051080360795
 21
183.4636739732709
 31
0.0
  0
LINE
  5
1720
330
2
100
AcDbEntity
  8
0
100
AcDbLine
 10
121.343016852106
 20
184.4636739732709
 30
0.0
 11
161.6671992200531
 21
184.4636739732709
 31
0.0
  0
LINE
  5
1722
330
2
100
AcDbEntity
  8
0
100
AcDbLine
 10
124.0051080360794
 20
181.9636739732709
 30
0.0
 11
116.5051080360794
 21
181.963673973271
 31
0.0
  0
LINE
  5
1723
330
2
100
AcDbEntity
  8
0
100
AcDbLine
 10
124.0051080360794
 20
183.9636739732709
 30
0.0
 11
122.9500854256998
 21
183.9636739732709
 31
0.0
  0
ARC
  5
1724
330
2
100
AcDbEntity
  8
0
100
AcDbCircle
 10
122.1121187896724
 20
182.9697866975173
 30
0.0
 40
1.3
100
AcDbArc
 50
5.000000000000026
 51
74.1191499917157
  0
LINE
  5
1725
330
2
100
AcDbEntity
  8
0
100
AcDbLine
 10
123.5051080360795
 20
181.963673973271
 30
0.0
 11
123.4071718971915
 21
183.0830891630893
 31
0.0
  0
LINE
  5
1726
330
2
100
AcDbEntity
  8
0
100
AcDbLine
 10
116.5051080360794
 20
181.963673973271
 30
0.0
 11
116.6030441749674
 21
183.0830891630893
 31
0.0
  0
LINE
  5
1727
330
2
100
AcDbEntity
  8
0
100
AcDbLine
 10
115.6301010360795
 20
177.9636589732709
 30
0.0
 11
117.6301010360795
 21
177.9636589732709
 31
0.0
  0
SPLINE
  5
1728
330
2
100
AcDbEntity
  8
0
100
AcDbSpline
210
0.0
220
0.0
230
1.0
 70
     8
 71
     3
 72
    11
 73
     7
 74
     0
 42
0.0000000001
 43
0.0000000001
 40
0.0
 40
0.0
 40
0.0
 40
0.0
 40
0.4601364636755307
 40
1.04988694485363
 40
1.713742833862792
 40
2.320347933405154
 40
2.320347933405154
 40
2.320347933405154
 40
2.320347933405179
 10
120.2926080365344
 20
183.046673973271
 30
0.0
 10
120.3150256936423
 20
183.2016974129508
 30
0.0
 10
120.3661757488755
 20
183.5554122308684
 30
0.0
 10
120.8020609104091
 20
183.98013990247
 30
0.0
 10
121.4071116254166
 20
184.1993270824359
 30
0.0
 10
121.8322962495924
 20
184.1303357828253
 30
0.0
 10
122.0348478592435
 20
184.1161155106486
 30
0.0
  0
LINE
  5
1729
330
2
100
AcDbEntity
  8
0
100
AcDbLine
 10
122.0348478592435
 20
184.1161155106486
 30
0.0
 11
122.0551080360794
 21
184.3270922561101
 31
0.0
  0
LINE
  5
172A
330
2
100
AcDbEntity
  8
0
100
AcDbLine
 10
119.7176080356243
 20
183.046673973271
 30
0.0
 11
120.2926080365344
 21
183.046673973271
 31
0.0
  0
LINE
  5
172B
330
2
100
AcDbEntity
  8
0
100
AcDbLine
 10
118.667199220053
 20
184.4636739732709
 30
0.0
 11
117.5051080360794
 21
184.4636739732709
 31
0.0
  0
ARC
  5
172C
330
2
100
AcDbEntity
  8
0
100
AcDbCircle
 10
117.8980972824865
 20
182.9697866975173
 30
0.0
 40
1.3
100
AcDbArc
 50
105.880850008278
 51
174.9999999999999
  0
LINE
  5
172D
330
2
100
AcDbEntity
  8
0
100
AcDbLine
 10
117.9753682129153
 20
184.1161155106486
 30
0.0
 11
117.9551080360794
 21
184.3270922561101
 31
0.0
  0
LINE
  5
172E
330
2
100
AcDbEntity
  8
0
100
AcDbLine
 10
117.5051080360794
 20
184.4636739732709
 30
0.0
 11
116.5051080360794
 21
183.4636739732709
 31
0.0
  0
ARC
  5
172F
330
2
100
AcDbEntity
  8
0
100
AcDbCircle
 10
120.0051080360794
 20
175.563673973271
 30
0.0
 40
9.0
100
AcDbArc
 50
74.1191499917157
 51
105.880850008278
  0
SPLINE
  5
1730
330
2
100
AcDbEntity
  8
0
100
AcDbSpline
210
0.0
220
0.0
230
1.0
 70
     8
 71
     3
 72
    11
 73
     7
 74
     0
 42
0.0000000001
 43
0.0000000001
 40
0.0
 40
0.0
 40
0.0
 40
0.0
 40
0.4601364636755307
 40
1.04988694485363
 40
1.713742833862792
 40
2.320347933405154
 40
2.320347933405154
 40
2.320347933405154
 40
2.320347933405179
 10
119.7176080356243
 20
183.046673973271
 30
0.0
 10
119.6951903785165
 20
183.2016974129508
 30
0.0
 10
119.6440403232832
 20
183.5554122308684
 30
0.0
 10
119.2081551617496
 20
183.98013990247
 30
0.0
 10
118.6031044467422
 20
184.1993270824359
 30
0.0
 10
118.1779198225664
 20
184.1303357828253
 30
0.0
 10
117.9753682129153
 20
184.1161155106486
 30
0.0
  0
LINE
  5
1731
330
2
100
AcDbEntity
  8
0
100
AcDbLine
 10
124.0051080360794
 20
181.9636739732709
 30
0.0
 11
124.0051080360794
 21
183.963673973271
 31
0.0
  0
LINE
  5
1732
330
2
100
AcDbEntity
  8
0
100
AcDbLine
 10
124.5051080360795
 20
184.4636739732709
 30
0.0
 11
124.0051080360794
 21
183.9636739732709
 31
0.0
  0
LINE
  5
1733
330
2
100
AcDbEntity
  8
0
100
AcDbLine
 10
166.5051080360794
 20
181.963673973271
 30
0.0
 11
166.4071718971916
 21
183.0830891630893
 31
0.0
  0
LINE
  5
1734
330
2
100
AcDbEntity
  8
0
100
AcDbLine
 10
159.0051080360795
 20
181.9636739732709
 30
0.0
 11
159.0051080360795
 21
183.963673973271
 31
0.0
  0
LINE
  5
1735
330
2
100
AcDbEntity
  8
0
100
AcDbLine
 10
159.5051080360796
 20
181.963673973271
 30
0.0
 11
159.6030441749674
 21
183.0830891630893
 31
0.0
  0
LINE
  5
1736
330
2
100
AcDbEntity
  8
0
100
AcDbLine
 10
159.0051080360795
 20
181.9636739732709
 30
0.0
 11
166.5051080360794
 21
181.963673973271
 31
0.0
  0
LINE
  5
1737
330
2
100
AcDbEntity
  8
0
100
AcDbLine
 10
165.5051080360794
 20
184.4636739732709
 30
0.0
 11
166.5051080360794
 21
183.4636739732709
 31
0.0
  0
ARC
  5
1738
330
2
100
AcDbEntity
  8
0
100
AcDbCircle
 10
165.1121187896724
 20
182.9697866975173
 30
0.0
 40
1.3
100
AcDbArc
 50
5.000000000000026
 51
74.1191499917157
  0
SPLINE
  5
1739
330
2
100
AcDbEntity
  8
0
100
AcDbSpline
210
0.0
220
0.0
230
1.0
 70
     8
 71
     3
 72
    11
 73
     7
 74
     0
 42
0.0000000001
 43
0.0000000001
 40
0.0
 40
0.0
 40
0.0
 40
0.0
 40
0.4601364636755307
 40
1.04988694485363
 40
1.713742833862792
 40
2.320347933405154
 40
2.320347933405154
 40
2.320347933405154
 40
2.320347933405179
 10
163.2926080365345
 20
183.046673973271
 30
0.0
 10
163.3150256936424
 20
183.2016974129508
 30
0.0
 10
163.3661757488757
 20
183.5554122308684
 30
0.0
 10
163.8020609104094
 20
183.98013990247
 30
0.0
 10
164.4071116254167
 20
184.1993270824359
 30
0.0
 10
164.8322962495926
 20
184.1303357828253
 30
0.0
 10
165.0348478592436
 20
184.1161155106486
 30
0.0
  0
LINE
  5
173A
330
2
100
AcDbEntity
  8
0
100
AcDbLine
 10
163.2926080365345
 20
183.046673973271
 30
0.0
 11
162.7176080356246
 21
183.046673973271
 31
0.0
  0
LINE
  5
173B
330
2
100
AcDbEntity
  8
0
100
AcDbLine
 10
165.0348478592436
 20
184.1161155106486
 30
0.0
 11
165.0551080360796
 21
184.3270922561101
 31
0.0
  0
LINE
  5
173C
330
2
100
AcDbEntity
  8
0
100
AcDbLine
 10
164.343016852106
 20
184.4636739732709
 30
0.0
 11
165.5051080360794
 21
184.4636739732709
 31
0.0
  0
LINE
  5
173D
330
2
100
AcDbEntity
  8
0
100
AcDbLine
 10
158.5051080360794
 20
184.4636739732709
 30
0.0
 11
159.0051080360795
 21
183.9636739732709
 31
0.0
  0
LINE
  5
173E
330
2
100
AcDbEntity
  8
0
100
AcDbLine
 10
159.0051080360795
 20
183.9636739732709
 30
0.0
 11
160.0601306464591
 21
183.9636739732709
 31
0.0
  0
ARC
  5
173F
330
2
100
AcDbEntity
  8
0
100
AcDbCircle
 10
160.8980972824865
 20
182.9697866975173
 30
0.0
 40
1.3
100
AcDbArc
 50
105.880850008278
 51
174.9999999999999
  0
LINE
  5
1740
330
2
100
AcDbEntity
  8
0
100
AcDbLine
 10
160.9753682129155
 20
184.1161155106486
 30
0.0
 11
160.9551080360795
 21
184.3270922561101
 31
0.0
  0
SPLINE
  5
1741
330
2
100
AcDbEntity
  8
0
100
AcDbSpline
210
0.0
220
0.0
230
1.0
 70
     8
 71
     3
 72
    11
 73
     7
 74
     0
 42
0.0000000001
 43
0.0000000001
 40
0.0
 40
0.0
 40
0.0
 40
0.0
 40
0.4601364636755307
 40
1.04988694485363
 40
1.713742833862792
 40
2.320347933405154
 40
2.320347933405154
 40
2.320347933405154
 40
2.320347933405179
 10
162.7176080356246
 20
183.046673973271
 30
0.0
 10
162.6951903785167
 20
183.2016974129508
 30
0.0
 10
162.6440403232834
 20
183.5554122308684
 30
0.0
 10
162.2081551617498
 20
183.98013990247
 30
0.0
 10
161.6031044467424
 20
184.1993270824359
 30
0.0
 10
161.1779198225665
 20
184.1303357828253
 30
0.0
 10
160.9753682129155
 20
184.1161155106486
 30
0.0
  0
ARC
  5
1742
330
2
100
AcDbEntity
  8
0
100
AcDbCircle
 10
163.0051080360796
 20
175.563673973271
 30
0.0
 40
9.0
100
AcDbArc
 50
74.1191499917157
 51
105.880850008278
  0
ENDSEC
  0
SECTION
  2
OBJECTS
  0
DICTIONARY
  5
7
330
0
100
AcDbDictionary
  3
ACAD_GROUP
350
75
  3
ACAD_LAYOUT
350
61
  3
ACAD_MLINESTYLE
350
76
  3
ACAD_PLOTSETTINGS
350
77
  3
ACAD_PLOTSTYLENAME
350
6
  3
ACADDIM
350
480
  3
ACDBHEADERROUNDTRIPXREC
350
1B23
  3
ACDBVARIABLEDICTIONARY
350
102
  3
DWGPROPS
350
3D2
  0
DICTIONARY
  5
1B44
330
2
100
AcDbDictionary
280
     1
  3
ACAD_LAYOUTSELFREF
360
1B45
  0
DICTIONARY
  5
1B46
330
1B1D
100
AcDbDictionary
280
     1
  3
ACAD_LAYOUTSELFREF
360
1B47
  0
DICTIONARY
  5
75
102
{ACAD_REACTORS
330
7
102
}
330
7
100
AcDbDictionary
  0
DICTIONARY
  5
61
102
{ACAD_REACTORS
330
7
102
}
330
7
100
AcDbDictionary
  0
DICTIONARY
  5
76
102
{ACAD_REACTORS
330
7
102
}
330
7
100
AcDbDictionary
  3
STANDARD
350
78
  0
DICTIONARY
  5
77
102
{ACAD_REACTORS
330
7
102
}
330
7
100
AcDbDictionary
  0
ACDBDICTIONARYWDFLT
  5
6
102
{ACAD_REACTORS
330
7
102
}
330
7
100
AcDbDictionary
281
     1
  3
Normal
350
5
100
AcDbDictionaryWithDefault
340
5
  0
XRECORD
  5
480
102
{ACAD_REACTORS
330
7
102
}
330
7
100
AcDbXrecord
 90
   990106
  3

 60
     0
 61
     0
 62
     1
 63
     3
 64
     1
 65
     0
 66
     0
 67
     3
 68
     1
 69
     0
 70
     0
 71
     0
 72
     0
 40
0.0
170
     2
340
0
  0
DICTIONARY
  5
1B23
102
{ACAD_REACTORS
330
7
102
}
330
7
100
AcDbDictionary
  3
CEPSNTYPE
350
1B2D
  3
DIMSTYLEDATA
350
1B31
  3
FINGERPRINTGUID
350
1B2E
  3
HYPERLINKBASE
350
1B26
  3
INSUNITS
350
1B2C
  3
LAYOUTDICT
350
1B28
  3
LWETCUNION
350
1B2B
  3
PLOTSETDICT
350
1B29
  3
PLOTSTYLNAMDICT
350
1B2A
  3
PSVPSCALE
350
1B30
  3
PUCSBASE
350
1B34
  3
PUCSORGBACK
350
1B3A
  3
PUCSORGBOTTOM
350
1B36
  3
PUCSORGFRONT
350
1B39
  3
PUCSORGLEFT
350
1B37
  3
PUCSORGRIGHT
350
1B38
  3
PUCSORGTOP
350
1B35
  3
PUCSORTHOREF
350
1B32
  3
PUCSORTHOVIEW
350
1B33
  3
STYLESHEET
350
1B27
  3
TSTACKALIGN
350
1B24
  3
TSTACKSIZE
350
1B25
  3
UCSBASE
350
1B3D
  3
UCSORGBACK
350
1B43
  3
UCSORGBOTTOM
350
1B3F
  3
UCSORGFRONT
350
1B42
  3
UCSORGLEFT
350
1B40
  3
UCSORGRIGHT
350
1B41
  3
UCSORGTOP
350
1B3E
  3
UCSORTHOREF
350
1B3B
  3
UCSORTHOVIEW
350
1B3C
  3
VERSIONGUID
350
1B2F
  0
DICTIONARY
  5
102
102
{ACAD_REACTORS
330
7
102
}
330
7
100
AcDbDictionary
  3
DIMASSOC
350
103
  0
XRECORD
  5
3D2
102
{ACAD_REACTORS
330
7
102
}
330
7
100
AcDbXrecord
  1
DWGPROPS COOKIE
  2

  3

  4

  6

  7

  8

  9

300
=
301
=
302
=
303
=
304
=
305
=
306
=
307
=
308
=
309
=
 40
0.5353330671296296
 41
2452052.431989363
 42
2453406.550756377
  1

 90
        0
  0
XRECORD
  5
1B45
102
{ACAD_REACTORS
330
1B44
102
}
330
1B44
100
AcDbXrecord
340
2
  0
XRECORD
  5
1B47
102
{ACAD_REACTORS
330
1B46
102
}
330
1B46
100
AcDbXrecord
340
1B1D
  0
MLINESTYLE
  5
78
102
{ACAD_REACTORS
330
76
102
}
330
76
100
AcDbMlineStyle
  2
STANDARD
 70
     0
  3

 62
     0
 51
90.0
 52
90.0
 71
     2
 49
0.5
 62
   256
  6
BYLAYER
 49
-0.5
 62
   256
  6
BYLAYER
  0
ACDBPLACEHOLDER
  5
5
102
{ACAD_REACTORS
330
6
102
}
330
6
100
AcDbPlaceHolder
280
     0
  0
XRECORD
  5
1B2D
102
{ACAD_REACTORS
330
1B23
102
}
330
1B23
100
AcDbXrecord
 90
        0
  0
XRECORD
  5
1B31
102
{ACAD_REACTORS
330
1B23
102
}
330
1B23
100
AcDbXrecord
1000
DSTYLE
1002
{
1070
   179
 70
     2
1070
   277
 70
     6
1002
}
  0
XRECORD
  5
1B2E
102
{ACAD_REACTORS
330
1B23
102
}
330
1B23
100
AcDbXrecord
  1
{6385560B-F4B1-4644-A7C2-A3E32AC3D232}
  0
XRECORD
  5
1B26
102
{ACAD_REACTORS
330
1B23
102
}
330
1B23
100
AcDbXrecord
  1

  0
XRECORD
  5
1B2C
102
{ACAD_REACTORS
330
1B23
102
}
330
1B23
100
AcDbXrecord
 90
        0
  0
XRECORD
  5
1B28
102
{ACAD_REACTORS
330
1B23
102
}
330
1B23
100
AcDbXrecord
340
61
  0
XRECORD
  5
1B2B
102
{ACAD_REACTORS
330
1B23
102
}
330
1B23
100
AcDbXrecord
 90
    10781
  0
XRECORD
  5
1B29
102
{ACAD_REACTORS
330
1B23
102
}
330
1B23
100
AcDbXrecord
340
77
  0
XRECORD
  5
1B2A
102
{ACAD_REACTORS
330
1B23
102
}
330
1B23
100
AcDbXrecord
340
6
  0
XRECORD
  5
1B30
102
{ACAD_REACTORS
330
1B23
102
}
330
1B23
100
AcDbXrecord
 40
0.0
  0
XRECORD
  5
1B34
102
{ACAD_REACTORS
330
1B23
102
}
330
1B23
100
AcDbXrecord
340
0
  0
XRECORD
  5
1B3A
102
{ACAD_REACTORS
330
1B23
102
}
330
1B23
100
AcDbXrecord
 10
0.0
 20
0.0
 30
0.0
  0
XRECORD
  5
1B36
102
{ACAD_REACTORS
330
1B23
102
}
330
1B23
100
AcDbXrecord
 10
0.0
 20
0.0
 30
0.0
  0
XRECORD
  5
1B39
102
{ACAD_REACTORS
330
1B23
102
}
330
1B23
100
AcDbXrecord
 10
0.0
 20
0.0
 30
0.0
  0
XRECORD
  5
1B37
102
{ACAD_REACTORS
330
1B23
102
}
330
1B23
100
AcDbXrecord
 10
0.0
 20
0.0
 30
0.0
  0
XRECORD
  5
1B38
102
{ACAD_REACTORS
330
1B23
102
}
330
1B23
100
AcDbXrecord
 10
0.0
 20
0.0
 30
0.0
  0
XRECORD
  5
1B35
102
{ACAD_REACTORS
330
1B23
102
}
330
1B23
100
AcDbXrecord
 10
0.0
 20
0.0
 30
0.0
  0
XRECORD
  5
1B32
102
{ACAD_REACTORS
330
1B23
102
}
330
1B23
100
AcDbXrecord
340
0
  0
XRECORD
  5
1B33
102
{ACAD_REACTORS
330
1B23
102
}
330
1B23
100
AcDbXrecord
 70
     0
  0
XRECORD
  5
1B27
102
{ACAD_REACTORS
330
1B23
102
}
330
1B23
100
AcDbXrecord
  1
Sekkei.ctb
  0
XRECORD
  5
1B24
102
{ACAD_REACTORS
330
1B23
102
}
330
1B23
100
AcDbXrecord
 90
        1
  0
XRECORD
  5
1B25
102
{ACAD_REACTORS
330
1B23
102
}
330
1B23
100
AcDbXrecord
 90
       70
  0
XRECORD
  5
1B3D
102
{ACAD_REACTORS
330
1B23
102
}
330
1B23
100
AcDbXrecord
340
0
  0
XRECORD
  5
1B43
102
{ACAD_REACTORS
330
1B23
102
}
330
1B23
100
AcDbXrecord
 10
0.0
 20
0.0
 30
0.0
  0
XRECORD
  5
1B3F
102
{ACAD_REACTORS
330
1B23
102
}
330
1B23
100
AcDbXrecord
 10
0.0
 20
0.0
 30
0.0
  0
XRECORD
  5
1B42
102
{ACAD_REACTORS
330
1B23
102
}
330
1B23
100
AcDbXrecord
 10
0.0
 20
0.0
 30
0.0
  0
XRECORD
  5
1B40
102
{ACAD_REACTORS
330
1B23
102
}
330
1B23
100
AcDbXrecord
 10
0.0
 20
0.0
 30
0.0
  0
XRECORD
  5
1B41
102
{ACAD_REACTORS
330
1B23
102
}
330
1B23
100
AcDbXrecord
 10
0.0
 20
0.0
 30
0.0
  0
XRECORD
  5
1B3E
102
{ACAD_REACTORS
330
1B23
102
}
330
1B23
100
AcDbXrecord
 10
0.0
 20
0.0
 30
0.0
  0
XRECORD
  5
1B3B
102
{ACAD_REACTORS
330
1B23
102
}
330
1B23
100
AcDbXrecord
340
0
  0
XRECORD
  5
1B3C
102
{ACAD_REACTORS
330
1B23
102
}
330
1B23
100
AcDbXrecord
 70
     0
  0
XRECORD
  5
1B2F
102
{ACAD_REACTORS
330
1B23
102
}
330
1B23
100
AcDbXrecord
  1
{733DB3F8-1BCF-4DA0-907A-F72102F8F8F7}
  0
DICTIONARYVAR
  5
103
102
{ACAD_REACTORS
330
102
102
}
330
102
100
DictionaryVariables
280
     0
  1
1
  0
ENDSEC
  0
EOF
