  0
SECTION
  2
HEADER
  9
$CLAYER
  8
1
  9
$LTSCALE
 40
3.0
  0
ENDSEC
  0
SECTION
  2
TABLES
  0
TABLE
  2
LTYPE
 70
     4
  0
LTYPE
  2
CONTINUOUS
  3
solid line
 70
    64
 72
    65
 73
     0
 40
0.0
  0
LTYPE
  2
DASHED
  3
__ __ __ __ __ __ __ __ __ __ __ __ __ __ __
 70
    64
 72
    65
 73
     2
 40
0.75
 49
0.5
 49
-0.25
  0
LTYPE
  2
CENTER
  3
____ _ ____ _ ____ _ ____ _ ____ _ ____ _ ____
 70
    64
 72
    65
 73
     4
 40
2.0
 49
1.25
 49
-0.25
 49
0.25
 49
-0.25
  0
LTYPE
  2
PHANTOM
  3
_____ _ _ _____ _ _ _____ _ _ _____ _ _ ____
 70
    64
 72
    65
 73
     6
 40
2.5
 49
1.25
 49
-0.25
 49
0.25
 49
-0.25
 49
0.25
 49
-0.25
  0
ENDTAB
  0
TABLE
  2
LAYER
 70
     1
  0
LAYER
  2
0
 70
    64
 62
     7
  6
CONTINUOUS
  0
ENDTAB
  0
TABLE
  2
STYLE
 70
     1
  0
STYLE
  2
STANDARD
 70
     0
 40
0.000000
 41
1.000000
 50
0.000000
 71
     0
 42
3.000000
  3
txt
  4
BIGFONT
  0
ENDTAB
  0
ENDSEC
  0
SECTION
  2
BLOCKS
  0
ENDSEC
  0
SECTION
  2
ENTITIES
  0
LINE
  8
0
  6
CONTINUOUS
 10
54.384998
 20
83.461250
 11
63.884998
 21
83.461250
  0
LINE
  8
0
  6
CONTINUOUS
 10
54.384998
 20
7.461250
 11
63.884998
 21
7.461250
  0
LINE
  8
0
  6
CONTINUOUS
 10
54.384998
 20
5.461250
 11
54.384998
 21
85.461250
  0
LINE
  8
0
  6
CONTINUOUS
 10
54.384998
 20
75.710251
 11
63.884998
 21
75.710251
  0
LINE
  8
0
  6
CONTINUOUS
 10
54.384998
 20
15.212250
 11
63.884998
 21
15.212250
  0
LINE
  8
0
  6
CONTINUOUS
 10
10.385000
 20
85.461250
 11
54.384998
 21
85.461250
  0
LINE
  8
0
  6
CONTINUOUS
 10
10.385000
 20
5.461250
 11
54.384998
 21
5.461250
  0
LINE
  8
0
  6
CONTINUOUS
 10
5.385000
 20
10.461250
 11
5.385000
 21
80.461250
  0
ARC
  8
0
  6
CONTINUOUS
 10
10.385020
 20
80.461250
 40
5.000000
 50
90.000000
 51
180.000000
  0
ARC
  8
0
  6
CONTINUOUS
 10
10.385000
 20
10.461250
 40
5.000000
 50
180.000000
 51
270.000000
  0
LINE
  8
0
  6
CONTINUOUS
 10
63.884998
 20
7.461270
 11
63.884998
 21
83.461250
  0
LINE
  8
0
  6
CENTER
 10
-3.622031
 20
45.461250
 11
186.066406
 21
45.461250
  0
LINE
  8
0
  6
CONTINUOUS
 10
177.884995
 20
83.461250
 11
177.884995
 21
7.461270
  0
LINE
  8
0
  6
CENTER
 10
150.268707
 20
56.461250
 11
212.919403
 21
56.461250
  0
LINE
  8
0
  6
CONTINUOUS
 10
63.884998
 20
83.461250
 11
177.884995
 21
83.461250
  0
LINE
  8
0
  6
CONTINUOUS
 10
63.884998
 20
7.461270
 11
177.884995
 21
7.461270
  0
LINE
  8
0
  6
CONTINUOUS
 10
63.884998
 20
75.710251
 11
169.884995
 21
75.710251
  0
LINE
  8
0
  6
CONTINUOUS
 10
63.884998
 20
15.212280
 11
169.884995
 21
15.212280
  0
LINE
  8
0
  6
CONTINUOUS
 10
205.384995
 20
50.461250
 11
205.384995
 21
62.461250
  0
LINE
  8
0
  6
CONTINUOUS
 10
183.384995
 20
62.461250
 11
205.384995
 21
62.461250
  0
LINE
  8
0
  6
CONTINUOUS
 10
183.384995
 20
50.461250
 11
205.384995
 21
50.461250
  0
LINE
  8
0
  6
CONTINUOUS
 10
183.384995
 20
63.961250
 11
183.384995
 21
48.961250
  0
LINE
  8
0
  6
CONTINUOUS
 10
169.884995
 20
81.461250
 11
169.884995
 21
9.461250
  0
LINE
  8
0
  6
CONTINUOUS
 10
187.384995
 20
58.461250
 11
205.384995
 21
58.461250
  0
LINE
  8
0
  6
CONTINUOUS
 10
187.384995
 20
54.461250
 11
205.384995
 21
54.461250
  0
ARC
  8
0
  6
CONTINUOUS
 10
187.384995
 20
56.461250
 40
2.000000
 50
90.000000
 51
180.000000
  0
ARC
  8
0
  6
CONTINUOUS
 10
187.384995
 20
56.461250
 40
2.000000
 50
180.000000
 51
270.000000
  0
LINE
  8
0
  6
CENTER
 10
164.884995
 20
77.461250
 11
181.634995
 21
77.461250
  0
LINE
  8
0
  6
CENTER
 10
166.634995
 20
13.461250
 11
182.384995
 21
13.461250
  0
LINE
  8
0
  6
DASHED
 10
169.884995
 20
16.711250
 11
177.884995
 21
16.711250
  0
LINE
  8
0
  6
DASHED
 10
169.884995
 20
10.211250
 11
177.884995
 21
10.211250
  0
LINE
  8
0
  6
DASHED
 10
169.884995
 20
80.711250
 11
177.884995
 21
80.711250
  0
LINE
  8
0
  6
DASHED
 10
169.884995
 20
74.211250
 11
177.884995
 21
74.211250
  0
ARC
  8
0
  6
CONTINUOUS
 10
171.884995
 20
81.461250
 40
2.000000
 50
90.000000
 51
180.000000
  0
ARC
  8
0
  6
CONTINUOUS
 10
171.884995
 20
9.461270
 40
2.000000
 50
180.000000
 51
270.000000
  0
LINE
  8
0
  6
CONTINUOUS
 10
183.384995
 20
63.961250
 11
181.384995
 21
63.961250
  0
LINE
  8
0
  6
CONTINUOUS
 10
183.384995
 20
48.961250
 11
181.384995
 21
48.961250
  0
LINE
  8
0
  6
CONTINUOUS
 10
180.384995
 20
73.961250
 11
177.884995
 21
73.961250
  0
LINE
  8
0
  6
CONTINUOUS
 10
180.384995
 20
38.961250
 11
177.884995
 21
38.961250
  0
ARC
  8
0
  6
CONTINUOUS
 10
180.384995
 20
72.961250
 40
1.000000
 50
0.000000
 51
90.000000
  0
ARC
  8
0
  6
CONTINUOUS
 10
180.384995
 20
39.961250
 40
1.000000
 50
-90.000000
 51
0.000000
  0
LINE
  8
0
  6
CONTINUOUS
 10
181.384995
 20
72.961250
 11
181.384995
 21
39.961250
  0
LINE
  8
0
  6
CENTER
 10
305.385010
 20
-0.476250
 11
305.385010
 21
141.729370
  0
LINE
  8
0
  6
CONTINUOUS
 10
343.385010
 20
12.055340
 11
343.385010
 21
78.867149
  0
LINE
  8
0
  6
CONTINUOUS
 10
267.385010
 20
69.073952
 11
267.385010
 21
78.867050
  0
LINE
  8
0
  6
CONTINUOUS
 10
305.385010
 20
83.461250
 11
339.454803
 21
82.866547
  0
LINE
  8
0
  6
CONTINUOUS
 10
271.315186
 20
82.866447
 11
305.385010
 21
83.461250
  0
LINE
  8
0
  6
CONTINUOUS
 10
339.454803
 20
8.055940
 11
305.385010
 21
7.461250
  0
LINE
  8
0
  6
CONTINUOUS
 10
271.315186
 20
8.055800
 11
305.385010
 21
7.461250
  0
ARC
  8
0
  6
CONTINUOUS
 10
339.385010
 20
78.867149
 40
4.000000
 50
0.000000
 51
89.000137
  0
ARC
  8
0
  6
CONTINUOUS
 10
271.385010
 20
78.867050
 40
4.000000
 50
91.000641
 51
180.000000
  0
ARC
  8
0
  6
CONTINUOUS
 10
271.385010
 20
12.055220
 40
4.000000
 50
180.000000
 51
269.000488
  0
ARC
  8
0
  6
CONTINUOUS
 10
339.385010
 20
12.055320
 40
4.000000
 50
-88.999817
 51
0.000000
  0
LINE
  8
0
  6
CENTER
 10
342.291290
 20
77.461250
 11
331.541290
 21
77.461250
  0
LINE
  8
0
  6
CENTER
 10
337.385010
 20
82.273750
 11
337.385010
 21
71.773750
  0
CIRCLE
  8
0
  6
CONTINUOUS
 10
337.385010
 20
77.461250
 40
3.250000
  0
LINE
  8
0
  6
CENTER
 10
342.291290
 20
13.461250
 11
331.541290
 21
13.461250
  0
LINE
  8
0
  6
CENTER
 10
337.385010
 20
8.648750
 11
337.385010
 21
19.148750
  0
CIRCLE
  8
0
  6
CONTINUOUS
 10
337.385010
 20
13.461250
 40
3.250000
  0
LINE
  8
0
  6
CENTER
 10
268.478790
 20
77.461250
 11
279.228790
 21
77.461250
  0
LINE
  8
0
  6
CENTER
 10
273.385010
 20
82.273750
 11
273.385010
 21
71.773750
  0
CIRCLE
  8
0
  6
CONTINUOUS
 10
273.385010
 20
77.461250
 40
3.250000
  0
LINE
  8
0
  6
CENTER
 10
268.478790
 20
13.461250
 11
279.228790
 21
13.461250
  0
LINE
  8
0
  6
CENTER
 10
273.385010
 20
8.648750
 11
273.385010
 21
19.148750
  0
CIRCLE
  8
0
  6
CONTINUOUS
 10
273.385010
 20
13.461250
 40
3.250000
  0
LINE
  8
0
  6
CONTINUOUS
 10
297.885010
 20
58.461250
 11
297.885010
 21
54.461250
  0
LINE
  8
0
  6
CONTINUOUS
 10
301.885010
 20
54.461250
 11
301.885010
 21
58.461250
  0
LINE
  8
0
  6
CONTINUOUS
 10
301.885010
 20
58.461250
 11
297.885010
 21
58.461250
  0
LINE
  8
0
  6
CONTINUOUS
 10
301.885010
 20
54.461250
 11
297.885010
 21
54.461250
  0
ARC
  8
0
  6
CONTINUOUS
 10
305.385010
 20
56.461250
 40
6.000000
 50
-160.528793
 51
160.528793
  0
LINE
  8
0
  6
CENTER
 10
285.135010
 20
56.461250
 11
327.635010
 21
56.461250
  0
LINE
  8
0
  6
CONTINUOUS
 10
339.385010
 20
57.293449
 11
339.385010
 21
33.629101
  0
LINE
  8
0
  6
CONTINUOUS
 10
271.385010
 20
57.293449
 11
271.385010
 21
33.629089
  0
ARC
  8
0
  6
CONTINUOUS
 10
305.385010
 20
45.461250
 40
36.000000
 50
19.188120
 51
160.811905
  0
ARC
  8
0
  6
CONTINUOUS
 10
305.385010
 20
45.461250
 40
36.000000
 50
199.188095
 51
340.811890
  0
ARC
  8
0
  6
CONTINUOUS
 10
305.385010
 20
45.461250
 40
36.000000
 50
19.188120
 51
160.811905
  0
ARC
  8
0
  6
CONTINUOUS
 10
305.385010
 20
45.461250
 40
36.000000
 50
199.188095
 51
340.811890
  0
LINE
  8
0
  6
CONTINUOUS
 10
267.385010
 20
12.055190
 11
267.385010
 21
69.390152
  0
LINE
  8
0
  6
CONTINUOUS
 10
300.135010
 20
31.034491
 11
300.135010
 21
26.461250
  0
LINE
  8
0
  6
CONTINUOUS
 10
302.760010
 20
32.695621
 11
302.760010
 21
34.336250
  0
LINE
  8
0
  6
CONTINUOUS
 10
308.010010
 20
32.695621
 11
308.010010
 21
34.336250
  0
LINE
  8
0
  6
CONTINUOUS
 10
304.872314
 20
33.372379
 11
304.872314
 21
27.322580
  0
LINE
  8
0
  6
CONTINUOUS
 10
305.856689
 20
33.372379
 11
305.856689
 21
27.322580
  0
LINE
  8
0
  6
CONTINUOUS
 10
311.024597
 20
33.372379
 11
311.024597
 21
27.281561
  0
LINE
  8
0
  6
CONTINUOUS
 10
311.927002
 20
30.142401
 11
311.927002
 21
27.281561
  0
LINE
  8
0
  6
CONTINUOUS
 10
298.889404
 20
33.290352
 11
296.359589
 21
33.290352
  0
LINE
  8
0
  6
CONTINUOUS
 10
296.359589
 20
33.290352
 11
295.766815
 21
32.555351
  0
LINE
  8
0
  6
CONTINUOUS
 10
295.838104
 20
34.336250
 11
294.885010
 21
33.115780
  0
LINE
  8
0
  6
CONTINUOUS
 10
295.766815
 20
28.018471
 11
296.369110
 21
27.384100
  0
LINE
  8
0
  6
CONTINUOUS
 10
294.885010
 20
27.483130
 11
295.897797
 21
26.461250
  0
LINE
  8
0
  6
CONTINUOUS
 10
294.885010
 20
33.115780
 11
294.885010
 21
27.483130
  0
LINE
  8
0
  6
CONTINUOUS
 10
295.766815
 20
32.555351
 11
295.766815
 21
28.018471
  0
LINE
  8
0
  6
CONTINUOUS
 10
299.376190
 20
32.819752
 11
298.879486
 21
33.290352
  0
LINE
  8
0
  6
CONTINUOUS
 10
299.368286
 20
34.336250
 11
300.135010
 21
33.485432
  0
LINE
  8
0
  6
CONTINUOUS
 10
299.376190
 20
32.695621
 11
300.135010
 21
32.695621
  0
LINE
  8
0
  6
CONTINUOUS
 10
295.838104
 20
34.336250
 11
299.368286
 21
34.336250
  0
LINE
  8
0
  6
CONTINUOUS
 10
299.376190
 20
30.173161
 11
298.002197
 21
30.173161
  0
LINE
  8
0
  6
CONTINUOUS
 10
299.376190
 20
29.352850
 11
299.376190
 21
30.009100
  0
LINE
  8
0
  6
CONTINUOUS
 10
297.735596
 20
27.384100
 11
296.369110
 21
27.384100
  0
ARC
  8
0
  6
CONTINUOUS
 10
297.735596
 20
29.024719
 40
1.640625
 50
-89.999786
 51
0.000109
  0
LINE
  8
0
  6
CONTINUOUS
 10
299.376190
 20
27.089001
 11
299.376190
 21
26.461250
  0
LINE
  8
0
  6
CONTINUOUS
 10
300.135010
 20
33.485432
 11
300.135010
 21
32.695621
  0
LINE
  8
0
  6
CONTINUOUS
 10
299.376190
 20
30.173161
 11
299.376190
 21
29.024719
  0
LINE
  8
0
  6
CONTINUOUS
 10
298.002197
 20
31.034491
 11
298.002197
 21
30.173161
  0
LINE
  8
0
  6
CONTINUOUS
 10
299.376190
 20
26.461250
 11
300.135010
 21
26.461250
  0
LINE
  8
0
  6
CONTINUOUS
 10
299.376190
 20
27.089001
 11
298.627991
 21
26.461250
  0
LINE
  8
0
  6
CONTINUOUS
 10
305.856689
 20
27.322580
 11
306.184814
 21
27.322580
  0
LINE
  8
0
  6
CONTINUOUS
 10
304.482697
 20
27.322580
 11
304.482697
 21
26.461250
  0
LINE
  8
0
  6
CONTINUOUS
 10
306.184814
 20
27.322580
 11
306.184814
 21
26.461250
  0
LINE
  8
0
  6
CONTINUOUS
 10
307.462402
 20
32.695621
 11
308.010010
 21
32.695621
  0
LINE
  8
0
  6
CONTINUOUS
 10
302.760010
 20
32.695621
 11
303.342804
 21
32.695621
  0
LINE
  8
0
  6
CONTINUOUS
 10
302.760010
 20
34.336250
 11
308.010010
 21
34.336250
  0
LINE
  8
0
  6
CONTINUOUS
 10
304.482697
 20
26.461250
 11
306.184814
 21
26.461250
  0
LINE
  8
0
  6
CONTINUOUS
 10
304.482697
 20
27.322580
 11
304.872314
 21
27.322580
  0
ARC
  8
0
  6
CONTINUOUS
 10
313.782898
 20
32.234200
 40
2.102051
 50
-73.981873
 51
90.003510
  0
ARC
  8
0
  6
CONTINUOUS
 10
313.782898
 20
32.234200
 40
1.282395
 50
-82.585274
 51
62.411850
  0
LINE
  8
0
  6
CONTINUOUS
 10
310.635010
 20
34.336250
 11
313.782898
 21
34.336250
  0
LINE
  8
0
  6
CONTINUOUS
 10
310.635010
 20
34.336250
 11
310.635010
 21
33.372379
  0
LINE
  8
0
  6
CONTINUOUS
 10
311.927002
 20
33.372379
 11
311.927002
 21
30.962530
  0
LINE
  8
0
  6
CONTINUOUS
 10
314.363007
 20
30.213760
 11
315.664001
 21
27.281561
  0
LINE
  8
0
  6
CONTINUOUS
 10
313.607300
 20
30.142401
 11
314.838593
 21
27.281561
  0
LINE
  8
0
  6
CONTINUOUS
 10
310.635010
 20
27.281561
 11
311.024597
 21
27.281561
  0
LINE
  8
0
  6
CONTINUOUS
 10
311.927002
 20
27.281561
 11
312.285889
 21
27.281561
  0
LINE
  8
0
  6
CONTINUOUS
 10
312.285889
 20
26.461250
 11
310.635010
 21
26.461250
  0
LINE
  8
0
  6
CONTINUOUS
 10
314.674988
 20
27.281561
 11
314.838593
 21
27.281561
  0
LINE
  8
0
  6
CONTINUOUS
 10
315.664001
 20
27.281561
 11
315.885010
 21
27.281561
  0
LINE
  8
0
  6
CONTINUOUS
 10
314.674988
 20
26.461250
 11
315.885010
 21
26.461250
  0
LINE
  8
0
  6
CONTINUOUS
 10
315.885010
 20
27.281561
 11
315.885010
 21
26.461250
  0
LINE
  8
0
  6
CONTINUOUS
 10
314.674988
 20
27.281561
 11
314.674988
 21
26.461250
  0
LINE
  8
0
  6
CONTINUOUS
 10
312.285889
 20
27.281561
 11
312.285889
 21
26.461250
  0
LINE
  8
0
  6
CONTINUOUS
 10
310.635010
 20
27.281561
 11
310.635010
 21
26.461250
  0
LINE
  8
0
  6
CONTINUOUS
 10
303.624695
 20
33.372379
 11
303.342804
 21
32.695621
  0
LINE
  8
0
  6
CONTINUOUS
 10
307.224609
 20
33.372379
 11
307.462402
 21
32.695621
  0
LINE
  8
0
  6
CONTINUOUS
 10
305.856689
 20
33.372379
 11
307.224609
 21
33.372379
  0
LINE
  8
0
  6
CONTINUOUS
 10
304.872314
 20
33.372379
 11
303.624695
 21
33.372379
  0
LINE
  8
0
  6
CONTINUOUS
 10
310.635010
 20
33.372379
 11
311.024597
 21
33.372379
  0
LINE
  8
0
  6
CONTINUOUS
 10
311.927002
 20
33.372379
 11
314.376892
 21
33.370789
  0
LINE
  8
0
  6
CONTINUOUS
 10
299.376190
 20
32.819752
 11
299.376190
 21
32.695621
  0
LINE
  8
0
  6
CONTINUOUS
 10
295.897797
 20
26.461250
 11
298.627991
 21
26.461250
  0
LINE
  8
0
  6
CONTINUOUS
 10
311.927002
 20
30.962530
 11
313.948395
 21
30.962530
  0
LINE
  8
0
  6
CONTINUOUS
 10
311.927002
 20
30.142401
 11
313.607300
 21
30.142401
  0
LINE
  8
0
  6
CONTINUOUS
 10
298.002197
 20
31.034491
 11
300.135010
 21
31.034491
  0
LINE
  8
0
  6
CONTINUOUS
 10
283.456085
 20
5.461250
 11
328.385010
 21
5.461250
  0
LINE
  8
0
  6
CONTINUOUS
 10
265.385010
 20
23.532360
 11
265.385010
 21
68.461250
  0
LINE
  8
0
  6
CONTINUOUS
 10
345.385010
 20
22.461250
 11
345.385010
 21
67.390152
  0
ARC
  8
0
  6
CONTINUOUS
 10
268.385010
 20
68.461250
 40
3.000000
 50
109.471603
 51
180.000000
  0
ARC
  8
0
  6
CONTINUOUS
 10
282.385010
 20
82.461250
 40
3.000000
 50
123.557655
 51
169.495407
  0
ARC
  8
0
  6
CONTINUOUS
 10
327.313995
 20
80.461250
 40
5.000000
 50
45.000130
 51
64.157806
  0
ARC
  8
0
  6
CONTINUOUS
 10
340.385010
 20
67.390152
 40
5.000000
 50
0.000000
 51
45.000160
  0
ARC
  8
0
  6
CONTINUOUS
 10
342.385010
 20
22.461241
 40
3.000000
 50
-70.528526
 51
0.000000
  0
ARC
  8
0
  6
CONTINUOUS
 10
328.385010
 20
8.461240
 40
3.000000
 50
270.000000
 51
349.493500
  0
ARC
  8
0
  6
CONTINUOUS
 10
283.456085
 20
10.461250
 40
5.000000
 50
225.000000
 51
270.000000
  0
ARC
  8
0
  6
CONTINUOUS
 10
270.385010
 20
23.532360
 40
5.000000
 50
180.000000
 51
224.998398
  0
LINE
  8
0
  6
CONTINUOUS
 10
343.920502
 20
70.925751
 11
343.385010
 21
71.461250
  0
LINE
  8
0
  6
CONTINUOUS
 10
330.849487
 20
83.996750
 11
331.846893
 21
82.999352
  0
LINE
  8
0
  6
CONTINUOUS
 10
279.920502
 20
6.925720
 11
278.923187
 21
7.923030
  0
CIRCLE
  8
0
  6
CONTINUOUS
 10
305.385010
 20
56.461250
 40
17.500000
  0
LINE
  8
0
  6
CONTINUOUS
 10
177.884995
 20
264.677490
 11
177.884995
 21
188.677505
  0
LINE
  8
0
  6
CONTINUOUS
 10
63.885120
 20
188.677521
 11
63.885120
 21
195.677475
  0
LINE
  8
0
  6
CONTINUOUS
 10
63.885120
 20
264.677490
 11
177.885117
 21
264.677490
  0
LINE
  8
0
  6
CONTINUOUS
 10
63.885120
 20
188.677521
 11
177.885117
 21
188.677521
  0
LINE
  8
0
  6
CONTINUOUS
 10
169.885117
 20
262.677490
 11
169.885117
 21
249.677505
  0
ARC
  8
0
  6
CONTINUOUS
 10
171.885117
 20
262.677490
 40
2.000000
 50
90.000000
 51
180.000000
  0
ARC
  8
0
  6
CONTINUOUS
 10
171.885117
 20
190.677521
 40
2.000000
 50
180.000000
 51
270.000000
  0
LINE
  8
0
  6
CONTINUOUS
 10
54.384998
 20
264.677490
 11
63.885120
 21
264.677490
  0
LINE
  8
0
  6
CONTINUOUS
 10
54.384998
 20
188.677505
 11
63.885120
 21
188.677505
  0
LINE
  8
0
  6
CONTINUOUS
 10
116.885124
 20
249.677505
 11
169.885117
 21
249.677505
  0
LINE
  8
0
  6
CONTINUOUS
 10
54.885120
 20
249.677505
 11
54.384998
 21
249.677505
  0
LINE
  8
0
  6
CONTINUOUS
 10
116.885124
 20
203.677505
 11
169.885117
 21
203.677505
  0
LINE
  8
0
  6
CONTINUOUS
 10
54.885120
 20
203.677505
 11
54.384998
 21
203.677505
  0
LINE
  8
0
  6
CONTINUOUS
 10
169.885117
 20
203.677505
 11
169.885117
 21
190.677505
  0
LINE
  8
0
  6
CONTINUOUS
 10
63.885120
 20
257.677490
 11
63.885120
 21
264.677490
  0
LINE
  8
0
  6
CENTER
 10
-8.921250
 20
226.677505
 11
212.164993
 21
226.677505
  0
LINE
  8
0
  6
CONTINUOUS
 10
205.384995
 20
219.177505
 11
205.384995
 21
232.677505
  0
LINE
  8
0
  6
CONTINUOUS
 10
183.384995
 20
232.677505
 11
205.384995
 21
232.677505
  0
LINE
  8
0
  6
CONTINUOUS
 10
183.384995
 20
220.677505
 11
185.384995
 21
220.677505
  0
LINE
  8
0
  6
CONTINUOUS
 10
183.384995
 20
234.177505
 11
183.384995
 21
219.177505
  0
LINE
  8
0
  6
CONTINUOUS
 10
180.384995
 20
244.177505
 11
177.884995
 21
244.177505
  0
LINE
  8
0
  6
CONTINUOUS
 10
180.384995
 20
209.177505
 11
177.884995
 21
209.177505
  0
LINE
  8
0
  6
CONTINUOUS
 10
181.384995
 20
210.177505
 11
181.384995
 21
243.177505
  0
ARC
  8
0
  6
CONTINUOUS
 10
180.384995
 20
243.177505
 40
1.000000
 50
0.000000
 51
90.000000
  0
ARC
  8
0
  6
CONTINUOUS
 10
180.384995
 20
210.177505
 40
1.000000
 50
-90.000000
 51
0.000000
  0
LINE
  8
0
  6
CONTINUOUS
 10
181.384995
 20
234.177505
 11
183.384995
 21
234.177505
  0
LINE
  8
0
  6
CONTINUOUS
 10
181.384995
 20
219.177505
 11
183.384995
 21
219.177505
  0
LINE
  8
0
  6
CONTINUOUS
 10
185.384995
 20
219.177505
 11
205.384995
 21
219.177505
  0
LINE
  8
0
  6
CONTINUOUS
 10
185.384995
 20
221.020493
 11
185.384995
 21
219.177505
  0
LINE
  8
0
  6
CONTINUOUS
 10
185.384995
 20
221.020493
 11
205.384995
 21
221.020493
  0
LINE
  8
0
  6
DASHED
 10
169.884995
 20
261.927490
 11
177.884995
 21
261.927490
  0
LINE
  8
0
  6
DASHED
 10
169.884995
 20
255.427505
 11
177.884995
 21
255.427505
  0
LINE
  8
0
  6
CENTER
 10
164.884995
 20
258.677490
 11
181.634995
 21
258.677490
  0
LINE
  8
0
  6
DASHED
 10
169.884995
 20
197.927505
 11
177.884995
 21
197.927505
  0
LINE
  8
0
  6
CENTER
 10
166.634995
 20
194.677505
 11
182.384995
 21
194.677505
  0
LINE
  8
0
  6
DASHED
 10
169.884995
 20
191.427505
 11
177.884995
 21
191.427505
  0
LINE
  8
0
  6
CONTINUOUS
 10
54.384998
 20
186.677505
 11
54.384998
 21
266.677490
  0
LINE
  8
0
  6
CONTINUOUS
 10
10.385000
 20
266.677490
 11
54.384998
 21
266.677490
  0
LINE
  8
0
  6
CONTINUOUS
 10
10.385000
 20
186.677505
 11
54.384998
 21
186.677505
  0
LINE
  8
0
  6
CONTINUOUS
 10
5.385000
 20
191.677505
 11
5.385000
 21
261.677490
  0
ARC
  8
0
  6
CONTINUOUS
 10
10.385000
 20
261.677490
 40
5.000000
 50
90.000000
 51
180.000000
  0
ARC
  8
0
  6
CONTINUOUS
 10
10.385000
 20
191.677505
 40
5.000000
 50
180.000000
 51
270.000000
  0
LINE
  8
0
  6
CONTINUOUS
 10
7.885000
 20
250.677505
 11
54.384998
 21
250.677505
  0
LINE
  8
0
  6
CONTINUOUS
 10
7.885000
 20
200.677505
 11
54.384998
 21
200.677505
  0
LINE
  8
0
  6
CONTINUOUS
 10
7.885000
 20
71.461250
 11
54.384998
 21
71.461250
  0
LINE
  8
0
  6
CONTINUOUS
 10
7.885000
 20
21.461250
 11
54.384998
 21
21.461250
  0
LINE
  8
0
  6
CONTINUOUS
 10
266.849365
 20
19.996923
 11
267.385010
 21
19.461260
  0
LINE
  8
0
  6
CENTER
 10
255.438278
 20
45.461250
 11
352.383270
 21
45.461250
  0
LINE
  8
0
  6
CONTINUOUS
 10
56.384998
 20
84.961258
 11
114.885002
 21
84.961250
  0
LINE
  8
0
  6
CONTINUOUS
 10
56.384998
 20
84.961250
 11
56.384998
 21
83.461250
  0
LINE
  8
0
  6
CONTINUOUS
 10
102.385002
 20
84.961250
 11
102.385002
 21
83.461250
  0
LINE
  8
0
  6
CONTINUOUS
 10
54.884998
 20
133.961243
 11
54.884998
 21
86.961258
  0
LINE
  8
0
  6
CONTINUOUS
 10
116.885002
 20
133.961273
 11
116.885002
 21
86.961250
  0
LINE
  8
0
  6
CONTINUOUS
 10
116.885002
 20
86.961250
 11
114.885002
 21
84.961250
  0
LINE
  8
0
  6
CONTINUOUS
 10
54.884998
 20
86.961258
 11
56.884998
 21
84.961258
  0
LINE
  8
0
  6
CONTINUOUS
 10
54.884998
 20
86.961258
 11
116.885002
 21
86.961250
  0
LINE
  8
0
  6
CONTINUOUS
 10
54.884998
 20
96.961258
 11
116.885002
 21
96.961258
  0
LINE
  8
0
  6
CENTER
 10
85.885002
 20
138.390244
 11
85.885002
 21
80.367241
  0
LINE
  8
0
  6
CONTINUOUS
 10
54.884998
 20
97.961258
 11
116.885002
 21
97.961258
  0
LINE
  8
0
  6
CONTINUOUS
 10
55.884998
 20
134.961243
 11
115.885002
 21
134.961273
  0
LINE
  8
0
  6
CONTINUOUS
 10
115.885002
 20
134.961273
 11
116.885002
 21
133.961273
  0
LINE
  8
0
  6
CONTINUOUS
 10
54.884998
 20
133.961243
 11
55.884998
 21
134.961243
  0
LINE
  8
0
  6
CONTINUOUS
 10
54.884998
 20
133.961243
 11
116.885002
 21
133.961273
  0
LINE
  8
0
  6
CENTER
 10
52.259998
 20
117.961273
 11
58.009998
 21
117.961273
  0
LINE
  8
0
  6
CONTINUOUS
 10
53.759998
 20
128.461273
 11
56.884998
 21
128.461273
  0
LINE
  8
0
  6
CONTINUOUS
 10
53.759998
 20
107.461258
 11
56.884998
 21
107.461258
  0
LINE
  8
0
  6
CONTINUOUS
 10
327.885010
 20
84.961243
 11
327.885010
 21
83.068504
  0
LINE
  8
0
  6
CONTINUOUS
 10
282.885010
 20
84.961243
 11
282.885010
 21
83.068436
  0
LINE
  8
0
  6
CONTINUOUS
 10
276.385010
 20
84.961243
 11
334.385010
 21
84.961243
  0
LINE
  8
0
  6
CONTINUOUS
 10
336.385010
 20
133.961243
 11
336.385010
 21
86.961243
  0
LINE
  8
0
  6
CONTINUOUS
 10
274.385010
 20
133.961243
 11
274.385010
 21
86.961243
  0
LINE
  8
0
  6
CONTINUOUS
 10
336.385010
 20
86.961243
 11
334.385010
 21
84.961243
  0
LINE
  8
0
  6
CONTINUOUS
 10
274.385010
 20
86.961243
 11
276.385010
 21
84.961243
  0
LINE
  8
0
  6
CONTINUOUS
 10
274.385010
 20
86.961243
 11
336.385010
 21
86.961243
  0
LINE
  8
0
  6
CONTINUOUS
 10
274.385010
 20
96.961243
 11
336.385010
 21
96.961243
  0
LINE
  8
0
  6
CONTINUOUS
 10
274.385010
 20
97.961243
 11
336.385010
 21
97.961243
  0
LINE
  8
0
  6
CONTINUOUS
 10
275.385010
 20
134.961243
 11
335.385010
 21
134.961243
  0
LINE
  8
0
  6
CONTINUOUS
 10
335.385010
 20
134.961243
 11
336.385010
 21
133.961243
  0
LINE
  8
0
  6
CONTINUOUS
 10
275.385010
 20
134.961243
 11
274.385010
 21
133.961243
  0
LINE
  8
0
  6
CONTINUOUS
 10
274.385010
 20
133.961243
 11
336.385010
 21
133.961243
  0
LINE
  8
0
  6
CONTINUOUS
 10
54.885120
 20
255.677475
 11
54.885120
 21
197.677475
  0
LINE
  8
0
  6
CONTINUOUS
 10
116.885124
 20
197.677475
 11
116.885124
 21
255.677475
  0
LINE
  8
0
  6
CONTINUOUS
 10
56.885120
 20
257.677490
 11
114.885124
 21
257.677490
  0
LINE
  8
0
  6
CONTINUOUS
 10
56.885120
 20
195.677475
 11
114.885124
 21
195.677475
  0
LINE
  8
0
  6
CONTINUOUS
 10
114.885124
 20
257.677490
 11
116.885124
 21
255.677475
  0
LINE
  8
0
  6
CONTINUOUS
 10
116.885124
 20
197.677475
 11
114.885124
 21
195.677475
  0
LINE
  8
0
  6
CONTINUOUS
 10
54.885120
 20
197.677475
 11
56.885120
 21
195.677475
  0
LINE
  8
0
  6
CONTINUOUS
 10
54.885120
 20
255.677475
 11
56.885120
 21
257.677490
  0
LINE
  8
0
  6
CONTINUOUS
 10
108.885124
 20
252.677475
 11
108.885124
 21
257.677490
  0
LINE
  8
0
  6
CONTINUOUS
 10
111.885124
 20
249.677475
 11
116.885124
 21
249.677475
  0
CIRCLE
  8
0
  6
CONTINUOUS
 10
112.885124
 20
253.677475
 40
2.250000
  0
ARC
  8
0
  6
CONTINUOUS
 10
111.885124
 20
252.677475
 40
3.000000
 50
180.000000
 51
270.000000
  0
LINE
  8
0
  6
CONTINUOUS
 10
115.885124
 20
248.677475
 11
115.885124
 21
204.677475
  0
LINE
  8
0
  6
CONTINUOUS
 10
111.885124
 20
248.677475
 11
115.885124
 21
248.677475
  0
ARC
  8
0
  6
CONTINUOUS
 10
111.885124
 20
252.677475
 40
4.000000
 50
180.000000
 51
270.000000
  0
LINE
  8
0
  6
CONTINUOUS
 10
107.885124
 20
256.677490
 11
107.885124
 21
252.677475
  0
LINE
  8
0
  6
CONTINUOUS
 10
115.885124
 20
248.677475
 11
116.885124
 21
249.677475
  0
LINE
  8
0
  6
CONTINUOUS
 10
63.885120
 20
256.677490
 11
107.885124
 21
256.677490
  0
LINE
  8
0
  6
CONTINUOUS
 10
107.885124
 20
256.677490
 11
108.885124
 21
257.677490
  0
LINE
  8
0
  6
CONTINUOUS
 10
59.885120
 20
249.677475
 11
54.885120
 21
249.677475
  0
LINE
  8
0
  6
CONTINUOUS
 10
62.885120
 20
252.677475
 11
62.885120
 21
257.677490
  0
CIRCLE
  8
0
  6
CONTINUOUS
 10
58.885120
 20
253.677475
 40
2.250000
  0
ARC
  8
0
  6
CONTINUOUS
 10
59.885120
 20
252.677475
 40
3.000000
 50
-90.000000
 51
0.000000
  0
LINE
  8
0
  6
CONTINUOUS
 10
63.885120
 20
252.677475
 11
63.885120
 21
256.677490
  0
ARC
  8
0
  6
CONTINUOUS
 10
59.885120
 20
252.677475
 40
4.000000
 50
-90.000000
 51
0.000000
  0
LINE
  8
0
  6
CONTINUOUS
 10
55.885120
 20
248.677475
 11
59.885120
 21
248.677475
  0
LINE
  8
0
  6
CONTINUOUS
 10
63.885120
 20
256.677490
 11
62.885120
 21
257.677490
  0
LINE
  8
0
  6
CONTINUOUS
 10
55.885120
 20
248.677475
 11
54.885120
 21
249.677475
  0
LINE
  8
0
  6
CONTINUOUS
 10
62.885120
 20
200.677475
 11
62.885120
 21
195.677475
  0
LINE
  8
0
  6
CONTINUOUS
 10
59.885120
 20
203.677475
 11
54.885120
 21
203.677475
  0
CIRCLE
  8
0
  6
CONTINUOUS
 10
58.885120
 20
199.677475
 40
2.250000
  0
ARC
  8
0
  6
CONTINUOUS
 10
59.885120
 20
200.677475
 40
3.000000
 50
0.000000
 51
90.000000
  0
LINE
  8
0
  6
CONTINUOUS
 10
59.885120
 20
204.677475
 11
55.885120
 21
204.677475
  0
ARC
  8
0
  6
CONTINUOUS
 10
59.885120
 20
200.677475
 40
4.000000
 50
0.000000
 51
90.000000
  0
LINE
  8
0
  6
CONTINUOUS
 10
63.885120
 20
196.677475
 11
63.885120
 21
200.677475
  0
LINE
  8
0
  6
CONTINUOUS
 10
55.885120
 20
204.677475
 11
54.885120
 21
203.677475
  0
LINE
  8
0
  6
CONTINUOUS
 10
63.885120
 20
196.677475
 11
62.885120
 21
195.677475
  0
LINE
  8
0
  6
CONTINUOUS
 10
111.885124
 20
203.677475
 11
116.885124
 21
203.677475
  0
LINE
  8
0
  6
CONTINUOUS
 10
108.885124
 20
200.677475
 11
108.885124
 21
195.677475
  0
CIRCLE
  8
0
  6
CONTINUOUS
 10
112.885124
 20
199.677475
 40
2.250000
  0
ARC
  8
0
  6
CONTINUOUS
 10
111.885124
 20
200.677475
 40
3.000000
 50
90.000000
 51
180.000000
  0
LINE
  8
0
  6
CONTINUOUS
 10
107.885124
 20
200.677475
 11
107.885124
 21
196.677475
  0
ARC
  8
0
  6
CONTINUOUS
 10
111.885124
 20
200.677475
 40
4.000000
 50
90.000000
 51
180.000000
  0
LINE
  8
0
  6
CONTINUOUS
 10
115.885124
 20
204.677475
 11
111.885124
 21
204.677475
  0
LINE
  8
0
  6
CONTINUOUS
 10
107.885124
 20
196.677475
 11
108.885124
 21
195.677475
  0
LINE
  8
0
  6
CONTINUOUS
 10
115.885124
 20
204.677475
 11
116.885124
 21
203.677475
  0
LINE
  8
0
  6
CONTINUOUS
 10
63.885120
 20
196.677475
 11
107.885124
 21
196.677475
  0
LINE
  8
0
  6
CONTINUOUS
 10
55.885120
 20
248.677475
 11
55.885120
 21
204.677475
  0
LINE
  8
0
  6
CENTER
 10
85.885124
 20
262.923737
 11
85.885124
 21
190.230911
  0
TEXT
  8
0
 10
-8.000000
 20
0.000000
 40
4.000000
 41
1.000000
  1
GFMN-12-5~240-T15WC
 50
0.000000
  0
ENDSEC
  0
EOF
