  0
SECTION
  2
HEADER
  9
$ACADVER
  1
AC1014
  9
$ACADMAINTVER
 70
     9
  9
$DWGCODEPAGE
  3
ANSI_932
  9
$INSBASE
 10
0.0
 20
0.0
 30
0.0
  9
$EXTMIN
 10
52.69885903607951
 20
75.69893513979424
 30
0.0
  9
$EXTMAX
 10
504.845819741153
 20
350.9934257613384
 30
0.0
  9
$LIMMIN
 10
-56.10306750215102
 20
-31.34337698376828
  9
$LIMMAX
 10
818.7513232585141
 20
432.5570667055663
  9
$ORTHOMODE
 70
     0
  9
$REGENMODE
 70
     1
  9
$FILLMODE
 70
     1
  9
$QTEXTMODE
 70
     0
  9
$MIRRTEXT
 70
     0
  9
$DRAGMODE
 70
     2
  9
$LTSCALE
 40
2.0
  9
$OSMODE
 70
    37
  9
$ATTMODE
 70
     1
  9
$TEXTSIZE
 40
2.0
  9
$TRACEWID
 40
1.0
  9
$TEXTSTYLE
  7
STANDARD
  9
$CLAYER
  8
0
  9
$CELTYPE
  6
BYLAYER
  9
$CECOLOR
 62
   256
  9
$CELTSCALE
 40
1.0
  9
$DELOBJ
 70
     1
  9
$DISPSILH
 70
     0
  9
$DIMSCALE
 40
2.0
  9
$DIMASZ
 40
1.8
  9
$DIMEXO
 40
0.625
  9
$DIMDLI
 40
3.75
  9
$DIMRND
 40
0.0
  9
$DIMDLE
 40
0.0
  9
$DIMEXE
 40
0.8
  9
$DIMTP
 40
0.0
  9
$DIMTM
 40
0.0
  9
$DIMTXT
 40
1.8
  9
$DIMCEN
 40
2.5
  9
$DIMTSZ
 40
0.0
  9
$DIMTOL
 70
     0
  9
$DIMLIM
 70
     0
  9
$DIMTIH
 70
     0
  9
$DIMTOH
 70
     0
  9
$DIMSE1
 70
     0
  9
$DIMSE2
 70
     0
  9
$DIMTAD
 70
     1
  9
$DIMZIN
 70
     8
  9
$DIMBLK
  1

  9
$DIMASO
 70
     1
  9
$DIMSHO
 70
     1
  9
$DIMPOST
  1

  9
$DIMAPOST
  1

  9
$DIMALT
 70
     0
  9
$DIMALTD
 70
     4
  9
$DIMALTF
 40
0.0394
  9
$DIMLFAC
 40
1.0
  9
$DIMTOFL
 70
     1
  9
$DIMTVP
 40
0.0
  9
$DIMTIX
 70
     0
  9
$DIMSOXD
 70
     0
  9
$DIMSAH
 70
     0
  9
$DIMBLK1
  1

  9
$DIMBLK2
  1

  9
$DIMSTYLE
  2
STANDARD
  9
$DIMCLRD
 70
     0
  9
$DIMCLRE
 70
     0
  9
$DIMCLRT
 70
     0
  9
$DIMTFAC
 40
1.0
  9
$DIMGAP
 40
0.75
  9
$DIMJUST
 70
     0
  9
$DIMSD1
 70
     0
  9
$DIMSD2
 70
     0
  9
$DIMTOLJ
 70
     1
  9
$DIMTZIN
 70
     0
  9
$DIMALTZ
 70
     0
  9
$DIMALTTZ
 70
     0
  9
$DIMFIT
 70
     3
  9
$DIMUPT
 70
     0
  9
$DIMUNIT
 70
     8
  9
$DIMDEC
 70
     2
  9
$DIMTDEC
 70
     2
  9
$DIMALTU
 70
     8
  9
$DIMALTTD
 70
     4
  9
$DIMTXSTY
  7
STANDARD
  9
$DIMAUNIT
 70
     0
  9
$LUNITS
 70
     2
  9
$LUPREC
 70
     3
  9
$SKETCHINC
 40
1.0
  9
$FILLETRAD
 40
10.0
  9
$AUNITS
 70
     0
  9
$AUPREC
 70
     2
  9
$MENU
  1
.
  9
$ELEVATION
 40
0.0
  9
$PELEVATION
 40
0.0
  9
$THICKNESS
 40
0.0
  9
$LIMCHECK
 70
     0
  9
$BLIPMODE
 70
     0
  9
$CHAMFERA
 40
0.0
  9
$CHAMFERB
 40
0.0
  9
$CHAMFERC
 40
20.0
  9
$CHAMFERD
 40
0.0
  9
$SKPOLY
 70
     0
  9
$TDCREATE
 40
2453760.705877812
  9
$TDUPDATE
 40
2453832.514587488
  9
$TDINDWG
 40
0.4492561690
  9
$TDUSRTIMER
 40
0.4492561690
  9
$USRTIMER
 70
     1
  9
$ANGBASE
 50
0.0
  9
$ANGDIR
 70
     0
  9
$PDMODE
 70
     0
  9
$PDSIZE
 40
-10.0
  9
$PLINEWID
 40
0.0
  9
$COORDS
 70
     0
  9
$SPLFRAME
 70
     0
  9
$SPLINETYPE
 70
     6
  9
$SPLINESEGS
 70
     8
  9
$ATTDIA
 70
     0
  9
$ATTREQ
 70
     1
  9
$HANDLING
 70
-16383
  9
$HANDSEED
  5
17DD
  9
$SURFTAB1
 70
     6
  9
$SURFTAB2
 70
     6
  9
$SURFTYPE
 70
     6
  9
$SURFU
 70
     6
  9
$SURFV
 70
     6
  9
$UCSNAME
  2

  9
$UCSORG
 10
0.0
 20
0.0
 30
0.0
  9
$UCSXDIR
 10
1.0
 20
0.0
 30
0.0
  9
$UCSYDIR
 10
0.0
 20
1.0
 30
0.0
  9
$PUCSNAME
  2

  9
$PUCSORG
 10
0.0
 20
0.0
 30
0.0
  9
$PUCSXDIR
 10
1.0
 20
0.0
 30
0.0
  9
$PUCSYDIR
 10
0.0
 20
1.0
 30
0.0
  9
$USERI1
 70
     0
  9
$USERI2
 70
     0
  9
$USERI3
 70
     0
  9
$USERI4
 70
     0
  9
$USERI5
 70
     0
  9
$USERR1
 40
0.0
  9
$USERR2
 40
0.0
  9
$USERR3
 40
0.0
  9
$USERR4
 40
0.0
  9
$USERR5
 40
0.0
  9
$WORLDVIEW
 70
     1
  9
$SHADEDGE
 70
     3
  9
$SHADEDIF
 70
    70
  9
$TILEMODE
 70
     1
  9
$MAXACTVP
 70
    48
  9
$PINSBASE
 10
0.0
 20
0.0
 30
0.0
  9
$PLIMCHECK
 70
     0
  9
$PEXTMIN
 10
0.0
 20
0.0
 30
0.0
  9
$PEXTMAX
 10
0.0
 20
0.0
 30
0.0
  9
$PLIMMIN
 10
0.0
 20
0.0
  9
$PLIMMAX
 10
12.0
 20
9.0
  9
$UNITMODE
 70
     0
  9
$VISRETAIN
 70
     1
  9
$PLINEGEN
 70
     0
  9
$PSLTSCALE
 70
     1
  9
$TREEDEPTH
 70
  3020
  9
$PICKSTYLE
 70
     1
  9
$CMLSTYLE
  2
STANDARD
  9
$CMLJUST
 70
     0
  9
$CMLSCALE
 40
1.0
  9
$PROXYGRAPHICS
 70
     1
  9
$MEASUREMENT
 70
     0
  0
ENDSEC
  0
SECTION
  2
CLASSES
  0
CLASS
  1
DICTIONARYVAR
  2
AcDbDictionaryVar
  3
AutoCAD 2000
 90
        0
280
     0
281
     0
  0
CLASS
  1
ACDBDICTIONARYWDFLT
  2
AcDbDictionaryWithDefault
  3
AutoCAD 2000
 90
        0
280
     0
281
     0
  0
CLASS
  1
ACDBPLACEHOLDER
  2
AcDbPlaceHolder
  3
AutoCAD 2000
 90
        0
280
     0
281
     0
  0
CLASS
  1
LAYOUT
  2
AcDbLayout
  3
AutoCAD 2000
 90
        0
280
     0
281
     0
  0
CLASS
  1
LONG_TRANSACTION
  2
AcDbLongTransaction
  3
AutoCAD 2000
 90
        0
280
     0
281
     0
  0
CLASS
  1
LWPOLYLINE
  2
AcDbPolyline
  3
AutoCAD 2000
 90
        0
280
     0
281
     1
  0
CLASS
  1
HATCH
  2
AcDbHatch
  3
AutoCAD 2000
 90
        0
280
     0
281
     1
  0
CLASS
  1
XRECORD
  2
AcDbXrecord
  3
AutoCAD 2000
 90
        0
280
     0
281
     0
  0
ENDSEC
  0
SECTION
  2
TABLES
  0
TABLE
  2
VPORT
  5
6E
330
0
100
AcDbSymbolTable
 70
     2
  0
VPORT
  5
17B7
330
6E
100
AcDbSymbolTableRecord
100
AcDbViewportTableRecord
  2
*ACTIVE
 70
     0
 10
0.0
 20
0.0
 11
1.0
 21
1.0
 12
266.6209688835834
 22
188.0942708783046
 13
0.0
 23
0.0
 14
10.0
 24
10.0
 15
15.0
 25
15.0
 16
0.0
 26
0.0
 36
1.0
 17
0.0
 27
0.0
 37
0.0
 40
327.5445982449859
 41
1.566970091027308
 42
50.0
 43
0.0
 44
0.0
 50
0.0
 51
0.0
 71
     0
 72
   100
 73
     1
 74
     3
 75
     0
 76
     0
 77
     0
 78
     0
  0
ENDTAB
  0
TABLE
  2
LTYPE
  5
69
330
0
100
AcDbSymbolTable
 70
     4
  0
LTYPE
  5
6A
330
69
100
AcDbSymbolTableRecord
100
AcDbLinetypeTableRecord
  2
BYBLOCK
 70
     0
  3

 72
    65
 73
     0
 40
0.0
  0
LTYPE
  5
6B
330
69
100
AcDbSymbolTableRecord
100
AcDbLinetypeTableRecord
  2
BYLAYER
 70
     0
  3

 72
    65
 73
     0
 40
0.0
  0
LTYPE
  5
8
330
69
100
AcDbSymbolTableRecord
100
AcDbLinetypeTableRecord
  2
CONTINUOUS
 70
     0
  3
Solid line
 72
    65
 73
     0
 40
0.0
  0
LTYPE
  5
27C
330
69
100
AcDbSymbolTableRecord
100
AcDbLinetypeTableRecord
  2
SEKKEI_A2_
 70
     0
  3
center(A2)  ____ _ ____ _ ____ _ ____ _ ____ _ 
 72
    65
 73
     4
 40
14.28749999999999
 49
9.525
 74
     0
 49
-1.587499999999999
 74
     0
 49
1.587499999999999
 74
     0
 49
-1.587499999999999
 74
     0
  0
LTYPE
  5
2B4
330
69
100
AcDbSymbolTableRecord
100
AcDbLinetypeTableRecord
  2
HIDDEN2
 70
     0
  3
Hidden (.5x) _ _ _ _ _ _ _ _ _ _ _ _ _ _ _ _ _
 72
    65
 73
     2
 40
4.762499999999999
 49
3.174999999999999
 74
     0
 49
-1.587499999999999
 74
     0
  0
LTYPE
  5
48F
330
69
100
AcDbSymbolTableRecord
100
AcDbLinetypeTableRecord
  2
SEKKEI_H
 70
     0
  3
Hidden-S _ _ _ _ _ _ _ _ _ _ _ _ _ _ _ _ _
 72
    65
 73
     2
 40
2.381249999999999
 49
1.587499999999999
 74
     0
 49
-0.79375
 74
     0
  0
ENDTAB
  0
TABLE
  2
LAYER
  5
66
330
0
100
AcDbSymbolTable
 70
     9
  0
LAYER
  5
5E
330
66
100
AcDbSymbolTableRecord
100
AcDbLayerTableRecord
  2
0
 70
     0
 62
     7
  6
CONTINUOUS
  0
LAYER
  5
3E
330
66
100
AcDbSymbolTableRecord
100
AcDbLayerTableRecord
  2
CENTER
 70
     0
 62
     3
  6
SEKKEI_A2_
  0
LAYER
  5
2B5
330
66
100
AcDbSymbolTableRecord
100
AcDbLayerTableRecord
  2
HIDS
 70
     0
 62
     1
  6
HIDDEN2
  0
LAYER
  5
2BA
330
66
100
AcDbSymbolTableRecord
100
AcDbLayerTableRecord
  2
HOJO
 70
     0
 62
     4
  6
CONTINUOUS
  0
LAYER
  5
3FA
330
66
100
AcDbSymbolTableRecord
100
AcDbLayerTableRecord
  2
TITLE
 70
     0
 62
     4
  6
CONTINUOUS
  0
ENDTAB
  0
TABLE
  2
STYLE
  5
67
330
0
100
AcDbSymbolTable
 70
     1
  0
STYLE
  5
16
330
67
100
AcDbSymbolTableRecord
100
AcDbTextStyleTableRecord
  2
STANDARD
 70
     0
 40
0.0
 41
1.0
 50
0.0
 71
     0
 42
2.0
  3
simplex.shx
  4
extfont.shx
  0
ENDTAB
  0
TABLE
  2
VIEW
  5
6C
330
0
100
AcDbSymbolTable
 70
     0
  0
ENDTAB
  0
TABLE
  2
UCS
  5
6D
330
0
100
AcDbSymbolTable
 70
     0
  0
ENDTAB
  0
TABLE
  2
APPID
  5
70
330
0
100
AcDbSymbolTable
 70
     1
  0
APPID
  5
71
330
70
100
AcDbSymbolTableRecord
100
AcDbRegAppTableRecord
  2
ACAD
 70
     0
  0
ENDTAB
  0
TABLE
  2
DIMSTYLE
  5
72
330
0
100
AcDbSymbolTable
 70
     1
  0
DIMSTYLE
105
73
330
72
100
AcDbSymbolTableRecord
100
AcDbDimStyleTableRecord
  2
STANDARD
 70
     0
  3

  4

  5

  6

  7

 40
2.0
 41
1.8
 42
0.625
 43
3.75
 44
0.8
 45
0.0
 46
0.0
 47
0.0
 48
0.0
140
1.8
141
2.5
142
0.0
143
0.0394
144
1.0
145
0.0
146
1.0
147
0.75
 71
     0
 72
     0
 73
     0
 74
     0
 75
     0
 76
     0
 77
     1
 78
     8
170
     0
171
     4
172
     1
173
     0
174
     0
175
     0
176
     0
177
     0
178
     0
270
     8
271
     2
272
     2
273
     8
274
     4
340
16
275
     0
280
     0
281
     0
282
     0
283
     1
284
     0
285
     0
286
     0
287
     3
288
     0
  0
ENDTAB
  0
TABLE
  2
BLOCK_RECORD
  5
1
330
0
100
AcDbSymbolTable
 70
    61
  0
BLOCK_RECORD
  5
2
102
{ACAD_XDICTIONARY
360
17D9
102
}
330
1
100
AcDbSymbolTableRecord
100
AcDbBlockTableRecord
  2
*MODEL_SPACE
  0
BLOCK_RECORD
  5
17B2
102
{ACAD_XDICTIONARY
360
17DB
102
}
330
1
100
AcDbSymbolTableRecord
100
AcDbBlockTableRecord
  2
*PAPER_SPACE
  0
ENDTAB
  0
ENDSEC
  0
SECTION
  2
BLOCKS
  0
BLOCK
  5
5D
330
2
100
AcDbEntity
  8
0
100
AcDbBlockBegin
  2
*MODEL_SPACE
 70
     0
 10
0.0
 20
0.0
 30
0.0
  3
*MODEL_SPACE
  1

  0
ENDBLK
  5
5F
330
2
100
AcDbEntity
  8
0
100
AcDbBlockEnd
  0
BLOCK
  5
17B4
330
17B2
100
AcDbEntity
 67
     1
  8
0
100
AcDbBlockBegin
  2
*PAPER_SPACE
 70
     0
 10
0.0
 20
0.0
 30
0.0
  3
*PAPER_SPACE
  1

  0
ENDBLK
  5
17B5
330
17B2
100
AcDbEntity
 67
     1
  8
0
100
AcDbBlockEnd
  0
ENDSEC
  0
SECTION
  2
ENTITIES
  0
TEXT
  5
5FA
330
2
100
AcDbEntity
  8
TITLE
100
AcDbText
 10
297.7448126715821
 20
282.0740171411269
 30
0.0
 40
5.0
  1
GFMN-12-5~30-T60T
100
AcDbText
  0
TEXT
  5
5FB
330
2
100
AcDbEntity
  8
TITLE
100
AcDbText
 10
409.4749184720396
 20
297.8965577750856
 30
0.0
 40
5.0
  1
GFMN-12-5~60-S40T
100
AcDbText
  0
TEXT
  5
5FC
330
2
100
AcDbEntity
  8
TITLE
100
AcDbText
 10
297.4694948997736
 20
297.6287455191134
 30
0.0
 40
5.0
  1
GFMN-12-5~60-T40T
100
AcDbText
  0
TEXT
  5
5FD
330
2
100
AcDbEntity
  8
TITLE
100
AcDbText
 10
297.7918041650126
 20
328.9710929035369
 30
0.0
 40
5.0
  1
GFMN-12-5~240-T15T
100
AcDbText
  0
TEXT
  5
5FE
330
2
100
AcDbEntity
  8
TITLE
100
AcDbText
 10
409.845819741153
 20
312.557713758969
 30
0.0
 40
5.0
  1
GFMN-12-5~120-S25T
100
AcDbText
  0
TEXT
  5
5FF
330
2
100
AcDbEntity
  8
TITLE
100
AcDbText
 10
297.7918041650126
 20
313.6915789784241
 30
0.0
 40
5.0
  1
GFMN-12-5~120-T25T
100
AcDbText
  0
TEXT
  5
600
330
2
100
AcDbEntity
  8
TITLE
100
AcDbText
 10
409.5705029494372
 20
328.138046098525
 30
0.0
 40
5.0
  1
GFMN-12-5~240-S15T
100
AcDbText
  0
LINE
  5
601
330
2
100
AcDbEntity
  8
CENTER
100
AcDbLine
 10
354.4740794476807
 20
121.6364361397942
 30
0.0
 11
451.4190714476808
 21
121.6364361397942
 31
0.0
  0
ARC
  5
602
330
2
100
AcDbEntity
  8
0
100
AcDbCircle
 10
404.4207964476807
 20
121.6364361397942
 30
0.0
 40
36.0
100
AcDbArc
 50
199.1880950000001
 51
340.81189
  0
ARC
  5
603
330
2
100
AcDbEntity
  8
0
100
AcDbCircle
 10
404.4207964476807
 20
121.6364361397942
 30
0.0
 40
36.0
100
AcDbArc
 50
19.18812000000024
 51
160.8119049999998
  0
ARC
  5
604
330
2
100
AcDbEntity
  8
0
100
AcDbCircle
 10
404.4207964476807
 20
121.6364361397942
 30
0.0
 40
36.0
100
AcDbArc
 50
199.1880950000001
 51
340.81189
  0
ARC
  5
605
330
2
100
AcDbEntity
  8
0
100
AcDbCircle
 10
404.4207964476807
 20
121.6364361397942
 30
0.0
 40
36.0
100
AcDbArc
 50
19.18812000000024
 51
160.8119049999998
  0
LINE
  5
606
330
2
100
AcDbEntity
  8
CENTER
100
AcDbLine
 10
367.5146074476807
 20
89.63643513979425
 30
0.0
 11
378.2646074476807
 21
89.63643513979425
 31
0.0
  0
LINE
  5
607
330
2
100
AcDbEntity
  8
CENTER
100
AcDbLine
 10
367.5146074476807
 20
153.6364351397942
 30
0.0
 11
378.2646074476807
 21
153.6364351397942
 31
0.0
  0
LINE
  5
608
330
2
100
AcDbEntity
  8
0
100
AcDbLine
 10
370.3510024476808
 20
84.23098613979425
 30
0.0
 11
404.4207964476807
 21
83.63643513979424
 31
0.0
  0
LINE
  5
609
330
2
100
AcDbEntity
  8
0
100
AcDbLine
 10
370.3510024476808
 20
159.0416361397942
 30
0.0
 11
404.4207964476807
 21
159.6364351397942
 31
0.0
  0
LINE
  5
60A
330
2
100
AcDbEntity
  8
0
100
AcDbLine
 10
67.00510603607949
 20
274.9578918554057
 30
0.0
 11
67.00510603607949
 21
344.9578918554057
 31
0.0
  0
LINE
  5
60B
330
2
100
AcDbEntity
  8
0
100
AcDbLine
 10
116.0051080360794
 20
269.9578918554057
 30
0.0
 11
116.0051080360794
 21
302.4578918554057
 31
0.0
  0
LINE
  5
60C
330
2
100
AcDbEntity
  8
0
100
AcDbLine
 10
125.5052300360795
 20
334.9578918554057
 30
0.0
 11
125.5052300360795
 21
347.9578918554057
 31
0.0
  0
LINE
  5
60D
330
2
100
AcDbEntity
  8
0
100
AcDbLine
 10
239.5051100360794
 20
347.9578918554057
 30
0.0
 11
239.5051100360794
 21
271.9578918554057
 31
0.0
  0
LINE
  5
60E
330
2
100
AcDbEntity
  8
0
100
AcDbLine
 10
69.50510603607949
 20
97.63643513979424
 30
0.0
 11
116.0051080360794
 21
97.63643513979424
 31
0.0
  0
LINE
  5
60F
330
2
100
AcDbEntity
  8
0
100
AcDbLine
 10
69.50510603607949
 20
147.6364351397942
 30
0.0
 11
116.0051080360794
 21
147.6364351397942
 31
0.0
  0
LINE
  5
610
330
2
100
AcDbEntity
  8
0
100
AcDbLine
 10
69.50510603607949
 20
283.9578918554057
 30
0.0
 11
116.0051080360794
 21
283.9578918554057
 31
0.0
  0
LINE
  5
611
330
2
100
AcDbEntity
  8
0
100
AcDbLine
 10
72.00510603607949
 20
269.9578918554057
 30
0.0
 11
116.0051080360794
 21
269.9578918554057
 31
0.0
  0
LINE
  5
612
330
2
100
AcDbEntity
  8
CENTER
100
AcDbLine
 10
52.69885903607951
 20
309.9578918554057
 30
0.0
 11
273.7851010360794
 21
309.9578918554057
 31
0.0
  0
LINE
  5
613
330
2
100
AcDbEntity
  8
CENTER
100
AcDbLine
 10
57.99807603607951
 20
121.6364361397942
 30
0.0
 11
247.6865140360795
 21
121.6364361397942
 31
0.0
  0
LINE
  5
614
330
2
100
AcDbEntity
  8
0
100
AcDbLine
 10
72.00510603607949
 20
81.63643513979424
 30
0.0
 11
116.0051080360794
 21
81.63643513979424
 31
0.0
  0
LINE
  5
615
330
2
100
AcDbEntity
  8
0
100
AcDbLine
 10
72.00510603607949
 20
161.6364351397942
 30
0.0
 11
116.0051080360794
 21
161.6364351397942
 31
0.0
  0
LINE
  5
616
330
2
100
AcDbEntity
  8
0
100
AcDbLine
 10
67.00510603607949
 20
86.63643513979424
 30
0.0
 11
67.00510603607949
 21
156.6364351397942
 31
0.0
  0
ARC
  5
617
330
2
100
AcDbEntity
  8
0
100
AcDbCircle
 10
72.00510603607949
 20
86.63643513979424
 30
0.0
 40
5.0
100
AcDbArc
 50
180.0
 51
270.0
  0
ARC
  5
618
330
2
100
AcDbEntity
  8
0
100
AcDbCircle
 10
72.0051290360795
 20
156.6364351397942
 30
0.0
 40
5.0
100
AcDbArc
 50
90.0
 51
180.0
  0
ARC
  5
619
330
2
100
AcDbEntity
  8
0
100
AcDbCircle
 10
72.00510603607949
 20
274.9578918554057
 30
0.0
 40
5.0
100
AcDbArc
 50
180.0
 51
270.0
  0
LINE
  5
61A
330
2
100
AcDbEntity
  8
0
100
AcDbLine
 10
366.4207964476807
 20
88.23037613979426
 30
0.0
 11
366.4207964476807
 21
145.5653371397942
 31
0.0
  0
CIRCLE
  5
61B
330
2
100
AcDbEntity
  8
0
100
AcDbCircle
 10
372.4207964476808
 20
89.63643513979425
 30
0.0
 40
3.25
  0
LINE
  5
61C
330
2
100
AcDbEntity
  8
CENTER
100
AcDbLine
 10
372.4207964476808
 20
84.82393513979424
 30
0.0
 11
372.4207964476808
 21
95.32393513979425
 31
0.0
  0
LINE
  5
61D
330
2
100
AcDbEntity
  8
0
100
AcDbLine
 10
231.5051100360794
 20
157.6364351397942
 30
0.0
 11
231.5051100360794
 21
85.63643513979425
 31
0.0
  0
LINE
  5
61E
330
2
100
AcDbEntity
  8
0
100
AcDbLine
 10
239.5051100360794
 20
159.6364351397942
 30
0.0
 11
239.5051100360794
 21
83.63645413979424
 31
0.0
  0
LINE
  5
61F
330
2
100
AcDbEntity
  8
0
100
AcDbLine
 10
125.5051080360795
 20
83.63645413979424
 30
0.0
 11
125.5051080360795
 21
159.6364351397942
 31
0.0
  0
LINE
  5
620
330
2
100
AcDbEntity
  8
0
100
AcDbLine
 10
116.0051080360794
 20
81.63643513979424
 30
0.0
 11
116.0051080360794
 21
161.6364351397942
 31
0.0
  0
LINE
  5
621
330
2
100
AcDbEntity
  8
0
100
AcDbLine
 10
125.5051080360795
 20
83.63645413979424
 30
0.0
 11
239.5051100360794
 21
83.63645413979424
 31
0.0
  0
LINE
  5
622
330
2
100
AcDbEntity
  8
0
100
AcDbLine
 10
116.0051080360794
 20
83.63643513979424
 30
0.0
 11
125.5051080360795
 21
83.63643513979424
 31
0.0
  0
ARC
  5
623
330
2
100
AcDbEntity
  8
0
100
AcDbCircle
 10
233.5051100360794
 20
85.63645413979424
 30
0.0
 40
2.0
100
AcDbArc
 50
180.0
 51
270.0
  0
LINE
  5
624
330
2
100
AcDbEntity
  8
HIDS
  6
SEKKEI_H
100
AcDbLine
 10
231.5051100360794
 20
86.38643513979424
 30
0.0
 11
239.5051100360794
 21
86.38643513979424
 31
0.0
  0
ARC
  5
625
330
2
100
AcDbEntity
  8
0
100
AcDbCircle
 10
370.4207964476808
 20
88.23040613979424
 30
0.0
 40
4.0
100
AcDbArc
 50
180.0
 51
269.0004879999996
  0
LINE
  5
626
330
2
100
AcDbEntity
  8
0
100
AcDbLine
 10
166.5050010360794
 20
286.9578918554057
 30
0.0
 11
231.5052320360795
 21
286.9578918554057
 31
0.0
  0
LINE
  5
627
330
2
100
AcDbEntity
  8
0
100
AcDbLine
 10
125.5052300360795
 20
271.9579138554057
 30
0.0
 11
239.5052320360795
 21
271.9579138554057
 31
0.0
  0
LINE
  5
628
330
2
100
AcDbEntity
  8
0
100
AcDbLine
 10
125.5051080360795
 20
91.38746513979425
 30
0.0
 11
231.5051100360794
 21
91.38746513979425
 31
0.0
  0
LINE
  5
629
330
2
100
AcDbEntity
  8
0
100
AcDbLine
 10
125.5051080360795
 20
151.8854361397942
 30
0.0
 11
231.5051100360794
 21
151.8854361397942
 31
0.0
  0
LINE
  5
62A
330
2
100
AcDbEntity
  8
0
100
AcDbLine
 10
125.5051080360795
 20
159.6364351397942
 30
0.0
 11
239.5051100360794
 21
159.6364351397942
 31
0.0
  0
LINE
  5
62B
330
2
100
AcDbEntity
  8
0
100
AcDbLine
 10
116.0051080360794
 20
91.38743513979425
 30
0.0
 11
125.5051080360795
 21
91.38743513979425
 31
0.0
  0
ARC
  5
62C
330
2
100
AcDbEntity
  8
0
100
AcDbCircle
 10
116.0051080360794
 20
144.2614351397942
 30
0.0
 40
4.5
100
AcDbArc
 50
0.0
 51
90.0
  0
ARC
  5
62D
330
2
100
AcDbEntity
  8
0
100
AcDbCircle
 10
116.0051080360794
 20
144.2614351397942
 30
0.0
 40
3.0
100
AcDbArc
 50
0.0
 51
90.0
  0
LINE
  5
62E
330
2
100
AcDbEntity
  8
HOJO
100
AcDbLine
 10
117.5075080360794
 20
140.0233361397942
 30
0.0
 11
119.0051080360795
 21
139.2246361397942
 31
0.0
  0
ARC
  5
62F
330
2
100
AcDbEntity
  8
0
100
AcDbCircle
 10
116.0051080360794
 20
144.2614351397942
 30
0.0
 40
1.5
100
AcDbArc
 50
0.0
 51
90.0
  0
LINE
  5
630
330
2
100
AcDbEntity
  8
0
100
AcDbLine
 10
117.5051080360794
 20
144.2614351397942
 30
0.0
 11
117.5051080360794
 21
140.0188361397942
 31
0.0
  0
LINE
  5
631
330
2
100
AcDbEntity
  8
HOJO
100
AcDbLine
 10
119.0051080360795
 20
140.2593361397942
 30
0.0
 11
120.5051080360795
 21
141.0385361397942
 31
0.0
  0
LINE
  5
632
330
2
100
AcDbEntity
  8
0
100
AcDbLine
 10
119.0051080360795
 20
144.2614351397942
 30
0.0
 11
119.0051080360795
 21
139.2246361397942
 31
0.0
  0
LINE
  5
633
330
2
100
AcDbEntity
  8
0
100
AcDbLine
 10
120.5051080360795
 20
144.2614351397942
 30
0.0
 11
120.5051080360795
 21
141.0385361397942
 31
0.0
  0
LINE
  5
634
330
2
100
AcDbEntity
  8
0
100
AcDbLine
 10
116.0051080360794
 20
151.8854361397942
 30
0.0
 11
125.5051080360795
 21
151.8854361397942
 31
0.0
  0
LINE
  5
63A
330
2
100
AcDbEntity
  8
0
100
AcDbLine
 10
116.0051080360794
 20
159.6364351397942
 30
0.0
 11
125.5051080360795
 21
159.6364351397942
 31
0.0
  0
LINE
  5
640
330
2
100
AcDbEntity
  8
0
100
AcDbLine
 10
125.5052300360795
 20
271.9579138554057
 30
0.0
 11
125.5052300360795
 21
284.9578918554057
 31
0.0
  0
LINE
  5
641
330
2
100
AcDbEntity
  8
0
100
AcDbLine
 10
116.0051080360794
 20
271.9578918554057
 30
0.0
 11
125.5052300360795
 21
271.9578918554057
 31
0.0
  0
LINE
  5
642
330
2
100
AcDbEntity
  8
HOJO
100
AcDbLine
 10
117.5075080360795
 20
273.9438538554057
 30
0.0
 11
119.0051080360794
 21
273.1451548554057
 31
0.0
  0
ARC
  5
643
330
2
100
AcDbEntity
  8
0
100
AcDbCircle
 10
116.0051080360794
 20
278.1819518554057
 30
0.0
 40
4.5
100
AcDbArc
 50
0.0
 51
90.0
  0
ARC
  5
644
330
2
100
AcDbEntity
  8
0
100
AcDbCircle
 10
116.0051080360794
 20
278.1819518554057
 30
0.0
 40
3.0
100
AcDbArc
 50
0.0
 51
90.0
  0
ARC
  5
645
330
2
100
AcDbEntity
  8
0
100
AcDbCircle
 10
116.0051080360794
 20
278.1819518554057
 30
0.0
 40
1.5
100
AcDbArc
 50
0.0
 51
90.0
  0
LINE
  5
646
330
2
100
AcDbEntity
  8
0
100
AcDbLine
 10
117.5051080360794
 20
278.1819518554057
 30
0.0
 11
117.5051080360794
 21
273.9393518554057
 31
0.0
  0
LINE
  5
647
330
2
100
AcDbEntity
  8
0
100
AcDbLine
 10
120.5051080360795
 20
278.1819518554057
 30
0.0
 11
120.5051080360795
 21
274.9590508554057
 31
0.0
  0
LINE
  5
648
330
2
100
AcDbEntity
  8
0
100
AcDbLine
 10
119.0051080360794
 20
278.1819518554057
 30
0.0
 11
119.0051080360794
 21
273.1451548554057
 31
0.0
  0
LINE
  5
649
330
2
100
AcDbEntity
  8
HOJO
100
AcDbLine
 10
119.0051080360794
 20
274.1798538554057
 30
0.0
 11
120.5051080360795
 21
274.9590508554057
 31
0.0
  0
LINE
  5
64F
330
2
100
AcDbEntity
  8
0
100
AcDbLine
 10
116.5051010360795
 20
286.9578918554057
 30
0.0
 11
116.0051080360794
 21
286.9578918554057
 31
0.0
  0
LINE
  5
659
330
2
100
AcDbEntity
  8
CENTER
100
AcDbLine
 10
211.8888080360795
 20
132.6364361397942
 30
0.0
 11
274.5395110360794
 21
132.6364361397942
 31
0.0
  0
LINE
  5
65A
330
2
100
AcDbEntity
  8
0
100
AcDbLine
 10
243.0051100360794
 20
149.1364351397942
 30
0.0
 11
243.0051100360794
 21
116.1364361397942
 31
0.0
  0
ARC
  5
65B
330
2
100
AcDbEntity
  8
0
100
AcDbCircle
 10
249.0051100360795
 20
132.6364361397942
 30
0.0
 40
2.0
100
AcDbArc
 50
90.0
 51
180.0
  0
LINE
  5
65C
330
2
100
AcDbEntity
  8
0
100
AcDbLine
 10
245.0051100360794
 20
140.1364361397942
 30
0.0
 11
245.0051100360794
 21
125.1364361397942
 31
0.0
  0
LINE
  5
65D
330
2
100
AcDbEntity
  8
0
100
AcDbLine
 10
267.0051030360795
 20
126.6364361397942
 30
0.0
 11
267.0051030360795
 21
138.6364361397942
 31
0.0
  0
LINE
  5
65E
330
2
100
AcDbEntity
  8
0
100
AcDbLine
 10
242.0051100360794
 20
115.1364361397942
 30
0.0
 11
239.5051100360794
 21
115.1364361397942
 31
0.0
  0
LINE
  5
65F
330
2
100
AcDbEntity
  8
CENTER
100
AcDbLine
 10
228.2551100360795
 20
89.63643513979425
 30
0.0
 11
244.0051100360794
 21
89.63643513979425
 31
0.0
  0
LINE
  5
660
330
2
100
AcDbEntity
  8
HIDS
  6
SEKKEI_H
100
AcDbLine
 10
231.5051100360794
 20
92.88643513979424
 30
0.0
 11
239.5051100360794
 21
92.88643513979424
 31
0.0
  0
LINE
  5
661
330
2
100
AcDbEntity
  8
0
100
AcDbLine
 10
249.0051100360795
 20
130.6364361397942
 30
0.0
 11
267.0051030360795
 21
130.6364361397942
 31
0.0
  0
LINE
  5
662
330
2
100
AcDbEntity
  8
0
100
AcDbLine
 10
249.0051100360795
 20
134.6364361397942
 30
0.0
 11
267.0051030360795
 21
134.6364361397942
 31
0.0
  0
LINE
  5
663
330
2
100
AcDbEntity
  8
0
100
AcDbLine
 10
245.0051100360794
 20
126.6364361397942
 30
0.0
 11
267.0051030360795
 21
126.6364361397942
 31
0.0
  0
ARC
  5
664
330
2
100
AcDbEntity
  8
0
100
AcDbCircle
 10
242.0051100360794
 20
116.1364361397942
 30
0.0
 40
1.0
100
AcDbArc
 50
270.0
 51
0.0
  0
ARC
  5
665
330
2
100
AcDbEntity
  8
0
100
AcDbCircle
 10
249.0051100360795
 20
132.6364361397942
 30
0.0
 40
2.0
100
AcDbArc
 50
180.0
 51
270.0
  0
LINE
  5
666
330
2
100
AcDbEntity
  8
0
100
AcDbLine
 10
245.0051100360794
 20
125.1364361397942
 30
0.0
 11
243.0051100360794
 21
125.1364361397942
 31
0.0
  0
LINE
  5
667
330
2
100
AcDbEntity
  8
0
100
AcDbLine
 10
242.0051100360794
 20
150.1364351397942
 30
0.0
 11
239.5051100360794
 21
150.1364351397942
 31
0.0
  0
LINE
  5
668
330
2
100
AcDbEntity
  8
CENTER
100
AcDbLine
 10
226.5051100360794
 20
153.6364351397942
 30
0.0
 11
243.2551100360794
 21
153.6364351397942
 31
0.0
  0
ARC
  5
669
330
2
100
AcDbEntity
  8
0
100
AcDbCircle
 10
233.5051100360794
 20
157.6364351397942
 30
0.0
 40
2.0
100
AcDbArc
 50
90.0
 51
180.0
  0
LINE
  5
66A
330
2
100
AcDbEntity
  8
HIDS
  6
SEKKEI_H
100
AcDbLine
 10
231.5051100360794
 20
150.3864351397942
 30
0.0
 11
239.5051100360794
 21
150.3864351397942
 31
0.0
  0
LINE
  5
66B
330
2
100
AcDbEntity
  8
HIDS
  6
SEKKEI_H
100
AcDbLine
 10
231.5051100360794
 20
156.8864351397942
 30
0.0
 11
239.5051100360794
 21
156.8864351397942
 31
0.0
  0
LINE
  5
66C
330
2
100
AcDbEntity
  8
0
100
AcDbLine
 10
245.0051100360794
 20
138.6364361397942
 30
0.0
 11
267.0051030360795
 21
138.6364361397942
 31
0.0
  0
LINE
  5
66D
330
2
100
AcDbEntity
  8
0
100
AcDbLine
 10
245.0051100360794
 20
140.1364361397942
 30
0.0
 11
243.0051100360794
 21
140.1364361397942
 31
0.0
  0
ARC
  5
66E
330
2
100
AcDbEntity
  8
0
100
AcDbCircle
 10
242.0051100360794
 20
149.1364351397942
 30
0.0
 40
1.0
100
AcDbArc
 50
0.0
 51
90.0
  0
LINE
  5
66F
330
2
100
AcDbEntity
  8
0
100
AcDbLine
 10
364.4207964476807
 20
99.70754713979424
 30
0.0
 11
364.4207964476807
 21
144.6364351397942
 31
0.0
  0
LINE
  5
670
330
2
100
AcDbEntity
  8
0
100
AcDbLine
 10
370.4207964476808
 20
133.4686361397942
 30
0.0
 11
370.4207964476808
 21
109.8042761397942
 31
0.0
  0
ARC
  5
671
330
2
100
AcDbEntity
  8
0
100
AcDbCircle
 10
369.4207964476808
 20
99.70754713979424
 30
0.0
 40
5.0
100
AcDbArc
 50
180.0
 51
224.9983979999999
  0
LINE
  5
672
330
2
100
AcDbEntity
  8
0
100
AcDbLine
 10
365.8851664476807
 20
96.17211013979424
 30
0.0
 11
366.4207964476807
 21
95.63644713979424
 31
0.0
  0
LINE
  5
673
330
2
100
AcDbEntity
  8
CENTER
100
AcDbLine
 10
372.4207964476808
 20
158.4489351397942
 30
0.0
 11
372.4207964476808
 21
147.9489351397942
 31
0.0
  0
ARC
  5
674
330
2
100
AcDbEntity
  8
0
100
AcDbCircle
 10
370.4207964476808
 20
155.0422371397942
 30
0.0
 40
4.0
100
AcDbArc
 50
91.00064099999967
 51
180.0
  0
ARC
  5
675
330
2
100
AcDbEntity
  8
0
100
AcDbCircle
 10
367.4207964476808
 20
144.6364351397942
 30
0.0
 40
3.0
100
AcDbArc
 50
109.471603
 51
180.0
  0
LINE
  5
676
330
2
100
AcDbEntity
  8
0
100
AcDbLine
 10
366.4207964476807
 20
145.2491371397942
 30
0.0
 11
366.4207964476807
 21
155.0422371397942
 31
0.0
  0
CIRCLE
  5
677
330
2
100
AcDbEntity
  8
0
100
AcDbCircle
 10
372.4207964476808
 20
153.6364351397942
 30
0.0
 40
3.25
  0
LINE
  5
678
330
2
100
AcDbEntity
  8
0
100
AcDbLine
 10
231.5052320360795
 20
286.9578918554057
 30
0.0
 11
231.5052320360795
 21
273.9578918554057
 31
0.0
  0
LINE
  5
679
330
2
100
AcDbEntity
  8
CENTER
100
AcDbLine
 10
228.2551100360795
 20
277.9578918554057
 30
0.0
 11
244.0051100360794
 21
277.9578918554057
 31
0.0
  0
ARC
  5
67A
330
2
100
AcDbEntity
  8
0
100
AcDbCircle
 10
233.5052320360795
 20
273.9579138554057
 30
0.0
 40
2.0
100
AcDbArc
 50
180.0
 51
270.0
  0
LINE
  5
67B
330
2
100
AcDbEntity
  8
HIDS
  6
SEKKEI_H
100
AcDbLine
 10
231.5051100360794
 20
274.7078918554057
 30
0.0
 11
239.5051100360794
 21
274.7078918554057
 31
0.0
  0
LINE
  5
67C
330
2
100
AcDbEntity
  8
HIDS
  6
SEKKEI_H
100
AcDbLine
 10
231.5051100360794
 20
281.2078918554057
 30
0.0
 11
239.5051100360794
 21
281.2078918554057
 31
0.0
  0
LINE
  5
67D
330
2
100
AcDbEntity
  8
0
100
AcDbLine
 10
242.0051100360794
 20
292.4578918554057
 30
0.0
 11
239.5051100360794
 21
292.4578918554057
 31
0.0
  0
LINE
  5
67E
330
2
100
AcDbEntity
  8
0
100
AcDbLine
 10
242.0051100360794
 20
327.4578918554057
 30
0.0
 11
239.5051100360794
 21
327.4578918554057
 31
0.0
  0
LINE
  5
67F
330
2
100
AcDbEntity
  8
0
100
AcDbLine
 10
243.0051100360794
 20
293.4578918554057
 30
0.0
 11
243.0051100360794
 21
326.4578918554057
 31
0.0
  0
LINE
  5
680
330
2
100
AcDbEntity
  8
0
100
AcDbLine
 10
245.0051100360794
 20
317.4578918554057
 30
0.0
 11
245.0051100360794
 21
302.4578918554057
 31
0.0
  0
LINE
  5
681
330
2
100
AcDbEntity
  8
0
100
AcDbLine
 10
267.0051030360795
 20
302.4578918554057
 30
0.0
 11
267.0051030360795
 21
315.9578918554057
 31
0.0
  0
LINE
  5
682
330
2
100
AcDbEntity
  8
0
100
AcDbLine
 10
247.0051100360795
 20
304.3008938554057
 30
0.0
 11
267.0051030360795
 21
304.3008938554057
 31
0.0
  0
LINE
  5
683
330
2
100
AcDbEntity
  8
0
100
AcDbLine
 10
247.0051100360795
 20
302.4578918554057
 30
0.0
 11
267.0051030360795
 21
302.4578918554057
 31
0.0
  0
ARC
  5
684
330
2
100
AcDbEntity
  8
0
100
AcDbCircle
 10
242.0051100360794
 20
293.4578918554057
 30
0.0
 40
1.0
100
AcDbArc
 50
270.0
 51
0.0
  0
LINE
  5
685
330
2
100
AcDbEntity
  8
0
100
AcDbLine
 10
243.0051100360794
 20
302.4578918554057
 30
0.0
 11
245.0051100360794
 21
302.4578918554057
 31
0.0
  0
LINE
  5
686
330
2
100
AcDbEntity
  8
0
100
AcDbLine
 10
247.0051100360795
 20
304.3008938554057
 30
0.0
 11
247.0051100360795
 21
302.4578918554057
 31
0.0
  0
LINE
  5
687
330
2
100
AcDbEntity
  8
0
100
AcDbLine
 10
245.0051100360794
 20
303.9578918554057
 30
0.0
 11
247.0051100360795
 21
303.9578918554057
 31
0.0
  0
LINE
  5
688
330
2
100
AcDbEntity
  8
0
100
AcDbLine
 10
245.0051100360794
 20
315.9578918554057
 30
0.0
 11
267.0051030360795
 21
315.9578918554057
 31
0.0
  0
LINE
  5
689
330
2
100
AcDbEntity
  8
0
100
AcDbLine
 10
243.0051100360794
 20
317.4578918554057
 30
0.0
 11
245.0051100360794
 21
317.4578918554057
 31
0.0
  0
ARC
  5
68A
330
2
100
AcDbEntity
  8
0
100
AcDbCircle
 10
242.0051100360794
 20
326.4578918554057
 30
0.0
 40
1.0
100
AcDbArc
 50
0.0
 51
90.0
  0
LINE
  5
68B
330
2
100
AcDbEntity
  8
0
100
AcDbLine
 10
69.50510603607949
 20
333.9578918554057
 30
0.0
 11
116.0051080360794
 21
333.9578918554057
 31
0.0
  0
LINE
  5
68C
330
2
100
AcDbEntity
  8
0
100
AcDbLine
 10
72.00510603607949
 20
349.9578918554057
 30
0.0
 11
116.0051080360794
 21
349.9578918554057
 31
0.0
  0
ARC
  5
68D
330
2
100
AcDbEntity
  8
0
100
AcDbCircle
 10
72.00510603607949
 20
344.9578918554057
 30
0.0
 40
5.0
100
AcDbArc
 50
90.0
 51
180.0
  0
LINE
  5
68E
330
2
100
AcDbEntity
  8
0
100
AcDbLine
 10
166.5050010360795
 20
332.9578918554057
 30
0.0
 11
231.5052320360795
 21
332.9578918554057
 31
0.0
  0
LINE
  5
68F
330
2
100
AcDbEntity
  8
0
100
AcDbLine
 10
125.5052300360795
 20
347.9578758554057
 30
0.0
 11
239.5052320360795
 21
347.9578758554057
 31
0.0
  0
LINE
  5
690
330
2
100
AcDbEntity
  8
0
100
AcDbLine
 10
116.5051010360795
 20
332.9578918554057
 30
0.0
 11
116.0051080360794
 21
332.9578918554057
 31
0.0
  0
LINE
  5
691
330
2
100
AcDbEntity
  8
0
100
AcDbLine
 10
116.0051080360794
 20
347.9578918554057
 30
0.0
 11
125.5052300360795
 21
347.9578918554057
 31
0.0
  0
LINE
  5
692
330
2
100
AcDbEntity
  8
CENTER
100
AcDbLine
 10
226.5051100360794
 20
341.9578918554057
 30
0.0
 11
243.2551100360794
 21
341.9578918554057
 31
0.0
  0
LINE
  5
693
330
2
100
AcDbEntity
  8
0
100
AcDbLine
 10
231.5052320360795
 20
345.9578758554057
 30
0.0
 11
231.5052320360795
 21
332.9578918554057
 31
0.0
  0
LINE
  5
694
330
2
100
AcDbEntity
  8
HIDS
  6
SEKKEI_H
100
AcDbLine
 10
231.5051100360794
 20
338.7078918554057
 30
0.0
 11
239.5051100360794
 21
338.7078918554057
 31
0.0
  0
LINE
  5
695
330
2
100
AcDbEntity
  8
HIDS
  6
SEKKEI_H
100
AcDbLine
 10
231.5051100360794
 20
345.2078918554057
 30
0.0
 11
239.5051100360794
 21
345.2078918554057
 31
0.0
  0
ARC
  5
696
330
2
100
AcDbEntity
  8
0
100
AcDbCircle
 10
233.5052320360795
 20
345.9578918554057
 30
0.0
 40
2.0
100
AcDbArc
 50
90.0
 51
180.0
  0
CIRCLE
  5
697
330
2
100
AcDbEntity
  8
0
100
AcDbCircle
 10
436.4208114476808
 20
89.63643513979425
 30
0.0
 40
3.25
  0
LINE
  5
698
330
2
100
AcDbEntity
  8
CENTER
100
AcDbLine
 10
436.4208114476808
 20
84.82393513979424
 30
0.0
 11
436.4208114476808
 21
95.32393513979425
 31
0.0
  0
LINE
  5
699
330
2
100
AcDbEntity
  8
0
100
AcDbLine
 10
442.4208114476808
 20
88.23052513979424
 30
0.0
 11
442.4208114476808
 21
155.0423361397942
 31
0.0
  0
LINE
  5
69A
330
2
100
AcDbEntity
  8
CENTER
100
AcDbLine
 10
404.4207964476807
 20
75.69893513979424
 30
0.0
 11
404.4207964476807
 21
197.5239331397942
 31
0.0
  0
ARC
  5
69B
330
2
100
AcDbEntity
  8
0
100
AcDbCircle
 10
438.4208114476808
 20
88.23050613979424
 30
0.0
 40
4.0
100
AcDbArc
 50
271.000183
 51
0.0
  0
LINE
  5
69C
330
2
100
AcDbEntity
  8
0
100
AcDbLine
 10
382.4919014476808
 20
81.63643513979424
 30
0.0
 11
427.4208114476808
 21
81.63643513979424
 31
0.0
  0
LINE
  5
69D
330
2
100
AcDbEntity
  8
0
100
AcDbLine
 10
438.4906044476807
 20
84.23112713979424
 30
0.0
 11
404.4207964476807
 21
83.63643513979424
 31
0.0
  0
ARC
  5
69E
330
2
100
AcDbEntity
  8
0
100
AcDbCircle
 10
382.4919014476808
 20
86.63643513979424
 30
0.0
 40
5.0
100
AcDbArc
 50
224.9999999999997
 51
270.0
  0
LINE
  5
69F
330
2
100
AcDbEntity
  8
0
100
AcDbLine
 10
378.9563034476807
 20
83.10090513979424
 30
0.0
 11
377.9590044476807
 21
84.09821613979424
 31
0.0
  0
ARC
  5
6A0
330
2
100
AcDbEntity
  8
0
100
AcDbCircle
 10
427.4208114476808
 20
84.63642713979425
 30
0.0
 40
3.0
100
AcDbArc
 50
270.0
 51
349.4934999999999
  0
ARC
  5
6A1
330
2
100
AcDbEntity
  8
0
100
AcDbCircle
 10
438.4208114476808
 20
155.0423361397942
 30
0.0
 40
4.0
100
AcDbArc
 50
0.0
 51
89.00013700000005
  0
CIRCLE
  5
6A2
330
2
100
AcDbEntity
  8
0
100
AcDbCircle
 10
404.4207964476807
 20
132.6364361397942
 30
0.0
 40
17.5
  0
ARC
  5
6A3
330
2
100
AcDbEntity
  8
0
100
AcDbCircle
 10
404.4207964476807
 20
132.6364361397942
 30
0.0
 40
6.0
100
AcDbArc
 50
199.4712069999998
 51
160.5287930000001
  0
LINE
  5
6A4
330
2
100
AcDbEntity
  8
CENTER
100
AcDbLine
 10
384.1707964476808
 20
132.6364361397942
 30
0.0
 11
426.6708114476807
 21
132.6364361397942
 31
0.0
  0
LINE
  5
6A5
330
2
100
AcDbEntity
  8
0
100
AcDbLine
 10
398.4120064476807
 20
106.3483451397942
 30
0.0
 11
398.4120064476807
 21
105.1999061397942
 31
0.0
  0
LINE
  5
6A6
330
2
100
AcDbEntity
  8
0
100
AcDbLine
 10
398.4120064476807
 20
105.5280371397942
 30
0.0
 11
398.4120064476807
 21
106.1842871397942
 31
0.0
  0
LINE
  5
6A7
330
2
100
AcDbEntity
  8
0
100
AcDbLine
 10
394.8026014476807
 20
108.7305361397942
 30
0.0
 11
394.8026014476807
 21
104.1936561397942
 31
0.0
  0
LINE
  5
6A8
330
2
100
AcDbEntity
  8
0
100
AcDbLine
 10
393.9207964476807
 20
109.2909671397942
 30
0.0
 11
393.9207964476807
 21
103.6583161397942
 31
0.0
  0
LINE
  5
6A9
330
2
100
AcDbEntity
  8
0
100
AcDbLine
 10
399.1707964476808
 20
107.2096751397942
 30
0.0
 11
399.1707964476808
 21
102.6364351397942
 31
0.0
  0
LINE
  5
6AA
330
2
100
AcDbEntity
  8
0
100
AcDbLine
 10
394.9335984476808
 20
102.6364351397942
 30
0.0
 11
397.6638074476808
 21
102.6364351397942
 31
0.0
  0
ARC
  5
6AB
330
2
100
AcDbEntity
  8
0
100
AcDbCircle
 10
396.7713974476808
 20
105.1999061397942
 30
0.0
 40
1.640625
100
AcDbArc
 50
270.0002139999998
 51
0.0001089999998967
  0
LINE
  5
6AC
330
2
100
AcDbEntity
  8
0
100
AcDbLine
 10
396.7713974476808
 20
103.5592871397942
 30
0.0
 11
395.4048964476808
 21
103.5592871397942
 31
0.0
  0
LINE
  5
6AD
330
2
100
AcDbEntity
  8
0
100
AcDbLine
 10
393.9207964476807
 20
103.6583161397942
 30
0.0
 11
394.9335984476808
 21
102.6364351397942
 31
0.0
  0
LINE
  5
6AE
330
2
100
AcDbEntity
  8
0
100
AcDbLine
 10
394.8026014476807
 20
104.1936561397942
 30
0.0
 11
395.4048964476808
 21
103.5592871397942
 31
0.0
  0
LINE
  5
6AF
330
2
100
AcDbEntity
  8
0
100
AcDbLine
 10
398.4120064476807
 20
103.2641851397942
 30
0.0
 11
397.6638074476808
 21
102.6364351397942
 31
0.0
  0
LINE
  5
6B0
330
2
100
AcDbEntity
  8
0
100
AcDbLine
 10
398.4120064476807
 20
102.6364351397942
 30
0.0
 11
399.1707964476808
 21
102.6364351397942
 31
0.0
  0
LINE
  5
6B1
330
2
100
AcDbEntity
  8
0
100
AcDbLine
 10
398.4120064476807
 20
103.2641851397942
 30
0.0
 11
398.4120064476807
 21
102.6364351397942
 31
0.0
  0
LINE
  5
6B2
330
2
100
AcDbEntity
  8
0
100
AcDbLine
 10
397.0379984476808
 20
107.2096751397942
 30
0.0
 11
399.1707964476808
 21
107.2096751397942
 31
0.0
  0
LINE
  5
6B3
330
2
100
AcDbEntity
  8
0
100
AcDbLine
 10
398.4120064476807
 20
106.3483451397942
 30
0.0
 11
397.0379984476808
 21
106.3483451397942
 31
0.0
  0
LINE
  5
6B4
330
2
100
AcDbEntity
  8
0
100
AcDbLine
 10
394.8739054476808
 20
110.5114361397942
 30
0.0
 11
398.4041024476807
 21
110.5114361397942
 31
0.0
  0
LINE
  5
6B5
330
2
100
AcDbEntity
  8
0
100
AcDbLine
 10
397.9252054476808
 20
109.4655361397942
 30
0.0
 11
395.3954054476808
 21
109.4655361397942
 31
0.0
  0
LINE
  5
6B6
330
2
100
AcDbEntity
  8
0
100
AcDbLine
 10
397.0379984476808
 20
107.2096751397942
 30
0.0
 11
397.0379984476808
 21
106.3483451397942
 31
0.0
  0
LINE
  5
6B7
330
2
100
AcDbEntity
  8
0
100
AcDbLine
 10
394.8739054476808
 20
110.5114361397942
 30
0.0
 11
393.9207964476807
 21
109.2909671397942
 31
0.0
  0
LINE
  5
6B8
330
2
100
AcDbEntity
  8
0
100
AcDbLine
 10
395.3954054476808
 20
109.4655361397942
 30
0.0
 11
394.8026014476807
 21
108.7305361397942
 31
0.0
  0
LINE
  5
6B9
330
2
100
AcDbEntity
  8
0
100
AcDbLine
 10
398.4120064476807
 20
108.9949371397942
 30
0.0
 11
398.4120064476807
 21
108.8708061397942
 31
0.0
  0
LINE
  5
6BA
330
2
100
AcDbEntity
  8
0
100
AcDbLine
 10
399.1707964476808
 20
109.6606161397942
 30
0.0
 11
399.1707964476808
 21
108.8708061397942
 31
0.0
  0
LINE
  5
6BB
330
2
100
AcDbEntity
  8
0
100
AcDbLine
 10
398.4120064476807
 20
108.8708061397942
 30
0.0
 11
399.1707964476808
 21
108.8708061397942
 31
0.0
  0
LINE
  5
6BC
330
2
100
AcDbEntity
  8
0
100
AcDbLine
 10
398.4041024476807
 20
110.5114361397942
 30
0.0
 11
399.1707964476808
 21
109.6606161397942
 31
0.0
  0
LINE
  5
6BD
330
2
100
AcDbEntity
  8
0
100
AcDbLine
 10
398.4120064476807
 20
108.9949371397942
 30
0.0
 11
397.9153024476808
 21
109.4655361397942
 31
0.0
  0
LINE
  5
6BE
330
2
100
AcDbEntity
  8
0
100
AcDbLine
 10
404.8925064476807
 20
109.5475661397942
 30
0.0
 11
404.8925064476807
 21
103.4977651397942
 31
0.0
  0
LINE
  5
6BF
330
2
100
AcDbEntity
  8
0
100
AcDbLine
 10
403.9081004476807
 20
109.5475661397942
 30
0.0
 11
403.9081004476807
 21
103.4977651397942
 31
0.0
  0
LINE
  5
6C0
330
2
100
AcDbEntity
  8
0
100
AcDbLine
 10
403.5184984476808
 20
103.4977651397942
 30
0.0
 11
403.9081004476807
 21
103.4977651397942
 31
0.0
  0
LINE
  5
6C1
330
2
100
AcDbEntity
  8
0
100
AcDbLine
 10
403.5184984476808
 20
102.6364351397942
 30
0.0
 11
405.2206004476808
 21
102.6364351397942
 31
0.0
  0
LINE
  5
6C2
330
2
100
AcDbEntity
  8
0
100
AcDbLine
 10
405.2206004476808
 20
103.4977651397942
 30
0.0
 11
405.2206004476808
 21
102.6364351397942
 31
0.0
  0
LINE
  5
6C3
330
2
100
AcDbEntity
  8
0
100
AcDbLine
 10
403.5184984476808
 20
103.4977651397942
 30
0.0
 11
403.5184984476808
 21
102.6364351397942
 31
0.0
  0
LINE
  5
6C4
330
2
100
AcDbEntity
  8
0
100
AcDbLine
 10
404.8925064476807
 20
103.4977651397942
 30
0.0
 11
405.2206004476808
 21
103.4977651397942
 31
0.0
  0
LINE
  5
6C5
330
2
100
AcDbEntity
  8
0
100
AcDbLine
 10
404.8925064476807
 20
109.5475661397942
 30
0.0
 11
406.2603954476807
 21
109.5475661397942
 31
0.0
  0
LINE
  5
6C6
330
2
100
AcDbEntity
  8
0
100
AcDbLine
 10
401.7957964476807
 20
110.5114361397942
 30
0.0
 11
407.0457964476807
 21
110.5114361397942
 31
0.0
  0
LINE
  5
6C7
330
2
100
AcDbEntity
  8
0
100
AcDbLine
 10
403.9081004476807
 20
109.5475661397942
 30
0.0
 11
402.6604964476808
 21
109.5475661397942
 31
0.0
  0
LINE
  5
6C8
330
2
100
AcDbEntity
  8
0
100
AcDbLine
 10
402.6604964476808
 20
109.5475661397942
 30
0.0
 11
402.3786054476808
 21
108.8708061397942
 31
0.0
  0
LINE
  5
6C9
330
2
100
AcDbEntity
  8
0
100
AcDbLine
 10
401.7957964476807
 20
108.8708061397942
 30
0.0
 11
402.3786054476808
 21
108.8708061397942
 31
0.0
  0
LINE
  5
6CA
330
2
100
AcDbEntity
  8
0
100
AcDbLine
 10
401.7957964476807
 20
108.8708061397942
 30
0.0
 11
401.7957964476807
 21
110.5114361397942
 31
0.0
  0
LINE
  5
6CB
330
2
100
AcDbEntity
  8
0
100
AcDbLine
 10
406.2603954476807
 20
109.5475661397942
 30
0.0
 11
406.4982034476807
 21
108.8708061397942
 31
0.0
  0
LINE
  5
6CC
330
2
100
AcDbEntity
  8
0
100
AcDbLine
 10
406.4982034476807
 20
108.8708061397942
 30
0.0
 11
407.0457964476807
 21
108.8708061397942
 31
0.0
  0
LINE
  5
6CD
330
2
100
AcDbEntity
  8
0
100
AcDbLine
 10
407.0457964476807
 20
108.8708061397942
 30
0.0
 11
407.0457964476807
 21
110.5114361397942
 31
0.0
  0
LINE
  5
6CE
330
2
100
AcDbEntity
  8
0
100
AcDbLine
 10
400.9207964476807
 20
130.6364361397942
 30
0.0
 11
396.9207964476808
 21
130.6364361397942
 31
0.0
  0
LINE
  5
6CF
330
2
100
AcDbEntity
  8
0
100
AcDbLine
 10
400.9207964476807
 20
134.6364361397942
 30
0.0
 11
396.9207964476808
 21
134.6364361397942
 31
0.0
  0
LINE
  5
6D0
330
2
100
AcDbEntity
  8
0
100
AcDbLine
 10
396.9207964476808
 20
134.6364361397942
 30
0.0
 11
396.9207964476808
 21
130.6364361397942
 31
0.0
  0
LINE
  5
6D1
330
2
100
AcDbEntity
  8
0
100
AcDbLine
 10
400.9207964476807
 20
130.6364361397942
 30
0.0
 11
400.9207964476807
 21
134.6364361397942
 31
0.0
  0
LINE
  5
6D2
330
2
100
AcDbEntity
  8
0
100
AcDbLine
 10
438.4208114476808
 20
133.4686361397942
 30
0.0
 11
438.4208114476808
 21
109.8042861397942
 31
0.0
  0
LINE
  5
6D3
330
2
100
AcDbEntity
  8
0
100
AcDbLine
 10
412.6431014476808
 20
106.3175861397942
 30
0.0
 11
413.8743944476807
 21
103.4567461397942
 31
0.0
  0
LINE
  5
6D4
330
2
100
AcDbEntity
  8
0
100
AcDbLine
 10
413.3988084476808
 20
106.3889451397942
 30
0.0
 11
414.6998024476808
 21
103.4567461397942
 31
0.0
  0
LINE
  5
6D5
330
2
100
AcDbEntity
  8
0
100
AcDbLine
 10
410.9628034476807
 20
106.3175861397942
 30
0.0
 11
410.9628034476807
 21
103.4567461397942
 31
0.0
  0
LINE
  5
6D6
330
2
100
AcDbEntity
  8
0
100
AcDbLine
 10
410.0603984476808
 20
109.5475661397942
 30
0.0
 11
410.0603984476808
 21
103.4567461397942
 31
0.0
  0
LINE
  5
6D7
330
2
100
AcDbEntity
  8
0
100
AcDbLine
 10
409.6707964476808
 20
103.4567461397942
 30
0.0
 11
409.6707964476808
 21
102.6364351397942
 31
0.0
  0
LINE
  5
6D8
330
2
100
AcDbEntity
  8
0
100
AcDbLine
 10
411.3217054476808
 20
103.4567461397942
 30
0.0
 11
411.3217054476808
 21
102.6364351397942
 31
0.0
  0
LINE
  5
6D9
330
2
100
AcDbEntity
  8
0
100
AcDbLine
 10
411.3217054476808
 20
102.6364351397942
 30
0.0
 11
409.6707964476808
 21
102.6364351397942
 31
0.0
  0
LINE
  5
6DA
330
2
100
AcDbEntity
  8
0
100
AcDbLine
 10
410.9628034476807
 20
103.4567461397942
 30
0.0
 11
411.3217054476808
 21
103.4567461397942
 31
0.0
  0
LINE
  5
6DB
330
2
100
AcDbEntity
  8
0
100
AcDbLine
 10
409.6707964476808
 20
103.4567461397942
 30
0.0
 11
410.0603984476808
 21
103.4567461397942
 31
0.0
  0
LINE
  5
6DC
330
2
100
AcDbEntity
  8
0
100
AcDbLine
 10
413.7108044476807
 20
103.4567461397942
 30
0.0
 11
413.7108044476807
 21
102.6364351397942
 31
0.0
  0
LINE
  5
6DD
330
2
100
AcDbEntity
  8
0
100
AcDbLine
 10
414.9207964476808
 20
103.4567461397942
 30
0.0
 11
414.9207964476808
 21
102.6364351397942
 31
0.0
  0
LINE
  5
6DE
330
2
100
AcDbEntity
  8
0
100
AcDbLine
 10
413.7108044476807
 20
102.6364351397942
 30
0.0
 11
414.9207964476808
 21
102.6364351397942
 31
0.0
  0
LINE
  5
6DF
330
2
100
AcDbEntity
  8
0
100
AcDbLine
 10
414.6998024476808
 20
103.4567461397942
 30
0.0
 11
414.9207964476808
 21
103.4567461397942
 31
0.0
  0
LINE
  5
6E0
330
2
100
AcDbEntity
  8
0
100
AcDbLine
 10
413.7108044476807
 20
103.4567461397942
 30
0.0
 11
413.8743944476807
 21
103.4567461397942
 31
0.0
  0
ARC
  5
6E1
330
2
100
AcDbEntity
  8
0
100
AcDbCircle
 10
412.8186994476807
 20
108.4093861397942
 30
0.0
 40
1.282395
100
AcDbArc
 50
277.4147260000003
 51
62.41184999999949
  0
ARC
  5
6E2
330
2
100
AcDbEntity
  8
0
100
AcDbCircle
 10
412.8186994476807
 20
108.4093861397942
 30
0.0
 40
2.102050999999999
100
AcDbArc
 50
286.0181269999995
 51
90.00350999999964
  0
LINE
  5
6E3
330
2
100
AcDbEntity
  8
0
100
AcDbLine
 10
410.9628034476807
 20
106.3175861397942
 30
0.0
 11
412.6431014476808
 21
106.3175861397942
 31
0.0
  0
LINE
  5
6E4
330
2
100
AcDbEntity
  8
0
100
AcDbLine
 10
410.9628034476807
 20
107.1377171397942
 30
0.0
 11
412.9841964476808
 21
107.1377171397942
 31
0.0
  0
LINE
  5
6E5
330
2
100
AcDbEntity
  8
0
100
AcDbLine
 10
410.9628034476807
 20
109.5475661397942
 30
0.0
 11
413.4127084476807
 21
109.5459761397942
 31
0.0
  0
LINE
  5
6E6
330
2
100
AcDbEntity
  8
0
100
AcDbLine
 10
409.6707964476808
 20
109.5475661397942
 30
0.0
 11
410.0603984476808
 21
109.5475661397942
 31
0.0
  0
LINE
  5
6E7
330
2
100
AcDbEntity
  8
0
100
AcDbLine
 10
410.9628034476807
 20
109.5475661397942
 30
0.0
 11
410.9628034476807
 21
107.1377171397942
 31
0.0
  0
LINE
  5
6E8
330
2
100
AcDbEntity
  8
0
100
AcDbLine
 10
409.6707964476808
 20
110.5114361397942
 30
0.0
 11
409.6707964476808
 21
109.5475661397942
 31
0.0
  0
LINE
  5
6E9
330
2
100
AcDbEntity
  8
0
100
AcDbLine
 10
409.6707964476808
 20
110.5114361397942
 30
0.0
 11
412.8186994476807
 21
110.5114361397942
 31
0.0
  0
LINE
  5
6EA
330
2
100
AcDbEntity
  8
CENTER
100
AcDbLine
 10
441.3270914476807
 20
89.63643513979425
 30
0.0
 11
430.5770914476807
 21
89.63643513979425
 31
0.0
  0
LINE
  5
6EC
330
2
100
AcDbEntity
  8
0
100
AcDbLine
 10
404.4207964476807
 20
159.6364351397942
 30
0.0
 11
438.4906044476807
 21
159.0417351397942
 31
0.0
  0
ARC
  5
6ED
330
2
100
AcDbEntity
  8
0
100
AcDbCircle
 10
381.4207964476807
 20
158.6364351397942
 30
0.0
 40
3.0
100
AcDbArc
 50
98.89579528650392
 51
169.4954069999998
  0
LINE
  5
6EE
330
2
100
AcDbEntity
  8
CENTER
100
AcDbLine
 10
436.4208114476808
 20
158.4489351397942
 30
0.0
 11
436.4208114476808
 21
147.9489351397942
 31
0.0
  0
CIRCLE
  5
6EF
330
2
100
AcDbEntity
  8
0
100
AcDbCircle
 10
436.4208114476808
 20
153.6364351397942
 30
0.0
 40
3.25
  0
LINE
  5
6F0
330
2
100
AcDbEntity
  8
CENTER
100
AcDbLine
 10
441.3270914476807
 20
153.6364351397942
 30
0.0
 11
430.5770914476807
 21
153.6364351397942
 31
0.0
  0
ARC
  5
6F1
330
2
100
AcDbEntity
  8
0
100
AcDbCircle
 10
426.3497964476808
 20
156.6364351397942
 30
0.0
 40
5.0
100
AcDbArc
 50
45.0001300000002
 51
74.00827623472082
  0
LINE
  5
6F2
330
2
100
AcDbEntity
  8
0
100
AcDbLine
 10
429.8852884476808
 20
160.1719351397942
 30
0.0
 11
430.8826944476808
 21
159.1745361397942
 31
0.0
  0
LINE
  5
6F3
330
2
100
AcDbEntity
  8
0
100
AcDbLine
 10
444.4208114476808
 20
98.63643513979425
 30
0.0
 11
444.4208114476808
 21
143.5653371397942
 31
0.0
  0
ARC
  5
6F4
330
2
100
AcDbEntity
  8
0
100
AcDbCircle
 10
441.4208114476807
 20
98.63642613979425
 30
0.0
 40
3.0
100
AcDbArc
 50
289.4714739999998
 51
0.0
  0
ARC
  5
6F5
330
2
100
AcDbEntity
  8
0
100
AcDbCircle
 10
439.4208114476808
 20
143.5653371397942
 30
0.0
 40
5.0
100
AcDbArc
 50
0.0
 51
45.00016000000012
  0
LINE
  5
6F6
330
2
100
AcDbEntity
  8
0
100
AcDbLine
 10
442.9563034476807
 20
147.1009361397942
 30
0.0
 11
442.4208114476808
 21
147.6364351397942
 31
0.0
  0
TEXT
  5
707
330
2
100
AcDbEntity
  8
TITLE
100
AcDbText
 10
409.4749184720396
 20
290.9220501307642
 30
0.0
 40
5.0
  1
GFMN-12-5~60-S40WT
100
AcDbText
  0
TEXT
  5
708
330
2
100
AcDbEntity
  8
TITLE
100
AcDbText
 10
297.4694948997736
 20
290.298262661815
 30
0.0
 40
5.0
  1
GFMN-12-5~60-T40WT
100
AcDbText
  0
TEXT
  5
709
330
2
100
AcDbEntity
  8
TITLE
100
AcDbText
 10
409.845819741153
 20
305.2272309016708
 30
0.0
 40
5.0
  1
GFMN-12-5~120-S25WT
100
AcDbText
  0
TEXT
  5
70A
330
2
100
AcDbEntity
  8
TITLE
100
AcDbText
 10
297.7918041650126
 20
305.2602376848867
 30
0.0
 40
5.0
  1
GFMN-12-5~120-T25WT
100
AcDbText
  0
TEXT
  5
70B
330
2
100
AcDbEntity
  8
TITLE
100
AcDbText
 10
409.5705029494372
 20
320.5323487883532
 30
0.0
 40
5.0
  1
GFMN-12-5~240-S15WT
100
AcDbText
  0
TEXT
  5
70C
330
2
100
AcDbEntity
  8
TITLE
100
AcDbText
 10
297.7918041650126
 20
321.3653955933651
 30
0.0
 40
5.0
  1
GFMN-12-5~240-T15WT
100
AcDbText
  0
LINE
  5
1571
330
2
100
AcDbEntity
  8
0
100
AcDbLine
 10
381.4207964476807
 20
161.1364351397942
 30
0.0
 11
427.4207814476808
 21
161.1364351397942
 31
0.0
  0
LINE
  5
1572
330
2
100
AcDbEntity
  8
0
100
AcDbLine
 10
379.4207964476807
 20
173.1364351397942
 30
0.0
 11
429.4207814476808
 21
173.1364351397942
 31
0.0
  0
LINE
  5
1573
330
2
100
AcDbEntity
  8
0
100
AcDbLine
 10
379.4207964476807
 20
163.1364351397942
 30
0.0
 11
429.4207814476808
 21
163.1364351397942
 31
0.0
  0
LINE
  5
1574
330
2
100
AcDbEntity
  8
0
100
AcDbLine
 10
380.4207964476808
 20
192.1364331397942
 30
0.0
 11
424.5828876316546
 21
192.1364331397942
 31
0.0
  0
LINE
  5
1575
330
2
100
AcDbEntity
  8
0
100
AcDbLine
 10
379.4207964476807
 20
191.1364331397942
 30
0.0
 11
421.9207814476808
 21
191.1364331397942
 31
0.0
  0
LINE
  5
1577
330
2
100
AcDbEntity
  8
CENTER
100
AcDbLine
 10
374.3771894664722
 20
182.6364331397942
 30
0.0
 11
434.4644034288893
 21
182.6364331397942
 31
0.0
  0
LINE
  5
15A2
330
2
100
AcDbEntity
  8
0
100
AcDbLine
 10
379.4207964476807
 20
191.1364331397942
 30
0.0
 11
379.4207964476807
 21
163.1364351397942
 31
0.0
  0
LINE
  5
15A3
330
2
100
AcDbEntity
  8
0
100
AcDbLine
 10
379.4207964476807
 20
163.1364351397942
 30
0.0
 11
381.4207964476807
 21
161.1364351397942
 31
0.0
  0
LINE
  5
15A4
330
2
100
AcDbEntity
  8
0
100
AcDbLine
 10
381.9207964476808
 20
161.1364351397942
 30
0.0
 11
381.9207964476807
 21
159.2436245023128
 31
0.0
  0
LINE
  5
15A5
330
2
100
AcDbEntity
  8
0
100
AcDbLine
 10
380.4207964476808
 20
192.1364331397942
 30
0.0
 11
379.4207964476807
 21
191.1364331397942
 31
0.0
  0
LINE
  5
15A6
330
2
100
AcDbEntity
  8
0
100
AcDbLine
 10
164.1052060360794
 20
286.3578858554057
 30
0.0
 11
124.0051010360795
 21
286.3578858554057
 31
0.0
  0
LINE
  5
15A7
330
2
100
AcDbEntity
  8
0
100
AcDbLine
 10
118.5051010360795
 20
284.9578918554057
 30
0.0
 11
164.5050010360794
 21
284.9578918554057
 31
0.0
  0
LINE
  5
15A9
330
2
100
AcDbEntity
  8
0
100
AcDbLine
 10
118.5051010360795
 20
334.9578918554057
 30
0.0
 11
164.5050010360795
 21
334.9578918554056
 31
0.0
  0
LINE
  5
15AA
330
2
100
AcDbEntity
  8
0
100
AcDbLine
 10
118.9051020360794
 20
333.5578828554057
 30
0.0
 11
159.0050010360795
 21
333.5578828554056
 31
0.0
  0
LINE
  5
15AB
330
2
100
AcDbEntity
  8
0
100
AcDbLine
 10
116.5051010360795
 20
332.9578918554057
 30
0.0
 11
116.5051010360795
 21
286.9578918554057
 31
0.0
  0
LINE
  5
15AC
330
2
100
AcDbEntity
  8
CENTER
100
AcDbLine
 10
141.5051080360794
 20
340.3471177995135
 30
0.0
 11
141.5051080360794
 21
279.2078918554057
 31
0.0
  0
LINE
  5
15AD
330
2
100
AcDbEntity
  8
0
100
AcDbLine
 10
117.9050950360795
 20
332.5578828554057
 30
0.0
 11
117.9051020360794
 21
292.4578918554057
 31
0.0
  0
ARC
  5
15AE
330
2
100
AcDbEntity
  8
0
100
AcDbCircle
 10
120.0051310360794
 20
288.4578918554057
 30
0.0
 40
4.0
100
AcDbArc
 50
0.0
 51
90.0
  0
ARC
  5
15AF
330
2
100
AcDbEntity
  8
0
100
AcDbCircle
 10
117.9754310360795
 20
290.4875918554056
 30
0.0
 40
1.742199999999999
100
AcDbArc
 50
269.9986903345002
 51
0.0013096654997424
  0
ARC
  5
15B0
330
2
100
AcDbEntity
  8
0
100
AcDbCircle
 10
117.9754310360795
 20
286.4281918554057
 30
0.0
 40
1.742199999999999
100
AcDbArc
 50
359.9986903345002
 51
90.00130966549322
  0
CIRCLE
  5
15B1
330
2
100
AcDbEntity
  8
0
100
AcDbCircle
 10
120.0051310360794
 20
288.4578918554057
 30
0.0
 40
3.500000000000028
  0
LINE
  5
15B2
330
2
100
AcDbEntity
  8
0
100
AcDbLine
 10
120.0051310360795
 20
292.4578918554057
 30
0.0
 11
116.5051310360795
 21
292.4578918554057
 31
0.0
  0
ARC
  5
15B3
330
2
100
AcDbEntity
  8
0
100
AcDbCircle
 10
120.0051310360794
 20
288.4578918554057
 30
0.0
 40
2.049999999999998
100
AcDbArc
 50
180.0
 51
188.0619600839816
  0
ARC
  5
15B4
330
2
100
AcDbEntity
  8
0
100
AcDbCircle
 10
120.0051310360794
 20
288.4578918554057
 30
0.0
 40
2.049999999999998
100
AcDbArc
 50
171.9380399160183
 51
180.0
  0
LINE
  5
15B5
330
2
100
AcDbEntity
  8
0
100
AcDbLine
 10
116.5051010360795
 20
286.9578918554057
 30
0.0
 11
118.5051010360795
 21
284.9578918554057
 31
0.0
  0
LINE
  5
15B6
330
2
100
AcDbEntity
  8
0
100
AcDbLine
 10
116.5051010360795
 20
286.9578918554057
 30
0.0
 11
118.5051010360795
 21
284.9578918554057
 31
0.0
  0
ARC
  5
15B7
330
2
100
AcDbEntity
  8
0
100
AcDbCircle
 10
122.0348310360795
 20
290.4875918554056
 30
0.0
 40
1.742199999999999
100
AcDbArc
 50
179.9986903345002
 51
270.0013096654932
  0
ARC
  5
15B8
330
2
100
AcDbEntity
  8
0
100
AcDbCircle
 10
120.0051310360794
 20
288.4578918554057
 30
0.0
 40
2.049999999999998
100
AcDbArc
 50
351.9380399160183
 51
0.0
  0
ARC
  5
15B9
330
2
100
AcDbEntity
  8
0
100
AcDbCircle
 10
122.0348310360795
 20
286.4281918554057
 30
0.0
 40
1.742199999999999
100
AcDbArc
 50
89.99869033450025
 51
180.0013096654997
  0
ARC
  5
15BA
330
2
100
AcDbEntity
  8
0
100
AcDbCircle
 10
120.0051310360794
 20
288.4578918554057
 30
0.0
 40
2.049999999999998
100
AcDbArc
 50
81.93803991601813
 51
90.0
  0
ARC
  5
15BB
330
2
100
AcDbEntity
  8
0
100
AcDbCircle
 10
120.0051310360794
 20
288.4578918554057
 30
0.0
 40
2.049999999999998
100
AcDbArc
 50
0.0
 51
8.061960083981649
  0
ARC
  5
15BC
330
2
100
AcDbEntity
  8
0
100
AcDbCircle
 10
120.0051310360794
 20
288.4578918554057
 30
0.0
 40
2.049999999999998
100
AcDbArc
 50
90.0
 51
98.06196008398188
  0
ARC
  5
15BD
330
2
100
AcDbEntity
  8
0
100
AcDbCircle
 10
120.0051310360794
 20
288.4578918554057
 30
0.0
 40
2.049999999999998
100
AcDbArc
 50
270.0
 51
278.0619600839818
  0
ARC
  5
15BE
330
2
100
AcDbEntity
  8
0
100
AcDbCircle
 10
120.0051310360794
 20
288.4578918554057
 30
0.0
 40
2.049999999999998
100
AcDbArc
 50
261.9380399160181
 51
270.0
  0
LINE
  5
15BF
330
2
100
AcDbEntity
  8
0
100
AcDbLine
 10
114.5051010360795
 20
304.4578918554057
 30
0.0
 11
111.0051010360795
 21
307.9578918554057
 31
0.0
  0
LINE
  5
15C0
330
2
100
AcDbEntity
  8
0
100
AcDbLine
 10
111.0051010360795
 20
311.9578918554057
 30
0.0
 11
114.5051010360795
 21
315.4578918554057
 31
0.0
  0
LINE
  5
15C1
330
2
100
AcDbEntity
  8
0
100
AcDbLine
 10
111.0051010360795
 20
311.9578918554057
 30
0.0
 11
111.0051010360795
 21
307.9578918554057
 31
0.0
  0
LINE
  5
15C2
330
2
100
AcDbEntity
  8
0
100
AcDbLine
 10
114.5051010360795
 20
303.4578918554057
 30
0.0
 11
114.5051010360795
 21
316.4578918554057
 31
0.0
  0
ARC
  5
15C3
330
2
100
AcDbEntity
  8
0
100
AcDbCircle
 10
115.5051010360794
 20
303.4578918554057
 30
0.0
 40
1.0
100
AcDbArc
 50
180.0
 51
270.0
  0
LINE
  5
15C4
330
2
100
AcDbEntity
  8
0
100
AcDbLine
 10
115.5051010360795
 20
302.4578918554057
 30
0.0
 11
116.5051010360795
 21
302.4578918554057
 31
0.0
  0
ARC
  5
15C5
330
2
100
AcDbEntity
  8
0
100
AcDbCircle
 10
115.5051160360794
 20
316.4578918554057
 30
0.0
 40
1.0
100
AcDbArc
 50
90.0
 51
180.0
  0
LINE
  5
15C6
330
2
100
AcDbEntity
  8
0
100
AcDbLine
 10
115.5051010360795
 20
317.4578918554057
 30
0.0
 11
116.5051010360795
 21
317.4578918554057
 31
0.0
  0
LINE
  5
15C7
330
2
100
AcDbEntity
  8
0
100
AcDbLine
 10
124.0051010360795
 20
288.4578918554057
 30
0.0
 11
124.0051010360795
 21
284.9580908554057
 31
0.0
  0
LINE
  5
15C8
330
2
100
AcDbEntity
  8
0
100
AcDbLine
 10
117.9050950360795
 20
332.5578828554057
 30
0.0
 11
118.9051020360794
 21
333.5578828554057
 31
0.0
  0
LINE
  5
15C9
330
2
100
AcDbEntity
  8
0
100
AcDbLine
 10
116.5051010360795
 20
332.9578918554057
 30
0.0
 11
118.5051010360795
 21
334.9578918554057
 31
0.0
  0
LINE
  5
15CA
330
2
100
AcDbEntity
  8
0
100
AcDbLine
 10
166.5050010360795
 20
332.9578918554056
 30
0.0
 11
166.5050010360794
 21
286.9578918554057
 31
0.0
  0
LINE
  5
15CB
330
2
100
AcDbEntity
  8
0
100
AcDbLine
 10
165.1052060360794
 20
287.3578858554057
 30
0.0
 11
165.1052060360794
 21
327.4578918554057
 31
0.0
  0
LINE
  5
15CC
330
2
100
AcDbEntity
  8
0
100
AcDbLine
 10
166.5052000360794
 20
286.9578918554057
 30
0.0
 11
164.5050010360794
 21
284.9578918554057
 31
0.0
  0
LINE
  5
15CD
330
2
100
AcDbEntity
  8
0
100
AcDbLine
 10
166.5050010360794
 20
286.9578918554057
 30
0.0
 11
164.5050010360794
 21
284.9578918554057
 31
0.0
  0
LINE
  5
15CE
330
2
100
AcDbEntity
  8
0
100
AcDbLine
 10
166.5050010360794
 20
286.9578918554057
 30
0.0
 11
164.5050010360794
 21
284.9578918554057
 31
0.0
  0
LINE
  5
15CF
330
2
100
AcDbEntity
  8
0
100
AcDbLine
 10
164.1052060360794
 20
286.3578858554057
 30
0.0
 11
165.1052060360794
 21
287.3578858554057
 31
0.0
  0
ARC
  5
15D0
330
2
100
AcDbEntity
  8
0
100
AcDbCircle
 10
160.9755000360795
 20
333.4875918554057
 30
0.0
 40
1.742199999999999
100
AcDbArc
 50
269.9986903345002
 51
0.0013096654997424
  0
ARC
  5
15D1
330
2
100
AcDbEntity
  8
0
100
AcDbCircle
 10
160.9755000360795
 20
329.4281918554057
 30
0.0
 40
1.742199999999999
100
AcDbArc
 50
359.9986903345002
 51
90.00130966549322
  0
CIRCLE
  5
15D2
330
2
100
AcDbEntity
  8
0
100
AcDbCircle
 10
163.0052000360795
 20
331.4578918554057
 30
0.0
 40
3.500000000000028
  0
ARC
  5
15D3
330
2
100
AcDbEntity
  8
0
100
AcDbCircle
 10
163.0052000360795
 20
331.4578918554057
 30
0.0
 40
4.0
100
AcDbArc
 50
180.0
 51
270.0
  0
LINE
  5
15D4
330
2
100
AcDbEntity
  8
0
100
AcDbLine
 10
159.0050010360795
 20
331.4578918554057
 30
0.0
 11
159.0050010360795
 21
334.9578918554056
 31
0.0
  0
ARC
  5
15D5
330
2
100
AcDbEntity
  8
0
100
AcDbCircle
 10
163.0052000360795
 20
331.4578918554057
 30
0.0
 40
2.049999999999998
100
AcDbArc
 50
180.0
 51
188.0619600839816
  0
ARC
  5
15D6
330
2
100
AcDbEntity
  8
0
100
AcDbCircle
 10
163.0052000360795
 20
331.4578918554057
 30
0.0
 40
2.049999999999998
100
AcDbArc
 50
171.9380399160183
 51
180.0
  0
ARC
  5
15D7
330
2
100
AcDbEntity
  8
0
100
AcDbCircle
 10
165.0349000360796
 20
333.4875918554057
 30
0.0
 40
1.742199999999999
100
AcDbArc
 50
179.9986903345002
 51
270.0013096654932
  0
ARC
  5
15D8
330
2
100
AcDbEntity
  8
0
100
AcDbCircle
 10
163.0052000360795
 20
331.4578918554057
 30
0.0
 40
2.049999999999998
100
AcDbArc
 50
351.9380399160183
 51
0.0
  0
ARC
  5
15D9
330
2
100
AcDbEntity
  8
0
100
AcDbCircle
 10
165.0349000360796
 20
329.4281918554057
 30
0.0
 40
1.742199999999999
100
AcDbArc
 50
89.99869033450025
 51
180.0013096654997
  0
ARC
  5
15DA
330
2
100
AcDbEntity
  8
0
100
AcDbCircle
 10
163.0052000360795
 20
331.4578918554057
 30
0.0
 40
2.049999999999998
100
AcDbArc
 50
0.0
 51
8.061960083981649
  0
ARC
  5
15DB
330
2
100
AcDbEntity
  8
0
100
AcDbCircle
 10
163.0052000360795
 20
331.4578918554057
 30
0.0
 40
2.049999999999998
100
AcDbArc
 50
270.0
 51
278.0619600839818
  0
ARC
  5
15DC
330
2
100
AcDbEntity
  8
0
100
AcDbCircle
 10
163.0052000360795
 20
331.4578918554057
 30
0.0
 40
2.049999999999998
100
AcDbArc
 50
261.9380399160181
 51
270.0
  0
LINE
  5
15DD
330
2
100
AcDbEntity
  8
0
100
AcDbLine
 10
163.0050010360795
 20
327.4578918554057
 30
0.0
 11
166.5050010360795
 21
327.4578918554057
 31
0.0
  0
ARC
  5
15DE
330
2
100
AcDbEntity
  8
0
100
AcDbCircle
 10
163.0052000360795
 20
331.4578918554057
 30
0.0
 40
2.049999999999998
100
AcDbArc
 50
81.93803991601813
 51
90.0
  0
ARC
  5
15DF
330
2
100
AcDbEntity
  8
0
100
AcDbCircle
 10
163.0052000360795
 20
331.4578918554057
 30
0.0
 40
2.049999999999998
100
AcDbArc
 50
90.0
 51
98.06196008398188
  0
LINE
  5
15E0
330
2
100
AcDbEntity
  8
0
100
AcDbLine
 10
164.5050010360795
 20
334.9578918554056
 30
0.0
 11
166.5050010360795
 21
332.9578918554056
 31
0.0
  0
LINE
  5
15E1
330
2
100
AcDbEntity
  8
0
100
AcDbLine
 10
166.5050010360795
 20
332.9578918554056
 30
0.0
 11
164.5050010360795
 21
334.9578918554056
 31
0.0
  0
ARC
  5
15E2
330
2
100
AcDbEntity
  8
0
100
AcDbCircle
 10
423.8137856940879
 20
190.6425458640405
 30
0.0
 40
1.3
100
AcDbArc
 50
105.880850008278
 51
174.9999999999999
  0
LINE
  5
15E3
330
2
100
AcDbEntity
  8
0
100
AcDbLine
 10
421.9207814476808
 20
189.6364331397942
 30
0.0
 11
429.4207814476808
 21
189.6364331397943
 31
0.0
  0
LINE
  5
15E5
330
2
100
AcDbEntity
  8
0
100
AcDbLine
 10
422.4207964476808
 20
189.6364331397943
 30
0.0
 11
422.5187325865687
 21
190.7558483296125
 31
0.0
  0
LINE
  5
15E6
330
2
100
AcDbEntity
  8
0
100
AcDbLine
 10
421.4207814476808
 20
192.1364331397942
 30
0.0
 11
421.9207814476808
 21
191.6364331397942
 31
0.0
  0
LINE
  5
15E7
330
2
100
AcDbEntity
  8
0
100
AcDbLine
 10
421.9207814476808
 20
189.6364331397942
 30
0.0
 11
421.9207814476808
 21
191.6364331397943
 31
0.0
  0
LINE
  5
15E8
330
2
100
AcDbEntity
  8
0
100
AcDbLine
 10
421.9207814476808
 20
191.6364331397942
 30
0.0
 11
422.9758190580604
 21
191.6364331397942
 31
0.0
  0
LINE
  5
15E9
330
2
100
AcDbEntity
  8
0
100
AcDbLine
 10
429.4207814476808
 20
191.1364331397942
 30
0.0
 11
429.4207814476808
 21
163.1364351397942
 31
0.0
  0
LINE
  5
15EA
330
2
100
AcDbEntity
  8
0
100
AcDbLine
 10
427.4207814476808
 20
161.1364351397942
 30
0.0
 11
429.4207814476808
 21
163.1364351397942
 31
0.0
  0
LINE
  5
15EB
330
2
100
AcDbEntity
  8
0
100
AcDbLine
 10
426.9207814476808
 20
161.1364351397942
 30
0.0
 11
426.9207814476808
 21
159.2436903060253
 31
0.0
  0
LINE
  5
15EC
330
2
100
AcDbEntity
  8
0
100
AcDbLine
 10
427.258705263707
 20
192.1364331397942
 30
0.0
 11
428.4207814476808
 21
192.1364331397942
 31
0.0
  0
ARC
  5
15ED
330
2
100
AcDbEntity
  8
0
100
AcDbCircle
 10
425.9207964476807
 20
183.2364331397942
 30
0.0
 40
9.0
100
AcDbArc
 50
74.11914999172198
 51
105.880850008278
  0
LINE
  5
15EE
330
2
100
AcDbEntity
  8
0
100
AcDbLine
 10
427.9505362708449
 20
191.7888746771718
 30
0.0
 11
427.9707964476808
 21
191.9998514226334
 31
0.0
  0
LINE
  5
15EF
330
2
100
AcDbEntity
  8
0
100
AcDbLine
 10
423.8910566245167
 20
191.7888746771718
 30
0.0
 11
423.8707964476808
 21
191.9998514226334
 31
0.0
  0
LINE
  5
15F0
330
2
100
AcDbEntity
  8
0
100
AcDbLine
 10
426.2082964481359
 20
190.7194331397942
 30
0.0
 11
425.6332964472258
 21
190.7194331397942
 31
0.0
  0
SPLINE
  5
15F1
330
2
100
AcDbEntity
  8
0
100
AcDbSpline
210
0.0
220
0.0
230
1.0
 70
     8
 71
     3
 72
    11
 73
     7
 74
     0
 42
0.0000000001
 43
0.0000000001
 40
0.0
 40
0.0
 40
0.0
 40
0.0
 40
0.4601364636755307
 40
1.04988694485363
 40
1.713742833862792
 40
2.320347933405154
 40
2.320347933405154
 40
2.320347933405154
 40
2.320347933405179
 10
426.2082964481359
 20
190.7194331397942
 30
0.0
 10
426.2307141052437
 20
190.8744565794741
 30
0.0
 10
426.2818641604771
 20
191.2281713973916
 30
0.0
 10
426.7177493220105
 20
191.6528990689933
 30
0.0
 10
427.322800037018
 20
191.8720862489591
 30
0.0
 10
427.7479846611938
 20
191.8030949493485
 30
0.0
 10
427.9505362708449
 20
191.7888746771718
 30
0.0
  0
SPLINE
  5
15F2
330
2
100
AcDbEntity
  8
0
100
AcDbSpline
210
0.0
220
0.0
230
1.0
 70
     8
 71
     3
 72
    11
 73
     7
 74
     0
 42
0.0000000001
 43
0.0000000001
 40
0.0
 40
0.0
 40
0.0
 40
0.0
 40
0.4601364636755307
 40
1.04988694485363
 40
1.713742833862792
 40
2.320347933405154
 40
2.320347933405154
 40
2.320347933405154
 40
2.320347933405179
 10
425.6332964472258
 20
190.7194331397942
 30
0.0
 10
425.6108787901179
 20
190.8744565794741
 30
0.0
 10
425.5597287348847
 20
191.2281713973916
 30
0.0
 10
425.1238435733511
 20
191.6528990689933
 30
0.0
 10
424.5187928583436
 20
191.8720862489591
 30
0.0
 10
424.0936082341678
 20
191.8030949493485
 30
0.0
 10
423.8910566245167
 20
191.7888746771718
 30
0.0
  0
LINE
  5
15F3
330
2
100
AcDbEntity
  8
0
100
AcDbLine
 10
429.4207964476807
 20
189.6364331397943
 30
0.0
 11
429.3228603087928
 21
190.7558483296125
 31
0.0
  0
ARC
  5
15F4
330
2
100
AcDbEntity
  8
0
100
AcDbCircle
 10
428.0278072012737
 20
190.6425458640405
 30
0.0
 40
1.3
100
AcDbArc
 50
5.000000000000026
 51
74.11914999172198
  0
LINE
  5
15F5
330
2
100
AcDbEntity
  8
0
100
AcDbLine
 10
428.4207814476808
 20
192.1364331397942
 30
0.0
 11
429.4207814476808
 21
191.1364331397942
 31
0.0
  0
LINE
  5
1637
330
2
100
AcDbEntity
  8
0
100
AcDbLine
 10
166.5051080360794
 20
191.1364331397942
 30
0.0
 11
166.5051080360794
 21
163.1364351397942
 31
0.0
  0
LINE
  5
1639
330
2
100
AcDbEntity
  8
0
100
AcDbLine
 10
114.5051160360794
 20
189.1364331397942
 30
0.0
 11
114.5051010360795
 21
173.1364351397942
 31
0.0
  0
LINE
  5
163A
330
2
100
AcDbEntity
  8
0
100
AcDbLine
 10
116.5051010360795
 20
191.1364331397942
 30
0.0
 11
116.5051010360795
 21
163.1364351397942
 31
0.0
  0
LINE
  5
163B
330
2
100
AcDbEntity
  8
CENTER
100
AcDbLine
 10
141.5051080360794
 20
156.4427341397942
 30
0.0
 11
141.5051080360794
 21
197.5239331397942
 31
0.0
  0
LINE
  5
163D
330
2
100
AcDbEntity
  8
0
100
AcDbLine
 10
116.5051010360795
 20
163.1364351397942
 30
0.0
 11
166.5051080360794
 21
163.1364351397942
 31
0.0
  0
LINE
  5
163E
330
2
100
AcDbEntity
  8
0
100
AcDbLine
 10
114.5051010360795
 20
173.1364351397942
 30
0.0
 11
166.5051080360794
 21
173.1364351397942
 31
0.0
  0
LINE
  5
163F
330
2
100
AcDbEntity
  8
0
100
AcDbLine
 10
118.0051010360795
 20
161.1364351397942
 30
0.0
 11
164.5051080360794
 21
161.1364351397942
 31
0.0
  0
LINE
  5
1640
330
2
100
AcDbEntity
  8
0
100
AcDbLine
 10
116.5051010360795
 20
163.1364351397942
 30
0.0
 11
118.5051010360795
 21
161.1364351397942
 31
0.0
  0
LINE
  5
1641
330
2
100
AcDbEntity
  8
0
100
AcDbLine
 10
118.0051010360795
 20
161.1364351397942
 30
0.0
 11
118.0051010360795
 21
159.6364351397942
 31
0.0
  0
LINE
  5
1642
330
2
100
AcDbEntity
  8
0
100
AcDbLine
 10
164.0051080360795
 20
161.1364351397942
 30
0.0
 11
164.0051080360795
 21
159.6364351397942
 31
0.0
  0
LINE
  5
1643
330
2
100
AcDbEntity
  8
0
100
AcDbLine
 10
164.5051080360794
 20
161.1364351397942
 30
0.0
 11
166.5051080360794
 21
163.1364351397942
 31
0.0
  0
LINE
  5
1644
330
2
100
AcDbEntity
  8
CENTER
100
AcDbLine
 10
108.5613520360794
 20
182.6364331397942
 30
0.0
 11
170.4574109998176
 21
182.6364331397942
 31
0.0
  0
LINE
  5
1645
330
2
100
AcDbEntity
  8
0
100
AcDbLine
 10
124.0051014646504
 20
191.1364331397942
 30
0.0
 11
166.5051150360795
 21
191.1364331397942
 31
0.0
  0
LINE
  5
1646
330
2
100
AcDbEntity
  8
0
100
AcDbLine
 10
121.343016852105
 20
192.1364331397942
 30
0.0
 11
165.5051080360794
 21
192.1364331397942
 31
0.0
  0
LINE
  5
1648
330
2
100
AcDbEntity
  8
0
100
AcDbLine
 10
124.0051014646504
 20
189.6364331397941
 30
0.0
 11
124.0051014646504
 21
191.6364331397941
 31
0.0
  0
SPLINE
  5
1649
330
2
100
AcDbEntity
  8
0
100
AcDbSpline
210
0.0
220
0.0
230
1.0
 70
     8
 71
     3
 72
    11
 73
     7
 74
     0
 42
0.0000000001
 43
0.0000000001
 40
0.0
 40
0.0
 40
0.0
 40
0.0
 40
0.4601364636755307
 40
1.04988694485363
 40
1.713742833862792
 40
2.320347933405154
 40
2.320347933405154
 40
2.320347933405154
 40
2.320347933405179
 10
120.2926080365346
 20
190.7194331397941
 30
0.0
 10
120.3150256936424
 20
190.874456579474
 30
0.0
 10
120.3661757488757
 20
191.2281713973915
 30
0.0
 10
120.8020609104094
 20
191.6528990689932
 30
0.0
 10
121.4071116254167
 20
191.872086248959
 30
0.0
 10
121.8322962495926
 20
191.8030949493484
 30
0.0
 10
122.0348478592436
 20
191.7888746771717
 30
0.0
  0
LINE
  5
164A
330
2
100
AcDbEntity
  8
0
100
AcDbLine
 10
116.5051010360795
 20
191.1364331397942
 30
0.0
 11
117.5051010360795
 21
192.1364331397942
 31
0.0
  0
LINE
  5
164B
330
2
100
AcDbEntity
  8
0
100
AcDbLine
 10
117.5051014646504
 20
192.1364331397941
 30
0.0
 11
116.5051010360795
 21
191.1364331397942
 31
0.0
  0
ARC
  5
164C
330
2
100
AcDbEntity
  8
0
100
AcDbCircle
 10
117.8980972824865
 20
190.6425458640404
 30
0.0
 40
1.3
100
AcDbArc
 50
105.880850008278
 51
174.9999999999999
  0
SPLINE
  5
164D
330
2
100
AcDbEntity
  8
0
100
AcDbSpline
210
0.0
220
0.0
230
1.0
 70
     8
 71
     3
 72
    11
 73
     7
 74
     0
 42
0.0000000001
 43
0.0000000001
 40
0.0
 40
0.0
 40
0.0
 40
0.0
 40
0.4601364636755307
 40
1.04988694485363
 40
1.713742833862792
 40
2.320347933405154
 40
2.320347933405154
 40
2.320347933405154
 40
2.320347933405179
 10
119.7176080356246
 20
190.7194331397941
 30
0.0
 10
119.6951903785167
 20
190.874456579474
 30
0.0
 10
119.6440403232834
 20
191.2281713973915
 30
0.0
 10
119.2081551617498
 20
191.6528990689932
 30
0.0
 10
118.6031044467424
 20
191.872086248959
 30
0.0
 10
118.1779198225665
 20
191.8030949493484
 30
0.0
 10
117.9753682129155
 20
191.7888746771717
 30
0.0
  0
ARC
  5
164E
330
2
100
AcDbEntity
  8
0
100
AcDbCircle
 10
122.1121187896724
 20
190.6425458640404
 30
0.0
 40
1.3
100
AcDbArc
 50
5.000000000000026
 51
74.11914999172198
  0
LINE
  5
164F
330
2
100
AcDbEntity
  8
0
100
AcDbLine
 10
116.5051080360796
 20
189.6364331397941
 30
0.0
 11
116.6030441749674
 21
190.7558483296124
 31
0.0
  0
LINE
  5
1650
330
2
100
AcDbEntity
  8
0
100
AcDbLine
 10
124.0051014646504
 20
189.6364331397941
 30
0.0
 11
116.5051014646504
 21
189.6364331397941
 31
0.0
  0
LINE
  5
1651
330
2
100
AcDbEntity
  8
0
100
AcDbLine
 10
111.0051160360794
 20
186.6364331397942
 30
0.0
 11
111.0051160360794
 21
178.6364331397942
 31
0.0
  0
LINE
  5
1652
330
2
100
AcDbEntity
  8
0
100
AcDbLine
 10
111.0051010360795
 20
178.6364331397942
 30
0.0
 11
114.5051010360795
 21
177.1364331397942
 31
0.0
  0
ARC
  5
1653
330
2
100
AcDbEntity
  8
0
100
AcDbCircle
 10
115.5051160360794
 20
189.1364331397942
 30
0.0
 40
1.0
100
AcDbArc
 50
90.0
 51
180.0
  0
LINE
  5
1654
330
2
100
AcDbEntity
  8
0
100
AcDbLine
 10
115.5051010360795
 20
190.1364331397942
 30
0.0
 11
116.5051010360795
 21
190.1364331397942
 31
0.0
  0
LINE
  5
1655
330
2
100
AcDbEntity
  8
0
100
AcDbLine
 10
111.0051160360794
 20
186.6364331397942
 30
0.0
 11
114.5051160360794
 21
188.1364331397942
 31
0.0
  0
LINE
  5
1656
330
2
100
AcDbEntity
  8
0
100
AcDbLine
 10
120.2926080365346
 20
190.7194331397941
 30
0.0
 11
119.7176080356246
 21
190.7194331397941
 31
0.0
  0
LINE
  5
1657
330
2
100
AcDbEntity
  8
0
100
AcDbLine
 10
123.5051080360795
 20
189.6364331397941
 30
0.0
 11
123.4071718971916
 21
190.7558483296124
 31
0.0
  0
LINE
  5
1658
330
2
100
AcDbEntity
  8
0
100
AcDbLine
 10
124.5051014646504
 20
192.1364331397941
 30
0.0
 11
124.0051014646504
 21
191.6364331397941
 31
0.0
  0
LINE
  5
1659
330
2
100
AcDbEntity
  8
0
100
AcDbLine
 10
122.0348478592436
 20
191.7888746771717
 30
0.0
 11
122.0551080360796
 21
191.9998514226333
 31
0.0
  0
LINE
  5
165A
330
2
100
AcDbEntity
  8
0
100
AcDbLine
 10
117.5051010360795
 20
192.1364331397942
 30
0.0
 11
118.6671992200541
 21
192.1364331397942
 31
0.0
  0
LINE
  5
165B
330
2
100
AcDbEntity
  8
0
100
AcDbLine
 10
117.9753682129155
 20
191.7888746771717
 30
0.0
 11
117.9551080360795
 21
191.9998514226333
 31
0.0
  0
ARC
  5
165C
330
2
100
AcDbEntity
  8
0
100
AcDbCircle
 10
120.0051080360795
 20
183.2364331397941
 30
0.0
 40
9.0
100
AcDbArc
 50
74.11914999172198
 51
105.880850008278
  0
LINE
  5
165D
330
2
100
AcDbEntity
  8
0
100
AcDbLine
 10
124.0051014646504
 20
191.6364331397941
 30
0.0
 11
122.9500854256997
 21
191.6364331397941
 31
0.0
  0
LINE
  5
165E
330
2
100
AcDbEntity
  8
0
100
AcDbLine
 10
165.5051150360795
 20
192.1364331397942
 30
0.0
 11
166.5051150360795
 21
191.1364331397942
 31
0.0
  0
LINE
  5
173A
330
2
100
AcDbEntity
  8
0
100
AcDbLine
 10
116.0051080360794
 20
317.4578918554057
 30
0.0
 11
116.0051080360794
 21
349.9578918554057
 31
0.0
  0
ENDSEC
  0
SECTION
  2
OBJECTS
  0
DICTIONARY
  5
7
330
0
100
AcDbDictionary
  3
ACAD_GROUP
350
75
  3
ACAD_LAYOUT
350
61
  3
ACAD_MLINESTYLE
350
76
  3
ACAD_PLOTSETTINGS
350
77
  3
ACAD_PLOTSTYLENAME
350
6
  3
ACADDIM
350
480
  3
ACDBHEADERROUNDTRIPXREC
350
17B8
  3
ACDBVARIABLEDICTIONARY
350
102
  3
DWGPROPS
350
3D2
  0
DICTIONARY
  5
17D9
330
2
100
AcDbDictionary
280
     1
  3
ACAD_LAYOUTSELFREF
360
17DA
  0
DICTIONARY
  5
17DB
330
17B2
100
AcDbDictionary
280
     1
  3
ACAD_LAYOUTSELFREF
360
17DC
  0
DICTIONARY
  5
75
102
{ACAD_REACTORS
330
7
102
}
330
7
100
AcDbDictionary
  0
DICTIONARY
  5
61
102
{ACAD_REACTORS
330
7
102
}
330
7
100
AcDbDictionary
  0
DICTIONARY
  5
76
102
{ACAD_REACTORS
330
7
102
}
330
7
100
AcDbDictionary
  3
STANDARD
350
78
  0
DICTIONARY
  5
77
102
{ACAD_REACTORS
330
7
102
}
330
7
100
AcDbDictionary
  0
ACDBDICTIONARYWDFLT
  5
6
102
{ACAD_REACTORS
330
7
102
}
330
7
100
AcDbDictionary
281
     1
  3
Normal
350
5
100
AcDbDictionaryWithDefault
340
5
  0
XRECORD
  5
480
102
{ACAD_REACTORS
330
7
102
}
330
7
100
AcDbXrecord
 90
   990106
  3

 60
     0
 61
     0
 62
     1
 63
     3
 64
     1
 65
     0
 66
     0
 67
     3
 68
     1
 69
     0
 70
     0
 71
     0
 72
     0
 40
0.0
170
     2
340
0
  0
DICTIONARY
  5
17B8
102
{ACAD_REACTORS
330
7
102
}
330
7
100
AcDbDictionary
  3
CEPSNTYPE
350
17C2
  3
DIMSTYLEDATA
350
17C6
  3
FINGERPRINTGUID
350
17C3
  3
HYPERLINKBASE
350
17BB
  3
INSUNITS
350
17C1
  3
LAYOUTDICT
350
17BD
  3
LWETCUNION
350
17C0
  3
PLOTSETDICT
350
17BE
  3
PLOTSTYLNAMDICT
350
17BF
  3
PSVPSCALE
350
17C5
  3
PUCSBASE
350
17C9
  3
PUCSORGBACK
350
17CF
  3
PUCSORGBOTTOM
350
17CB
  3
PUCSORGFRONT
350
17CE
  3
PUCSORGLEFT
350
17CC
  3
PUCSORGRIGHT
350
17CD
  3
PUCSORGTOP
350
17CA
  3
PUCSORTHOREF
350
17C7
  3
PUCSORTHOVIEW
350
17C8
  3
STYLESHEET
350
17BC
  3
TSTACKALIGN
350
17B9
  3
TSTACKSIZE
350
17BA
  3
UCSBASE
350
17D2
  3
UCSORGBACK
350
17D8
  3
UCSORGBOTTOM
350
17D4
  3
UCSORGFRONT
350
17D7
  3
UCSORGLEFT
350
17D5
  3
UCSORGRIGHT
350
17D6
  3
UCSORGTOP
350
17D3
  3
UCSORTHOREF
350
17D0
  3
UCSORTHOVIEW
350
17D1
  3
VERSIONGUID
350
17C4
  0
DICTIONARY
  5
102
102
{ACAD_REACTORS
330
7
102
}
330
7
100
AcDbDictionary
  3
DIMASSOC
350
103
  0
XRECORD
  5
3D2
102
{ACAD_REACTORS
330
7
102
}
330
7
100
AcDbXrecord
  1
DWGPROPS COOKIE
  2

  3

  4

  6

  7

  8

  9

300
=
301
=
302
=
303
=
304
=
305
=
306
=
307
=
308
=
309
=
 40
0.5353330671296296
 41
2452052.431989363
 42
2453406.550756377
  1

 90
        0
  0
XRECORD
  5
17DA
102
{ACAD_REACTORS
330
17D9
102
}
330
17D9
100
AcDbXrecord
340
2
  0
XRECORD
  5
17DC
102
{ACAD_REACTORS
330
17DB
102
}
330
17DB
100
AcDbXrecord
340
17B2
  0
MLINESTYLE
  5
78
102
{ACAD_REACTORS
330
76
102
}
330
76
100
AcDbMlineStyle
  2
STANDARD
 70
     0
  3

 62
     0
 51
90.0
 52
90.0
 71
     2
 49
0.5
 62
   256
  6
BYLAYER
 49
-0.5
 62
   256
  6
BYLAYER
  0
ACDBPLACEHOLDER
  5
5
102
{ACAD_REACTORS
330
6
102
}
330
6
100
AcDbPlaceHolder
280
     0
  0
XRECORD
  5
17C2
102
{ACAD_REACTORS
330
17B8
102
}
330
17B8
100
AcDbXrecord
 90
        0
  0
XRECORD
  5
17C6
102
{ACAD_REACTORS
330
17B8
102
}
330
17B8
100
AcDbXrecord
1000
DSTYLE
1002
{
1070
   179
 70
     2
1070
   277
 70
     6
1002
}
  0
XRECORD
  5
17C3
102
{ACAD_REACTORS
330
17B8
102
}
330
17B8
100
AcDbXrecord
  1
{6385560B-F4B1-4644-A7C2-A3E32AC3D232}
  0
XRECORD
  5
17BB
102
{ACAD_REACTORS
330
17B8
102
}
330
17B8
100
AcDbXrecord
  1

  0
XRECORD
  5
17C1
102
{ACAD_REACTORS
330
17B8
102
}
330
17B8
100
AcDbXrecord
 90
        0
  0
XRECORD
  5
17BD
102
{ACAD_REACTORS
330
17B8
102
}
330
17B8
100
AcDbXrecord
340
61
  0
XRECORD
  5
17C0
102
{ACAD_REACTORS
330
17B8
102
}
330
17B8
100
AcDbXrecord
 90
    10781
  0
XRECORD
  5
17BE
102
{ACAD_REACTORS
330
17B8
102
}
330
17B8
100
AcDbXrecord
340
77
  0
XRECORD
  5
17BF
102
{ACAD_REACTORS
330
17B8
102
}
330
17B8
100
AcDbXrecord
340
6
  0
XRECORD
  5
17C5
102
{ACAD_REACTORS
330
17B8
102
}
330
17B8
100
AcDbXrecord
 40
0.0
  0
XRECORD
  5
17C9
102
{ACAD_REACTORS
330
17B8
102
}
330
17B8
100
AcDbXrecord
340
0
  0
XRECORD
  5
17CF
102
{ACAD_REACTORS
330
17B8
102
}
330
17B8
100
AcDbXrecord
 10
0.0
 20
0.0
 30
0.0
  0
XRECORD
  5
17CB
102
{ACAD_REACTORS
330
17B8
102
}
330
17B8
100
AcDbXrecord
 10
0.0
 20
0.0
 30
0.0
  0
XRECORD
  5
17CE
102
{ACAD_REACTORS
330
17B8
102
}
330
17B8
100
AcDbXrecord
 10
0.0
 20
0.0
 30
0.0
  0
XRECORD
  5
17CC
102
{ACAD_REACTORS
330
17B8
102
}
330
17B8
100
AcDbXrecord
 10
0.0
 20
0.0
 30
0.0
  0
XRECORD
  5
17CD
102
{ACAD_REACTORS
330
17B8
102
}
330
17B8
100
AcDbXrecord
 10
0.0
 20
0.0
 30
0.0
  0
XRECORD
  5
17CA
102
{ACAD_REACTORS
330
17B8
102
}
330
17B8
100
AcDbXrecord
 10
0.0
 20
0.0
 30
0.0
  0
XRECORD
  5
17C7
102
{ACAD_REACTORS
330
17B8
102
}
330
17B8
100
AcDbXrecord
340
0
  0
XRECORD
  5
17C8
102
{ACAD_REACTORS
330
17B8
102
}
330
17B8
100
AcDbXrecord
 70
     0
  0
XRECORD
  5
17BC
102
{ACAD_REACTORS
330
17B8
102
}
330
17B8
100
AcDbXrecord
  1
Sekkei.ctb
  0
XRECORD
  5
17B9
102
{ACAD_REACTORS
330
17B8
102
}
330
17B8
100
AcDbXrecord
 90
        1
  0
XRECORD
  5
17BA
102
{ACAD_REACTORS
330
17B8
102
}
330
17B8
100
AcDbXrecord
 90
       70
  0
XRECORD
  5
17D2
102
{ACAD_REACTORS
330
17B8
102
}
330
17B8
100
AcDbXrecord
340
0
  0
XRECORD
  5
17D8
102
{ACAD_REACTORS
330
17B8
102
}
330
17B8
100
AcDbXrecord
 10
0.0
 20
0.0
 30
0.0
  0
XRECORD
  5
17D4
102
{ACAD_REACTORS
330
17B8
102
}
330
17B8
100
AcDbXrecord
 10
0.0
 20
0.0
 30
0.0
  0
XRECORD
  5
17D7
102
{ACAD_REACTORS
330
17B8
102
}
330
17B8
100
AcDbXrecord
 10
0.0
 20
0.0
 30
0.0
  0
XRECORD
  5
17D5
102
{ACAD_REACTORS
330
17B8
102
}
330
17B8
100
AcDbXrecord
 10
0.0
 20
0.0
 30
0.0
  0
XRECORD
  5
17D6
102
{ACAD_REACTORS
330
17B8
102
}
330
17B8
100
AcDbXrecord
 10
0.0
 20
0.0
 30
0.0
  0
XRECORD
  5
17D3
102
{ACAD_REACTORS
330
17B8
102
}
330
17B8
100
AcDbXrecord
 10
0.0
 20
0.0
 30
0.0
  0
XRECORD
  5
17D0
102
{ACAD_REACTORS
330
17B8
102
}
330
17B8
100
AcDbXrecord
340
0
  0
XRECORD
  5
17D1
102
{ACAD_REACTORS
330
17B8
102
}
330
17B8
100
AcDbXrecord
 70
     0
  0
XRECORD
  5
17C4
102
{ACAD_REACTORS
330
17B8
102
}
330
17B8
100
AcDbXrecord
  1
{7B173AD5-5C47-49FE-A297-51A8FF496397}
  0
DICTIONARYVAR
  5
103
102
{ACAD_REACTORS
330
102
102
}
330
102
100
DictionaryVariables
280
     0
  1
1
  0
ENDSEC
  0
EOF
