  0
SECTION
  2
HEADER
  9
$ACADVER
  1
AC1014
  9
$ACADMAINTVER
 70
     9
  9
$DWGCODEPAGE
  3
ANSI_932
  9
$INSBASE
 10
0.0
 20
0.0
 30
0.0
  9
$EXTMIN
 10
32.74375343610255
 20
59.57717200516561
 30
0.0
  9
$EXTMAX
 10
516.9162219262767
 20
380.8751961103626
 30
0.0
  9
$LIMMIN
 10
0.0
 20
0.0
  9
$LIMMAX
 10
297.0
 20
210.0
  9
$ORTHOMODE
 70
     1
  9
$REGENMODE
 70
     1
  9
$FILLMODE
 70
     1
  9
$QTEXTMODE
 70
     0
  9
$MIRRTEXT
 70
     0
  9
$DRAGMODE
 70
     2
  9
$LTSCALE
 40
2.0
  9
$OSMODE
 70
    37
  9
$ATTMODE
 70
     1
  9
$TEXTSIZE
 40
2.0
  9
$TRACEWID
 40
1.0
  9
$TEXTSTYLE
  7
STANDARD
  9
$CLAYER
  8
0
  9
$CELTYPE
  6
BYLAYER
  9
$CECOLOR
 62
   256
  9
$CELTSCALE
 40
1.0
  9
$DELOBJ
 70
     1
  9
$DISPSILH
 70
     0
  9
$DIMSCALE
 40
2.0
  9
$DIMASZ
 40
1.8
  9
$DIMEXO
 40
0.625
  9
$DIMDLI
 40
3.75
  9
$DIMRND
 40
0.0
  9
$DIMDLE
 40
0.0
  9
$DIMEXE
 40
0.8
  9
$DIMTP
 40
0.0
  9
$DIMTM
 40
0.0
  9
$DIMTXT
 40
1.8
  9
$DIMCEN
 40
2.5
  9
$DIMTSZ
 40
0.0
  9
$DIMTOL
 70
     0
  9
$DIMLIM
 70
     0
  9
$DIMTIH
 70
     0
  9
$DIMTOH
 70
     0
  9
$DIMSE1
 70
     0
  9
$DIMSE2
 70
     0
  9
$DIMTAD
 70
     1
  9
$DIMZIN
 70
     8
  9
$DIMBLK
  1

  9
$DIMASO
 70
     1
  9
$DIMSHO
 70
     1
  9
$DIMPOST
  1

  9
$DIMAPOST
  1

  9
$DIMALT
 70
     0
  9
$DIMALTD
 70
     4
  9
$DIMALTF
 40
0.0394
  9
$DIMLFAC
 40
1.0
  9
$DIMTOFL
 70
     1
  9
$DIMTVP
 40
0.0
  9
$DIMTIX
 70
     0
  9
$DIMSOXD
 70
     0
  9
$DIMSAH
 70
     0
  9
$DIMBLK1
  1

  9
$DIMBLK2
  1

  9
$DIMSTYLE
  2
STANDARD
  9
$DIMCLRD
 70
     0
  9
$DIMCLRE
 70
     0
  9
$DIMCLRT
 70
     0
  9
$DIMTFAC
 40
1.0
  9
$DIMGAP
 40
0.75
  9
$DIMJUST
 70
     0
  9
$DIMSD1
 70
     0
  9
$DIMSD2
 70
     0
  9
$DIMTOLJ
 70
     1
  9
$DIMTZIN
 70
     0
  9
$DIMALTZ
 70
     0
  9
$DIMALTTZ
 70
     0
  9
$DIMFIT
 70
     3
  9
$DIMUPT
 70
     0
  9
$DIMUNIT
 70
     8
  9
$DIMDEC
 70
     2
  9
$DIMTDEC
 70
     2
  9
$DIMALTU
 70
     8
  9
$DIMALTTD
 70
     4
  9
$DIMTXSTY
  7
STANDARD
  9
$DIMAUNIT
 70
     0
  9
$LUNITS
 70
     2
  9
$LUPREC
 70
     3
  9
$SKETCHINC
 40
1.0
  9
$FILLETRAD
 40
10.0
  9
$AUNITS
 70
     0
  9
$AUPREC
 70
     2
  9
$MENU
  1
.
  9
$ELEVATION
 40
0.0
  9
$PELEVATION
 40
0.0
  9
$THICKNESS
 40
0.0
  9
$LIMCHECK
 70
     0
  9
$BLIPMODE
 70
     0
  9
$CHAMFERA
 40
0.0
  9
$CHAMFERB
 40
0.0
  9
$CHAMFERC
 40
20.0
  9
$CHAMFERD
 40
0.0
  9
$SKPOLY
 70
     0
  9
$TDCREATE
 40
2453760.707138310
  9
$TDUPDATE
 40
2453832.507397639
  9
$TDINDWG
 40
0.6113295370
  9
$TDUSRTIMER
 40
0.6113295370
  9
$USRTIMER
 70
     1
  9
$ANGBASE
 50
0.0
  9
$ANGDIR
 70
     0
  9
$PDMODE
 70
     0
  9
$PDSIZE
 40
-10.0
  9
$PLINEWID
 40
0.0
  9
$COORDS
 70
     0
  9
$SPLFRAME
 70
     0
  9
$SPLINETYPE
 70
     6
  9
$SPLINESEGS
 70
     8
  9
$ATTDIA
 70
     0
  9
$ATTREQ
 70
     1
  9
$HANDLING
 70
-16383
  9
$HANDSEED
  5
1C3E
  9
$SURFTAB1
 70
     6
  9
$SURFTAB2
 70
     6
  9
$SURFTYPE
 70
     6
  9
$SURFU
 70
     6
  9
$SURFV
 70
     6
  9
$UCSNAME
  2

  9
$UCSORG
 10
0.0
 20
0.0
 30
0.0
  9
$UCSXDIR
 10
1.0
 20
0.0
 30
0.0
  9
$UCSYDIR
 10
0.0
 20
1.0
 30
0.0
  9
$PUCSNAME
  2

  9
$PUCSORG
 10
0.0
 20
0.0
 30
0.0
  9
$PUCSXDIR
 10
1.0
 20
0.0
 30
0.0
  9
$PUCSYDIR
 10
0.0
 20
1.0
 30
0.0
  9
$USERI1
 70
     0
  9
$USERI2
 70
     0
  9
$USERI3
 70
     0
  9
$USERI4
 70
     0
  9
$USERI5
 70
     0
  9
$USERR1
 40
0.0
  9
$USERR2
 40
0.0
  9
$USERR3
 40
0.0
  9
$USERR4
 40
0.0
  9
$USERR5
 40
0.0
  9
$WORLDVIEW
 70
     1
  9
$SHADEDGE
 70
     3
  9
$SHADEDIF
 70
    70
  9
$TILEMODE
 70
     1
  9
$MAXACTVP
 70
    48
  9
$PINSBASE
 10
0.0
 20
0.0
 30
0.0
  9
$PLIMCHECK
 70
     0
  9
$PEXTMIN
 10
3.0
 20
3.999999999999998
 30
0.0
  9
$PEXTMAX
 10
280.0
 20
194.0
 30
0.0
  9
$PLIMMIN
 10
-5.873748779296875
 20
-5.873749732971191
  9
$PLIMMAX
 10
291.05224609375
 20
204.0995779037475
  9
$UNITMODE
 70
     0
  9
$VISRETAIN
 70
     1
  9
$PLINEGEN
 70
     0
  9
$PSLTSCALE
 70
     0
  9
$TREEDEPTH
 70
  3020
  9
$PICKSTYLE
 70
     1
  9
$CMLSTYLE
  2
STANDARD
  9
$CMLJUST
 70
     0
  9
$CMLSCALE
 40
1.0
  9
$PROXYGRAPHICS
 70
     1
  9
$MEASUREMENT
 70
     0
  0
ENDSEC
  0
SECTION
  2
CLASSES
  0
CLASS
  1
DICTIONARYVAR
  2
AcDbDictionaryVar
  3
AutoCAD 2000
 90
        0
280
     0
281
     0
  0
CLASS
  1
ACDBDICTIONARYWDFLT
  2
AcDbDictionaryWithDefault
  3
AutoCAD 2000
 90
        0
280
     0
281
     0
  0
CLASS
  1
ACDBPLACEHOLDER
  2
AcDbPlaceHolder
  3
AutoCAD 2000
 90
        0
280
     0
281
     0
  0
CLASS
  1
LAYOUT
  2
AcDbLayout
  3
AutoCAD 2000
 90
        0
280
     0
281
     0
  0
CLASS
  1
LONG_TRANSACTION
  2
AcDbLongTransaction
  3
AutoCAD 2000
 90
        0
280
     0
281
     0
  0
CLASS
  1
LWPOLYLINE
  2
AcDbPolyline
  3
AutoCAD 2000
 90
        0
280
     0
281
     1
  0
CLASS
  1
HATCH
  2
AcDbHatch
  3
AutoCAD 2000
 90
        0
280
     0
281
     1
  0
CLASS
  1
XRECORD
  2
AcDbXrecord
  3
AutoCAD 2000
 90
        0
280
     0
281
     0
  0
ENDSEC
  0
SECTION
  2
TABLES
  0
TABLE
  2
VPORT
  5
6E
330
0
100
AcDbSymbolTable
 70
     2
  0
VPORT
  5
1C13
330
6E
100
AcDbSymbolTableRecord
100
AcDbViewportTableRecord
  2
*ACTIVE
 70
     0
 10
0.0
 20
0.0
 11
1.0
 21
1.0
 12
269.2837273311635
 22
203.5139110795176
 13
0.0
 23
0.0
 14
10.0
 24
10.0
 15
10.0
 25
10.0
 16
0.0
 26
0.0
 36
1.0
 17
0.0
 27
0.0
 37
0.0
 40
357.5100717444565
 41
1.566970091027308
 42
50.0
 43
0.0
 44
0.0
 50
0.0
 51
0.0
 71
     0
 72
   100
 73
     1
 74
     3
 75
     0
 76
     0
 77
     0
 78
     0
  0
ENDTAB
  0
TABLE
  2
LTYPE
  5
69
330
0
100
AcDbSymbolTable
 70
     4
  0
LTYPE
  5
6A
330
69
100
AcDbSymbolTableRecord
100
AcDbLinetypeTableRecord
  2
BYBLOCK
 70
     0
  3

 72
    65
 73
     0
 40
0.0
  0
LTYPE
  5
6B
330
69
100
AcDbSymbolTableRecord
100
AcDbLinetypeTableRecord
  2
BYLAYER
 70
     0
  3

 72
    65
 73
     0
 40
0.0
  0
LTYPE
  5
8
330
69
100
AcDbSymbolTableRecord
100
AcDbLinetypeTableRecord
  2
CONTINUOUS
 70
     0
  3
Solid line
 72
    65
 73
     0
 40
0.0
  0
LTYPE
  5
27C
330
69
100
AcDbSymbolTableRecord
100
AcDbLinetypeTableRecord
  2
SEKKEI_A2_
 70
     0
  3
center(A2)  ____ _ ____ _ ____ _ ____ _ ____ _ 
 72
    65
 73
     4
 40
14.28749999999999
 49
9.525
 74
     0
 49
-1.587499999999999
 74
     0
 49
1.587499999999999
 74
     0
 49
-1.587499999999999
 74
     0
  0
LTYPE
  5
2B4
330
69
100
AcDbSymbolTableRecord
100
AcDbLinetypeTableRecord
  2
HIDDEN2
 70
     0
  3
Hidden (.5x) _ _ _ _ _ _ _ _ _ _ _ _ _ _ _ _ _
 72
    65
 73
     2
 40
4.762499999999999
 49
3.174999999999999
 74
     0
 49
-1.587499999999999
 74
     0
  0
LTYPE
  5
48F
330
69
100
AcDbSymbolTableRecord
100
AcDbLinetypeTableRecord
  2
SEKKEI_H
 70
     0
  3
Hidden-S _ _ _ _ _ _ _ _ _ _ _ _ _ _ _ _ _
 72
    65
 73
     2
 40
2.381249999999999
 49
1.587499999999999
 74
     0
 49
-0.79375
 74
     0
  0
ENDTAB
  0
TABLE
  2
LAYER
  5
66
330
0
100
AcDbSymbolTable
 70
     9
  0
LAYER
  5
5E
330
66
100
AcDbSymbolTableRecord
100
AcDbLayerTableRecord
  2
0
 70
     0
 62
     7
  6
CONTINUOUS
  0
LAYER
  5
3E
330
66
100
AcDbSymbolTableRecord
100
AcDbLayerTableRecord
  2
CENTER
 70
     0
 62
     3
  6
SEKKEI_A2_
  0
LAYER
  5
4
330
66
100
AcDbSymbolTableRecord
100
AcDbLayerTableRecord
  2
WAKU
 70
     0
 62
     5
  6
CONTINUOUS
  0
LAYER
  5
E4
330
66
100
AcDbSymbolTableRecord
100
AcDbLayerTableRecord
  2
TEXT
 70
     0
 62
     4
  6
CONTINUOUS
  0
LAYER
  5
135
330
66
100
AcDbSymbolTableRecord
100
AcDbLayerTableRecord
  2
DEFPOINTS
 70
     0
 62
     7
  6
CONTINUOUS
  0
LAYER
  5
2B5
330
66
100
AcDbSymbolTableRecord
100
AcDbLayerTableRecord
  2
HIDS
 70
     0
 62
     1
  6
HIDDEN2
  0
LAYER
  5
2BA
330
66
100
AcDbSymbolTableRecord
100
AcDbLayerTableRecord
  2
HOJO
 70
     0
 62
     4
  6
CONTINUOUS
  0
LAYER
  5
3FA
330
66
100
AcDbSymbolTableRecord
100
AcDbLayerTableRecord
  2
TITLE
 70
     0
 62
     4
  6
CONTINUOUS
  0
ENDTAB
  0
TABLE
  2
STYLE
  5
67
330
0
100
AcDbSymbolTable
 70
     1
  0
STYLE
  5
16
330
67
100
AcDbSymbolTableRecord
100
AcDbTextStyleTableRecord
  2
STANDARD
 70
     0
 40
0.0
 41
1.0
 50
0.0
 71
     0
 42
2.0
  3
simplex.shx
  4
extfont.shx
  0
ENDTAB
  0
TABLE
  2
VIEW
  5
6C
330
0
100
AcDbSymbolTable
 70
     0
  0
ENDTAB
  0
TABLE
  2
UCS
  5
6D
330
0
100
AcDbSymbolTable
 70
     0
  0
ENDTAB
  0
TABLE
  2
APPID
  5
70
330
0
100
AcDbSymbolTable
 70
     2
  0
APPID
  5
71
330
70
100
AcDbSymbolTableRecord
100
AcDbRegAppTableRecord
  2
ACAD
 70
     0
  0
APPID
  5
1C37
330
70
100
AcDbSymbolTableRecord
100
AcDbRegAppTableRecord
  2
CONTENTBLOCKICON
 70
     0
  0
ENDTAB
  0
TABLE
  2
DIMSTYLE
  5
72
330
0
100
AcDbSymbolTable
 70
     1
  0
DIMSTYLE
105
73
330
72
100
AcDbSymbolTableRecord
100
AcDbDimStyleTableRecord
  2
STANDARD
 70
     0
  3

  4

  5

  6

  7

 40
2.0
 41
1.8
 42
0.625
 43
3.75
 44
0.8
 45
0.0
 46
0.0
 47
0.0
 48
0.0
140
1.8
141
2.5
142
0.0
143
0.0394
144
1.0
145
0.0
146
1.0
147
0.75
 71
     0
 72
     0
 73
     0
 74
     0
 75
     0
 76
     0
 77
     1
 78
     8
170
     0
171
     4
172
     1
173
     0
174
     0
175
     0
176
     0
177
     0
178
     0
270
     8
271
     2
272
     2
273
     8
274
     4
340
16
275
     0
280
     0
281
     0
282
     0
283
     1
284
     0
285
     0
286
     0
287
     3
288
     0
  0
ENDTAB
  0
TABLE
  2
BLOCK_RECORD
  5
1
330
0
100
AcDbSymbolTable
 70
    71
  0
BLOCK_RECORD
  5
2
102
{ACAD_XDICTIONARY
360
1C35
102
}
330
1
100
AcDbSymbolTableRecord
100
AcDbBlockTableRecord
  2
*MODEL_SPACE
  0
BLOCK_RECORD
  5
1574
102
{ACAD_XDICTIONARY
360
1C38
102
}
330
1
100
AcDbSymbolTableRecord
100
AcDbBlockTableRecord
  2
*PAPER_SPACE
  0
BLOCK_RECORD
  5
40C
330
1
100
AcDbSymbolTableRecord
100
AcDbBlockTableRecord
  2
外寸枠A4テンプレート
1001
CONTENTBLOCKICON
1071
        0
1004
2800000020000000200000000100080000000000000400000000000000000000000000000000000000000000000080000080000000808000800000008000800080800000C0C0C000C0DCC000F0CAA6000020400000206000002080000020A0000020C0000020E00000400000004020000040400000406000004080000040A0
1004
000040C0000040E00000600000006020000060400000606000006080000060A0000060C0000060E00000800000008020000080400000806000008080000080A0000080C0000080E00000A0000000A0200000A0400000A0600000A0800000A0A00000A0C00000A0E00000C0000000C0200000C0400000C0600000C0800000C0
1004
A00000C0C00000C0E00000E0000000E0200000E0400000E0600000E0800000E0A00000E0C00000E0E00040000000400020004000400040006000400080004000A0004000C0004000E00040200000402020004020400040206000402080004020A0004020C0004020E000404000004040200040404000404060004040800040
1004
40A0004040C0004040E00040600000406020004060400040606000406080004060A0004060C0004060E00040800000408020004080400040806000408080004080A0004080C0004080E00040A0000040A0200040A0400040A0600040A0800040A0A00040A0C00040A0E00040C0000040C0200040C0400040C0600040C08000
1004
40C0A00040C0C00040C0E00040E0000040E0200040E0400040E0600040E0800040E0A00040E0C00040E0E00080000000800020008000400080006000800080008000A0008000C0008000E00080200000802020008020400080206000802080008020A0008020C0008020E00080400000804020008040400080406000804080
1004
008040A0008040C0008040E00080600000806020008060400080606000806080008060A0008060C0008060E00080800000808020008080400080806000808080008080A0008080C0008080E00080A0000080A0200080A0400080A0600080A0800080A0A00080A0C00080A0E00080C0000080C0200080C0400080C0600080C0
1004
800080C0A00080C0C00080C0E00080E0000080E0200080E0400080E0600080E0800080E0A00080E0C00080E0E000C0000000C0002000C0004000C0006000C0008000C000A000C000C000C000E000C0200000C0202000C0204000C0206000C0208000C020A000C020C000C020E000C0400000C0402000C0404000C0406000C0
1004
408000C040A000C040C000C040E000C0600000C0602000C0604000C0606000C0608000C060A000C060C000C060E000C0800000C0802000C0804000C0806000C0808000C080A000C080C000C080E000C0A00000C0A02000C0A04000C0A06000C0A08000C0A0A000C0A0C000C0A0E000C0C00000C0C02000C0C04000C0C06000
1004
C0C08000C0C0A000F0FBFF00A4A0A000808080000000FF0000FF000000FFFF00FF000000FF00FF00FFFF0000FFFFFF0000000000000000000000000000000000000000000000000000000000000000000000000000000000000000000000000000000000000000000000000000000000000000000000000000000000000000
1004
000000000000000000000000000000000000000000000000000000000000000000000000000000000000000000000000000000000000000000000000000000000000000000000000000000000000000000000000000000000000000000000000000000000000000000000000000000000000FCFCFCFCFCFCFCFCFCFCFCFCFC
1004
FCFCFCFCFCFCFCFCFEFEFEFDFDFCFDFDFD0000FC0000000000000000000000000000000000000000FDFDFDFDFDFDFDFDFD0000FC0000000000000000000000000000000000000000FDFDFEFEFEFEFDFDFD0000FC0000000000000000000000000000000000000000FDFCFEFEFEFEFCFCFC0000FC0000000000000000000000
1004
0000000000000000000000000000000000FC0000FC00000000000000000000000000000000000000000000000000000000FC0000FC00000000000000000000000000000000000000000000000000000000FC0000FC00000000000000000000000000000000000000000000000000000000FC0000FC00000000000000000000
1004
000000000000000000000000000000000000FC0000FC00000000000000000000000000000000000000000000000000000000FC0000FC00000000000000000000000000000000000000000000000000000000FC0000FC00000000000000000000000000000000000000000000000000000000FC0000FC000000000000000000
1004
00000000000000000000000000000000000000FC0000FC00000000000000000000000000000000000000000000000000000000FC0000FC00000000000000000000000000000000000000000000000000000000FC0000FC00000000000000000000000000000000000000000000000000000000FC0000FC0000000000000000
1004
0000000000000000000000000000000000000000FC0000FC00000000000000000000000000000000000000000000000000000000FC0000FC00000000000000000000000000000000000000000000FCFCFCFCFCFCFC0000FCFCFCFCFCFCFCFCFCFCFCFCFCFCFCFCFCFCFCFCFCFCFCFCFDFCFCFCFCFC00000000000000000000
1004
00000000000000000000000000000000000000000000000000000000000000000000000000000000000000000000000000000000000000000000000000000000000000000000000000000000000000000000000000000000000000000000000000000000000000000000000000000000000000000000000000000000000000
1004
0000000000000000000000000000000000000000000000000000000000000000000000000000000000000000000000000000000000000000
  0
BLOCK_RECORD
  5
4E3
330
1
100
AcDbSymbolTableRecord
100
AcDbBlockTableRecord
  2
1
  0
BLOCK_RECORD
  5
E37
330
1
100
AcDbSymbolTableRecord
100
AcDbBlockTableRecord
  2
BSPEC_90-90-0038
  0
BLOCK_RECORD
  5
EC0
330
1
100
AcDbSymbolTableRecord
100
AcDbBlockTableRecord
  2
22
  0
BLOCK_RECORD
  5
10ED
330
1
100
AcDbSymbolTableRecord
100
AcDbBlockTableRecord
  2
GSPEC_G-15-5-30
  0
BLOCK_RECORD
  5
112D
330
1
100
AcDbSymbolTableRecord
100
AcDbBlockTableRecord
  2
GSPEC_G-15-5-60
  0
BLOCK_RECORD
  5
1325
330
1
100
AcDbSymbolTableRecord
100
AcDbBlockTableRecord
  2
MSPEC_S60WF-90
  0
BLOCK_RECORD
  5
134B
330
1
100
AcDbSymbolTableRecord
100
AcDbBlockTableRecord
  2
MSPEC_S90F-90
  0
BLOCK_RECORD
  5
1371
330
1
100
AcDbSymbolTableRecord
100
AcDbBlockTableRecord
  2
MSPEC_S90WF-90
  0
BLOCK_RECORD
  5
1634
330
1
100
AcDbSymbolTableRecord
100
AcDbBlockTableRecord
  2
BSPEC_90-90-0055
  0
BLOCK_RECORD
  5
1657
330
1
100
AcDbSymbolTableRecord
100
AcDbBlockTableRecord
  2
BSPEC_90-45-0055
  0
BLOCK_RECORD
  5
17F9
330
1
100
AcDbSymbolTableRecord
100
AcDbBlockTableRecord
  2
17
  0
ENDTAB
  0
ENDSEC
  0
SECTION
  2
BLOCKS
  0
BLOCK
  5
5D
330
2
100
AcDbEntity
  8
0
100
AcDbBlockBegin
  2
*MODEL_SPACE
 70
     0
 10
0.0
 20
0.0
 30
0.0
  3
*MODEL_SPACE
  1

  0
ENDBLK
  5
5F
330
2
100
AcDbEntity
  8
0
100
AcDbBlockEnd
  0
BLOCK
  5
1582
330
1574
100
AcDbEntity
 67
     1
  8
0
100
AcDbBlockBegin
  2
*PAPER_SPACE
 70
     0
 10
0.0
 20
0.0
 30
0.0
  3
*PAPER_SPACE
  1

  0
ENDBLK
  5
1583
330
1574
100
AcDbEntity
 67
     1
  8
0
100
AcDbBlockEnd
  0
BLOCK
  5
463
330
40C
100
AcDbEntity
  8
0
100
AcDbBlockBegin
  2
外寸枠A4テンプレート
 70
     2
 10
0.0
 20
0.0
 30
0.0
  3
外寸枠A4テンプレート
  1

  0
LWPOLYLINE
  5
40D
330
40C
100
AcDbEntity
  8
WAKU
100
AcDbPolyline
 90
        4
 70
     1
 43
0.0
 10
3.0
 20
4.0
 10
280.0
 20
4.0
 10
280.0
 20
194.0
 10
3.0
 20
194.0
  0
LWPOLYLINE
  5
40E
330
40C
100
AcDbEntity
  8
WAKU
100
AcDbPolyline
 90
        4
 70
     1
 43
0.0
 10
3.0
 20
4.0
 10
280.0
 20
4.0
 10
280.0
 20
194.0
 10
3.0
 20
194.0
  0
LINE
  5
40F
330
40C
100
AcDbEntity
  8
WAKU
100
AcDbLine
 10
280.0
 20
182.0
 30
0.0
 11
226.4018178786999
 21
182.0
 31
0.0
  0
TEXT
  5
410
330
40C
100
AcDbEntity
  8
WAKU
 62
     6
100
AcDbText
 10
228.3816999999999
 20
190.11095
 30
0.0
 40
2.1213
  1
REVISIONS
 41
0.7
100
AcDbText
  0
LINE
  5
411
330
40C
100
AcDbEntity
  8
WAKU
100
AcDbLine
 10
226.4018178786999
 20
194.0
 30
0.0
 11
226.4018178786999
 21
181.9999999999999
 31
0.0
  0
LINE
  5
412
330
40C
100
AcDbEntity
  8
WAKU
 62
     6
100
AcDbLine
 10
203.6331999999998
 20
29.0030567071
 30
0.0
 11
280.0
 21
29.0030567071
 31
0.0
  0
LINE
  5
413
330
40C
100
AcDbEntity
  8
WAKU
 62
     6
100
AcDbLine
 10
203.6331999999998
 20
24.47761529289999
 30
0.0
 11
280.0
 21
24.47761529289999
 31
0.0
  0
LINE
  5
414
330
40C
100
AcDbEntity
  8
WAKU
 62
     6
100
AcDbLine
 10
203.6331999999998
 20
19.9521752929
 30
0.0
 11
280.0
 21
19.9521752929
 31
0.0
  0
LINE
  5
415
330
40C
100
AcDbEntity
  8
WAKU
 62
     6
100
AcDbLine
 10
203.6331999999998
 20
15.42673599999999
 30
0.0
 11
280.0
 21
15.42673599999999
 31
0.0
  0
LINE
  5
416
330
40C
100
AcDbEntity
  8
WAKU
 62
     6
100
AcDbLine
 10
203.6331999999998
 20
29.0030567071
 30
0.0
 11
280.0
 21
29.0030567071
 31
0.0
  0
LINE
  5
417
330
40C
100
AcDbEntity
  8
WAKU
 62
     6
100
AcDbLine
 10
203.6331999999998
 20
24.47761529289999
 30
0.0
 11
280.0
 21
24.47761529289999
 31
0.0
  0
LINE
  5
418
330
40C
100
AcDbEntity
  8
WAKU
 62
     6
100
AcDbLine
 10
203.6331999999998
 20
19.9521752929
 30
0.0
 11
280.0
 21
19.9521752929
 31
0.0
  0
LINE
  5
419
330
40C
100
AcDbEntity
  8
WAKU
 62
     6
100
AcDbLine
 10
203.6331999999998
 20
15.42673599999999
 30
0.0
 11
280.0
 21
15.42673599999999
 31
0.0
  0
LINE
  5
41A
330
40C
100
AcDbEntity
  8
WAKU
 62
     6
100
AcDbLine
 10
203.6331999999998
 20
29.0030567071
 30
0.0
 11
280.0
 21
29.0030567071
 31
0.0
  0
LINE
  5
41B
330
40C
100
AcDbEntity
  8
WAKU
 62
     6
100
AcDbLine
 10
203.6331999999998
 20
24.47761529289999
 30
0.0
 11
280.0
 21
24.47761529289999
 31
0.0
  0
LINE
  5
41C
330
40C
100
AcDbEntity
  8
WAKU
 62
     6
100
AcDbLine
 10
203.6331999999998
 20
19.9521752929
 30
0.0
 11
280.0
 21
19.9521752929
 31
0.0
  0
LINE
  5
41D
330
40C
100
AcDbEntity
  8
WAKU
 62
     6
100
AcDbLine
 10
203.6331999999998
 20
15.42673599999999
 30
0.0
 11
280.0
 21
15.42673599999999
 31
0.0
  0
LINE
  5
41E
330
40C
100
AcDbEntity
  8
WAKU
100
AcDbLine
 10
203.6331999999998
 20
38.053936
 30
0.0
 11
280.0
 21
38.053936
 31
0.0
  0
LINE
  5
41F
330
40C
100
AcDbEntity
  8
WAKU
100
AcDbLine
 10
203.6331999999998
 20
38.053936
 30
0.0
 11
280.0
 21
38.053936
 31
0.0
  0
LINE
  5
420
330
40C
100
AcDbEntity
  8
WAKU
100
AcDbLine
 10
203.6331999999998
 20
38.053936
 30
0.0
 11
280.0
 21
38.053936
 31
0.0
  0
TEXT
  5
421
330
40C
100
AcDbEntity
  8
WAKU
 62
     6
100
AcDbText
 10
231.4464545235218
 20
12.856420429
 30
0.0
 40
1.76775
  1
SCALE
 41
0.7
100
AcDbText
  0
TEXT
  5
422
330
40C
100
AcDbEntity
  8
TEXT
100
AcDbText
 10
228.8293221750166
 20
29.96641277760619
 30
0.0
 40
2.5
  1
外　形　寸　法　図
100
AcDbText
  0
ATTDEF
  5
423
330
40C
100
AcDbEntity
  8
TEXT
100
AcDbText
 10
241.8165999999999
 20
35.58735183158626
 30
0.0
 40
2.500000000000001
  1

 72
     4
 11
241.8165999999999
 21
35.58735183158626
 31
0.0
100
AcDbAttributeDefinition
  3
タイトル
  2
T　I　T　L　E
 70
     0
  0
LINE
  5
424
330
40C
100
AcDbEntity
  8
WAKU
100
AcDbLine
 10
203.6331999999998
 20
38.053936
 30
0.0
 11
203.6331999999998
 21
3.999999999999998
 31
0.0
  0
LINE
  5
425
330
40C
100
AcDbEntity
  8
WAKU
100
AcDbLine
 10
203.6331999999998
 20
38.053936
 30
0.0
 11
203.6331999999998
 21
3.999999999999998
 31
0.0
  0
LINE
  5
426
330
40C
100
AcDbEntity
  8
WAKU
100
AcDbLine
 10
203.6331999999998
 20
38.053936
 30
0.0
 11
203.6331999999998
 21
3.999999999999998
 31
0.0
  0
TEXT
  5
427
330
40C
100
AcDbEntity
  8
WAKU
 62
     6
100
AcDbText
 10
204.7645642425999
 20
25.805189179
 30
0.0
 40
2.1213
  1
DRAWING  NO.
 41
0.7
100
AcDbText
  0
TEXT
  5
428
330
40C
100
AcDbEntity
  8
WAKU
 62
     6
100
AcDbText
 10
204.7645642425999
 20
16.75430988609998
 30
0.0
 40
2.1213
  1
NOTICE
 41
0.7
100
AcDbText
  0
TEXT
  5
429
330
40C
100
AcDbEntity
  8
WAKU
 62
     6
100
AcDbText
 10
204.8446469479863
 20
12.674695729
 30
0.0
 40
1.8097340625
  1
APPROVE
 41
0.512174
100
AcDbText
  0
TEXT
  5
42A
330
40C
100
AcDbEntity
  8
WAKU
 62
     6
100
AcDbText
 10
204.7645642425999
 20
21.279749179
 30
0.0
 40
2.1213
  1
USER
 41
0.7
100
AcDbText
  0
TEXT
  5
42B
330
40C
100
AcDbEntity
  8
WAKU
 62
     6
100
AcDbText
 10
222.3147516895863
 20
12.6973292929
 30
0.0
 40
1.7832163983
  1
DESIGN
 41
0.5729449999999999
100
AcDbText
  0
LINE
  5
42C
330
40C
100
AcDbEntity
  8
WAKU
 62
     6
100
AcDbLine
 10
212.3823646725999
 20
15.42673599999999
 30
0.0
 11
212.3823646725999
 21
3.999999999999998
 31
0.0
  0
LINE
  5
42D
330
40C
100
AcDbEntity
  8
WAKU
 62
     6
100
AcDbLine
 10
212.3823646725999
 20
15.42673599999999
 30
0.0
 11
212.3823646725999
 21
3.999999999999998
 31
0.0
  0
LINE
  5
42E
330
40C
100
AcDbEntity
  8
WAKU
 62
     6
100
AcDbLine
 10
212.3823646725999
 20
15.42673599999999
 30
0.0
 11
212.3823646725999
 21
3.999999999999998
 31
0.0
  0
LINE
  5
42F
330
40C
100
AcDbEntity
  8
WAKU
 62
     6
100
AcDbLine
 10
221.1033047415999
 20
15.42673599999999
 30
0.0
 11
221.1033047415999
 21
3.999999999999998
 31
0.0
  0
LINE
  5
430
330
40C
100
AcDbEntity
  8
WAKU
 62
     6
100
AcDbLine
 10
221.1033047415999
 20
15.42673599999999
 30
0.0
 11
221.1033047415999
 21
3.999999999999998
 31
0.0
  0
LINE
  5
431
330
40C
100
AcDbEntity
  8
WAKU
 62
     6
100
AcDbLine
 10
221.1033047415999
 20
15.42673599999999
 30
0.0
 11
221.1033047415999
 21
3.999999999999998
 31
0.0
  0
TEXT
  5
432
330
40C
100
AcDbEntity
  8
WAKU
 62
     6
100
AcDbText
 10
213.5938010140863
 20
12.674695729
 30
0.0
 40
1.76775
  1
CHECK
 41
0.7
100
AcDbText
  0
LINE
  5
433
330
40C
100
AcDbEntity
  8
WAKU
 62
     6
100
AcDbLine
 10
229.8241790502999
 20
15.42673599999999
 30
0.0
 11
229.8241790502999
 21
3.999999999999998
 31
0.0
  0
LINE
  5
434
330
40C
100
AcDbEntity
  8
WAKU
 62
     6
100
AcDbLine
 10
229.8241790502999
 20
15.42673599999999
 30
0.0
 11
229.8241790502999
 21
3.999999999999998
 31
0.0
  0
LINE
  5
435
330
40C
100
AcDbEntity
  8
WAKU
 62
     6
100
AcDbLine
 10
229.8241790502999
 20
15.42673599999999
 30
0.0
 11
229.8241790502999
 21
3.999999999999998
 31
0.0
  0
TEXT
  5
436
330
40C
100
AcDbEntity
  8
WAKU
 62
     6
100
AcDbText
 10
204.7645642425999
 20
35.31568488609999
 30
0.0
 40
2.1213
  1
TITLE
 41
0.7
100
AcDbText
  0
ATTDEF
  5
437
330
40C
100
AcDbEntity
  8
TEXT
100
AcDbText
 10
234.056163734276
 20
8.134449518875573
 30
0.0
 40
2.0
  1

 72
     4
 11
234.056163734276
 21
8.134449518875573
 31
0.0
100
AcDbAttributeDefinition
  3
SCALE
  2
FREE
 70
     0
  0
ATTDEF
  5
438
330
40C
100
AcDbEntity
  8
TEXT
100
AcDbText
 10
207.865184683976
 20
8.134449518875573
 30
0.0
 40
2.500000000000004
  1

 72
     4
 11
207.865184683976
 21
8.134449518875573
 31
0.0
100
AcDbAttributeDefinition
  3
承認
  2
海野
 70
     0
  0
ATTDEF
  5
439
330
40C
100
AcDbEntity
  8
TEXT
100
AcDbText
 10
225.335289425576
 20
8.134449518875575
 30
0.0
 40
2.500000000000004
  1

 72
     4
 11
225.335289425576
 21
8.134449518875575
 31
0.0
100
AcDbAttributeDefinition
  3
作成
  2
鳥居
 70
     0
  0
ATTDEF
  5
43A
330
40C
100
AcDbEntity
  8
TEXT
100
AcDbText
 10
216.614349356576
 20
8.134449518875575
 30
0.0
 40
2.500000000000004
  1

 72
     4
 11
216.614349356576
 21
8.134449518875575
 31
0.0
100
AcDbAttributeDefinition
  3
確認
  2
永坂
 70
     0
  0
LINE
  5
43B
330
40C
100
AcDbEntity
  8
WAKU
 62
     6
100
AcDbLine
 10
238.6487948283999
 20
8.638576
 30
0.0
 11
280.0
 21
8.638576
 31
0.0
  0
LINE
  5
43C
330
40C
100
AcDbEntity
  8
WAKU
 62
     6
100
AcDbLine
 10
238.6487948283999
 20
8.638576
 30
0.0
 11
280.0
 21
8.638576
 31
0.0
  0
LINE
  5
43D
330
40C
100
AcDbEntity
  8
WAKU
 62
     6
100
AcDbLine
 10
238.6487948283999
 20
8.638576
 30
0.0
 11
280.0
 21
8.638576
 31
0.0
  0
TEXT
  5
43E
330
40C
100
AcDbEntity
  8
WAKU
 62
     6
100
AcDbText
 10
241.15294501234
 20
5.246258800300003
 30
0.0
 40
2.1213
  1
NISSEI  CORPORATION
100
AcDbText
  0
LINE
  5
43F
330
40C
100
AcDbEntity
  8
WAKU
100
AcDbLine
 10
246.5683127070999
 20
13.02259600000001
 30
0.0
 11
250.5280769496998
 21
14.01253599999999
 31
0.0
  0
LINE
  5
440
330
40C
100
AcDbEntity
  8
WAKU
100
AcDbLine
 10
246.5683127070999
 20
13.02259600000001
 30
0.0
 11
250.5280769496998
 21
14.01253599999999
 31
0.0
  0
LINE
  5
441
330
40C
100
AcDbEntity
  8
WAKU
100
AcDbLine
 10
246.5683127070999
 20
13.02259600000001
 30
0.0
 11
250.5280769496998
 21
14.01253599999999
 31
0.0
  0
LINE
  5
442
330
40C
100
AcDbEntity
  8
WAKU
100
AcDbLine
 10
246.5683127070999
 20
11.0427152929
 30
0.0
 11
250.5280769496998
 21
10.052776
 31
0.0
  0
LINE
  5
443
330
40C
100
AcDbEntity
  8
WAKU
100
AcDbLine
 10
246.5683127070999
 20
11.0427152929
 30
0.0
 11
250.5280769496998
 21
10.052776
 31
0.0
  0
LINE
  5
444
330
40C
100
AcDbEntity
  8
WAKU
100
AcDbLine
 10
246.5683127070999
 20
11.0427152929
 30
0.0
 11
250.5280769496998
 21
10.052776
 31
0.0
  0
LINE
  5
445
330
40C
100
AcDbEntity
  8
CENTER
 62
     6
100
AcDbLine
 10
239.4478107573998
 20
12.0326567071
 30
0.0
 11
251.3624499999998
 21
12.0326567071
 31
0.0
  0
LINE
  5
446
330
40C
100
AcDbEntity
  8
CENTER
 62
     6
100
AcDbLine
 10
239.4478107573998
 20
12.0326567071
 30
0.0
 11
251.3624499999998
 21
12.0326567071
 31
0.0
  0
LINE
  5
447
330
40C
100
AcDbEntity
  8
CENTER
 62
     6
100
AcDbLine
 10
239.4478107573998
 20
12.0326567071
 30
0.0
 11
251.3624499999998
 21
12.0326567071
 31
0.0
  0
LINE
  5
448
330
40C
100
AcDbEntity
  8
WAKU
 62
     6
100
AcDbLine
 10
238.6487948283999
 20
15.42673599999999
 30
0.0
 11
238.6487948283999
 21
3.999999999999998
 31
0.0
  0
LINE
  5
449
330
40C
100
AcDbEntity
  8
WAKU
 62
     6
100
AcDbLine
 10
238.6487948283999
 20
15.42673599999999
 30
0.0
 11
238.6487948283999
 21
3.999999999999998
 31
0.0
  0
LINE
  5
44A
330
40C
100
AcDbEntity
  8
WAKU
 62
     6
100
AcDbLine
 10
238.6487948283999
 20
15.42673599999999
 30
0.0
 11
238.6487948283999
 21
3.999999999999998
 31
0.0
  0
CIRCLE
  5
44B
330
40C
100
AcDbEntity
  8
WAKU
100
AcDbCircle
 10
242.0428769496999
 20
12.0326567071
 30
0.0
 40
0.9899399999999999
  0
CIRCLE
  5
44C
330
40C
100
AcDbEntity
  8
WAKU
100
AcDbCircle
 10
242.0428769496999
 20
12.0326567071
 30
0.0
 40
0.9899399999999999
  0
CIRCLE
  5
44D
330
40C
100
AcDbEntity
  8
WAKU
100
AcDbCircle
 10
242.0428769496999
 20
12.0326567071
 30
0.0
 40
0.9899399999999999
  0
CIRCLE
  5
44E
330
40C
100
AcDbEntity
  8
WAKU
100
AcDbCircle
 10
242.0428769496999
 20
12.0326567071
 30
0.0
 40
1.979879999999999
  0
CIRCLE
  5
44F
330
40C
100
AcDbEntity
  8
WAKU
100
AcDbCircle
 10
242.0428769496999
 20
12.0326567071
 30
0.0
 40
1.979879999999999
  0
CIRCLE
  5
450
330
40C
100
AcDbEntity
  8
WAKU
100
AcDbCircle
 10
242.0428769496999
 20
12.0326567071
 30
0.0
 40
1.979879999999999
  0
LINE
  5
451
330
40C
100
AcDbEntity
  8
WAKU
100
AcDbLine
 10
246.5683127070999
 20
13.02259600000001
 30
0.0
 11
246.5683127070999
 21
11.0427152929
 31
0.0
  0
LINE
  5
452
330
40C
100
AcDbEntity
  8
WAKU
100
AcDbLine
 10
246.5683127070999
 20
13.02259600000001
 30
0.0
 11
246.5683127070999
 21
11.0427152929
 31
0.0
  0
LINE
  5
453
330
40C
100
AcDbEntity
  8
WAKU
100
AcDbLine
 10
246.5683127070999
 20
13.02259600000001
 30
0.0
 11
246.5683127070999
 21
11.0427152929
 31
0.0
  0
LINE
  5
454
330
40C
100
AcDbEntity
  8
CENTER
 62
     6
100
AcDbLine
 10
242.0428769496999
 20
14.96005
 30
0.0
 11
242.0428769496999
 21
9.267895000000009
 31
0.0
  0
LINE
  5
455
330
40C
100
AcDbEntity
  8
CENTER
 62
     6
100
AcDbLine
 10
242.0428769496999
 20
14.96005
 30
0.0
 11
242.0428769496999
 21
9.267895000000009
 31
0.0
  0
LINE
  5
456
330
40C
100
AcDbEntity
  8
CENTER
 62
     6
100
AcDbLine
 10
242.0428769496999
 20
14.96005
 30
0.0
 11
242.0428769496999
 21
9.267895000000009
 31
0.0
  0
TEXT
  5
457
330
40C
100
AcDbEntity
  8
TEXT
100
AcDbText
 10
257.3078171288039
 20
9.492177985111482
 30
0.0
 40
2.0
  1
mm
100
AcDbText
  0
LINE
  5
458
330
40C
100
AcDbEntity
  8
WAKU
 62
     6
100
AcDbLine
 10
252.2251127070999
 20
15.42673599999999
 30
0.0
 11
252.2251127070999
 21
8.638576
 31
0.0
  0
LINE
  5
459
330
40C
100
AcDbEntity
  8
WAKU
 62
     6
100
AcDbLine
 10
252.2251127070999
 20
15.42673599999999
 30
0.0
 11
252.2251127070999
 21
8.638576
 31
0.0
  0
LINE
  5
45A
330
40C
100
AcDbEntity
  8
WAKU
 62
     6
100
AcDbLine
 10
252.2251127070999
 20
15.42673599999999
 30
0.0
 11
252.2251127070999
 21
8.638576
 31
0.0
  0
LINE
  5
45B
330
40C
100
AcDbEntity
  8
WAKU
100
AcDbLine
 10
250.5280769496998
 20
14.01253599999999
 30
0.0
 11
250.5280769496998
 21
10.052776
 31
0.0
  0
LINE
  5
45C
330
40C
100
AcDbEntity
  8
WAKU
100
AcDbLine
 10
250.5280769496998
 20
14.01253599999999
 30
0.0
 11
250.5280769496998
 21
10.052776
 31
0.0
  0
LINE
  5
45D
330
40C
100
AcDbEntity
  8
WAKU
100
AcDbLine
 10
250.5280769496998
 20
14.01253599999999
 30
0.0
 11
250.5280769496998
 21
10.052776
 31
0.0
  0
TEXT
  5
45E
330
40C
100
AcDbEntity
  8
WAKU
 62
     6
100
AcDbText
 10
253.4130357573999
 20
13.0508792929
 30
0.0
 40
1.76775
  1
UNIT
 41
0.7
100
AcDbText
  0
TEXT
  5
45F
330
40C
100
AcDbEntity
  8
WAKU
 62
     6
100
AcDbText
 10
266.9893642426
 20
13.0508792929
 30
0.0
 40
1.76775
  1
DATE
 41
0.7
100
AcDbText
  0
LINE
  5
460
330
40C
100
AcDbEntity
  8
WAKU
 62
     6
100
AcDbLine
 10
265.7448611715999
 20
15.42673599999999
 30
0.0
 11
265.7448611715999
 21
8.638576
 31
0.0
  0
LINE
  5
461
330
40C
100
AcDbEntity
  8
WAKU
 62
     6
100
AcDbLine
 10
265.7448611715999
 20
15.42673599999999
 30
0.0
 11
265.7448611715999
 21
8.638576
 31
0.0
  0
LINE
  5
462
330
40C
100
AcDbEntity
  8
WAKU
 62
     6
100
AcDbLine
 10
265.7448611715999
 20
15.42673599999999
 30
0.0
 11
265.7448611715999
 21
8.638576
 31
0.0
  0
ENDBLK
  5
464
330
40C
100
AcDbEntity
  8
0
100
AcDbBlockEnd
  0
BLOCK
  5
4E5
330
4E3
100
AcDbEntity
  8
0
100
AcDbBlockBegin
  2
1
 70
     0
 10
0.0
 20
0.0
 30
0.0
  3
1
  1

  0
TEXT
  5
4E4
330
4E3
100
AcDbEntity
  8
0
100
AcDbText
 10
0.0
 20
0.0
 30
0.0
 40
2.0
  1
注。出力軸キーは JIS B 1301-1976平行キーに依ります。
100
AcDbText
  0
ENDBLK
  5
4E6
330
4E3
100
AcDbEntity
  8
0
100
AcDbBlockEnd
  0
BLOCK
  5
E4E
330
E37
100
AcDbEntity
  8
0
100
AcDbBlockBegin
  2
BSPEC_90-90-0038
 70
     0
 10
0.0
 20
0.0
 30
0.0
  3
BSPEC_90-90-0038
  1

  0
TEXT
  5
E38
330
E37
100
AcDbEntity
  8
0
100
AcDbText
 10
35.94757247309064
 20
40.47485
 30
0.0
 40
2.0
  1
ブレーキ仕様
100
AcDbText
  0
LINE
  5
E39
330
E37
100
AcDbEntity
  8
0
100
AcDbLine
 10
35.94757247309064
 20
40.12129999999999
 30
0.0
 11
50.05242752690936
 21
40.12129999999999
 31
0.0
  0
LINE
  5
E3A
330
E37
100
AcDbEntity
  8
0
100
AcDbLine
 10
35.94757247309064
 20
39.41419999999999
 30
0.0
 11
50.05242752690936
 21
39.41419999999999
 31
0.0
  0
TEXT
  5
E3B
330
E37
100
AcDbEntity
  8
0
100
AcDbText
 10
29.35319943225727
 20
21.29776682820352
 30
0.0
 40
2.0
  1
0.37N・m（0.038kgf・m）
100
AcDbText
  0
TEXT
  5
E3C
330
E37
100
AcDbEntity
  8
0
100
AcDbText
 10
29.35319943225727
 20
24.56510000000003
 30
0.0
 40
2.0
  1
12 W （於75℃）
100
AcDbText
  0
TEXT
  5
E3D
330
E37
100
AcDbEntity
  8
0
100
AcDbText
 10
29.35319943225727
 20
31.6361
 30
0.0
 40
2.0
  1
無励磁作動形（スプリングクローズ）
100
AcDbText
  0
LINE
  5
E3E
330
E37
100
AcDbEntity
  8
0
100
AcDbLine
 10
17.0
 20
20.32249999999996
 30
0.0
 11
69.0
 21
20.32249999999996
 31
0.0
  0
LINE
  5
E3F
330
E37
100
AcDbEntity
  8
0
100
AcDbLine
 10
17.0
 20
23.85799999999994
 30
0.0
 11
69.0
 21
23.85799999999994
 31
0.0
  0
LINE
  5
E40
330
E37
100
AcDbEntity
  8
0
100
AcDbLine
 10
17.0
 20
27.39349999999999
 30
0.0
 11
69.0
 21
27.39349999999999
 31
0.0
  0
LINE
  5
E41
330
E37
100
AcDbEntity
  8
0
100
AcDbLine
 10
17.0
 20
30.929
 30
0.0
 11
69.0
 21
30.92899999999997
 31
0.0
  0
LINE
  5
E42
330
E37
100
AcDbEntity
  8
0
100
AcDbLine
 10
17.0
 20
34.46450000000001
 30
0.0
 11
69.0
 21
34.46450000000001
 31
0.0
  0
LINE
  5
E43
330
E37
100
AcDbEntity
  8
0
100
AcDbLine
 10
17.0
 20
38.0
 30
0.0
 11
69.0
 21
38.0
 31
0.0
  0
TEXT
  5
E44
330
E37
100
AcDbEntity
  8
0
100
AcDbText
 10
29.35319943225727
 20
28.10060000000001
 30
0.0
 40
2.0
  1
DC 90V
100
AcDbText
  0
TEXT
  5
E45
330
E37
100
AcDbEntity
  8
0
100
AcDbText
 10
17.67809444174622
 20
28.10059999999998
 30
0.0
 40
2.0
  1
入力電圧
100
AcDbText
  0
LINE
  5
E46
330
E37
100
AcDbEntity
  8
0
100
AcDbLine
 10
28.5
 20
20.32249999999996
 30
0.0
 11
28.5
 21
38.0
 31
0.0
  0
LINE
  5
E47
330
E37
100
AcDbEntity
  8
0
100
AcDbLine
 10
17.0
 20
20.32249999999996
 30
0.0
 11
17.0
 21
38.0
 31
0.0
  0
TEXT
  5
E48
330
E37
100
AcDbEntity
  8
0
100
AcDbText
 10
17.67809444174622
 20
20.93604220928048
 30
0.0
 40
2.0
  1
定格トルク
 41
0.85
100
AcDbText
  0
TEXT
  5
E49
330
E37
100
AcDbEntity
  8
0
100
AcDbText
 10
17.67809444174622
 20
24.56509999999994
 30
0.0
 40
2.0
  1
容量
100
AcDbText
  0
TEXT
  5
E4A
330
E37
100
AcDbEntity
  8
0
100
AcDbText
 10
17.67809444174622
 20
35.17159999999998
 30
0.0
 40
2.0
  1
型式
100
AcDbText
  0
TEXT
  5
E4B
330
E37
100
AcDbEntity
  8
0
100
AcDbText
 10
17.67809444174622
 20
31.6361
 30
0.0
 40
2.0
  1
方式
100
AcDbText
  0
TEXT
  5
E4C
330
E37
100
AcDbEntity
  8
0
100
AcDbText
 10
29.35319943225727
 20
35.17159999999998
 30
0.0
 40
2.0
  1
BS-90
100
AcDbText
  0
LINE
  5
E4D
330
E37
100
AcDbEntity
  8
0
100
AcDbLine
 10
69.0
 20
20.32249999999996
 30
0.0
 11
69.0
 21
38.0
 31
0.0
  0
ENDBLK
  5
E4F
330
E37
100
AcDbEntity
  8
0
100
AcDbBlockEnd
  0
BLOCK
  5
EC3
330
EC0
100
AcDbEntity
  8
0
100
AcDbBlockBegin
  2
22
 70
     0
 10
0.0
 20
0.0
 30
0.0
  3
22
  1

  0
TEXT
  5
EC1
330
EC0
100
AcDbEntity
  8
0
100
AcDbText
 10
0.0
 20
3.5
 30
0.0
 40
2.0
  1
注。(%%c40)×4部は黒皮になっていますので、相手穴は%%c40.5
100
AcDbText
  0
TEXT
  5
EC2
330
EC0
100
AcDbEntity
  8
0
100
AcDbText
 10
0.0
 20
0.0
 30
0.0
 40
2.0
  1
　　以上にしてください。
100
AcDbText
  0
ENDBLK
  5
EC4
330
EC0
100
AcDbEntity
  8
0
100
AcDbBlockEnd
  0
BLOCK
  5
1106
330
10ED
100
AcDbEntity
  8
0
100
AcDbBlockBegin
  2
GSPEC_G-15-5-30
 70
     0
 10
0.0
 20
0.0
 30
0.0
  3
GSPEC_G-15-5-30
  1

  0
LINE
  5
10EE
330
10ED
100
AcDbEntity
  8
0
100
AcDbLine
 10
131.0
 20
20.3224999999999
 30
0.0
 11
183.0
 21
20.3224999999999
 31
0.0
  0
LINE
  5
10EF
330
10ED
100
AcDbEntity
  8
0
100
AcDbLine
 10
131.0
 20
16.78699999999992
 30
0.0
 11
183.0
 21
16.78699999999992
 31
0.0
  0
LINE
  5
10F0
330
10ED
100
AcDbEntity
  8
0
100
AcDbLine
 10
131.0
 20
23.85799999999989
 30
0.0
 11
183.0
 21
23.85799999999989
 31
0.0
  0
LINE
  5
10F1
330
10ED
100
AcDbEntity
  8
0
100
AcDbLine
 10
131.0
 20
34.46450000000001
 30
0.0
 11
183.0
 21
34.46450000000001
 31
0.0
  0
LINE
  5
10F2
330
10ED
100
AcDbEntity
  8
0
100
AcDbLine
 10
131.0
 20
30.929
 30
0.0
 11
183.0
 21
30.92899999999997
 31
0.0
  0
LINE
  5
10F3
330
10ED
100
AcDbEntity
  8
0
100
AcDbLine
 10
131.0
 20
38.0
 30
0.0
 11
183.0
 21
38.0
 31
0.0
  0
LINE
  5
10F4
330
10ED
100
AcDbEntity
  8
0
100
AcDbLine
 10
131.0
 20
16.78699999999992
 30
0.0
 11
131.0
 21
38.0
 31
0.0
  0
TEXT
  5
10F5
330
10ED
100
AcDbEntity
  8
0
100
AcDbText
 10
131.6780944417463
 20
21.0295999999999
 30
0.0
 40
2.0
  1
潤滑
100
AcDbText
  0
TEXT
  5
10F6
330
10ED
100
AcDbEntity
  8
0
100
AcDbText
 10
131.6780944417462
 20
17.40054220928044
 30
0.0
 40
2.0
  1
塗色
100
AcDbText
  0
TEXT
  5
10F7
330
10ED
100
AcDbEntity
  8
0
100
AcDbText
 10
131.6780944417462
 20
26.37741832202137
 30
0.0
 40
2.0
  1
減速比
100
AcDbText
  0
TEXT
  5
10F8
330
10ED
100
AcDbEntity
  8
0
100
AcDbText
 10
131.6780944417462
 20
31.6361
 30
0.0
 40
2.0
  1
枠番
100
AcDbText
  0
TEXT
  5
10F9
330
10ED
100
AcDbEntity
  8
0
100
AcDbText
 10
131.6780944417462
 20
35.17159999999998
 30
0.0
 40
2.0
  1
名称
100
AcDbText
  0
LINE
  5
10FA
330
10ED
100
AcDbEntity
  8
0
100
AcDbLine
 10
183.0
 20
16.78699999999992
 30
0.0
 11
183.0
 21
38.0
 31
0.0
  0
LINE
  5
10FB
330
10ED
100
AcDbEntity
  8
0
100
AcDbLine
 10
142.5
 20
16.78699999999992
 30
0.0
 11
142.5
 21
38.0
 31
0.0
  0
TEXT
  5
10FC
330
10ED
100
AcDbEntity
  8
0
100
AcDbText
 10
143.3531994322572
 20
28.10060000000001
 30
0.0
 40
2.0
  1
1/5 1/7.5 1/10 1/15
100
AcDbText
  0
TEXT
  5
10FD
330
10ED
100
AcDbEntity
  8
0
100
AcDbText
 10
143.3531994322572
 20
24.56510000000003
 30
0.0
 40
2.0
  1
1/20 1/25 1/30
100
AcDbText
  0
TEXT
  5
10FE
330
10ED
100
AcDbEntity
  8
0
100
AcDbText
 10
143.3531994322572
 20
17.49409999999989
 30
0.0
 40
2.0
  1
グレー（マンセル値 9B6/0.5）
100
AcDbText
  0
LINE
  5
10FF
330
10ED
100
AcDbEntity
  8
0
100
AcDbLine
 10
142.5
 20
27.39349999999999
 30
0.0
 11
183.0
 21
27.39349999999999
 31
0.0
  0
TEXT
  5
1100
330
10ED
100
AcDbEntity
  8
0
100
AcDbText
 10
143.3531994322572
 20
21.0295999999999
 30
0.0
 40
2.0
  1
グリース
100
AcDbText
  0
LINE
  5
1101
330
10ED
100
AcDbEntity
  8
0
100
AcDbLine
 10
150.4725366217368
 20
39.41419999999999
 30
0.0
 11
163.5274633782631
 21
39.41419999999999
 31
0.0
  0
LINE
  5
1102
330
10ED
100
AcDbEntity
  8
0
100
AcDbLine
 10
150.4725366217368
 20
40.12129999999999
 30
0.0
 11
163.5274633782631
 21
40.12129999999999
 31
0.0
  0
TEXT
  5
1103
330
10ED
100
AcDbEntity
  8
0
100
AcDbText
 10
151.1299348544099
 20
40.47485
 30
0.0
 40
2.0
  1
減速機仕様
100
AcDbText
  0
TEXT
  5
1104
330
10ED
100
AcDbEntity
  8
0
100
AcDbText
 10
143.3531994322572
 20
31.6361
 30
0.0
 40
2.0
  1
15
100
AcDbText
  0
TEXT
  5
1105
330
10ED
100
AcDbEntity
  8
0
100
AcDbText
 10
143.3531994322572
 20
35.17159999999998
 30
0.0
 40
2.0
  1
GTR
100
AcDbText
  0
ENDBLK
  5
1107
330
10ED
100
AcDbEntity
  8
0
100
AcDbBlockEnd
  0
BLOCK
  5
1148
330
112D
100
AcDbEntity
  8
0
100
AcDbBlockBegin
  2
GSPEC_G-15-5-60
 70
     0
 10
0.0
 20
0.0
 30
0.0
  3
GSPEC_G-15-5-60
  1

  0
LINE
  5
112E
330
112D
100
AcDbEntity
  8
0
100
AcDbLine
 10
131.0
 20
16.78699999999992
 30
0.0
 11
183.0
 21
16.78699999999992
 31
0.0
  0
LINE
  5
112F
330
112D
100
AcDbEntity
  8
0
100
AcDbLine
 10
131.0
 20
13.25149999999993
 30
0.0
 11
183.0
 21
13.25149999999993
 31
0.0
  0
LINE
  5
1130
330
112D
100
AcDbEntity
  8
0
100
AcDbLine
 10
131.0
 20
20.3224999999999
 30
0.0
 11
183.0
 21
20.3224999999999
 31
0.0
  0
LINE
  5
1131
330
112D
100
AcDbEntity
  8
0
100
AcDbLine
 10
131.0
 20
34.46450000000001
 30
0.0
 11
183.0
 21
34.46450000000001
 31
0.0
  0
LINE
  5
1132
330
112D
100
AcDbEntity
  8
0
100
AcDbLine
 10
131.0
 20
30.929
 30
0.0
 11
183.0
 21
30.92899999999997
 31
0.0
  0
LINE
  5
1133
330
112D
100
AcDbEntity
  8
0
100
AcDbLine
 10
131.0
 20
38.0
 30
0.0
 11
183.0
 21
38.0
 31
0.0
  0
LINE
  5
1134
330
112D
100
AcDbEntity
  8
0
100
AcDbLine
 10
131.0
 20
13.25149999999993
 30
0.0
 11
131.0
 21
38.0
 31
0.0
  0
TEXT
  5
1135
330
112D
100
AcDbEntity
  8
0
100
AcDbText
 10
131.6780944417463
 20
17.49409999999991
 30
0.0
 40
2.0
  1
潤滑
100
AcDbText
  0
TEXT
  5
1136
330
112D
100
AcDbEntity
  8
0
100
AcDbText
 10
131.6780944417462
 20
13.86504220928046
 30
0.0
 40
2.0
  1
塗色
100
AcDbText
  0
TEXT
  5
1137
330
112D
100
AcDbEntity
  8
0
100
AcDbText
 10
131.6780944417462
 20
24.60966832202135
 30
0.0
 40
2.0
  1
減速比
100
AcDbText
  0
TEXT
  5
1138
330
112D
100
AcDbEntity
  8
0
100
AcDbText
 10
131.6780944417462
 20
31.6361
 30
0.0
 40
2.0
  1
枠番
100
AcDbText
  0
TEXT
  5
1139
330
112D
100
AcDbEntity
  8
0
100
AcDbText
 10
131.6780944417462
 20
35.17159999999998
 30
0.0
 40
2.0
  1
名称
100
AcDbText
  0
LINE
  5
113A
330
112D
100
AcDbEntity
  8
0
100
AcDbLine
 10
183.0
 20
13.25149999999993
 30
0.0
 11
183.0
 21
38.0
 31
0.0
  0
LINE
  5
113B
330
112D
100
AcDbEntity
  8
0
100
AcDbLine
 10
142.5
 20
13.25149999999993
 30
0.0
 11
142.5
 21
38.0
 31
0.0
  0
TEXT
  5
113C
330
112D
100
AcDbEntity
  8
0
100
AcDbText
 10
143.3531994322572
 20
28.10060000000001
 30
0.0
 40
2.0
  1
1/5 1/7.5 1/10 1/15
100
AcDbText
  0
TEXT
  5
113D
330
112D
100
AcDbEntity
  8
0
100
AcDbText
 10
143.3531994322572
 20
24.56510000000003
 30
0.0
 40
2.0
  1
1/20 1/25 1/30 1/40
100
AcDbText
  0
TEXT
  5
113E
330
112D
100
AcDbEntity
  8
0
100
AcDbText
 10
143.3531994322572
 20
13.9585999999999
 30
0.0
 40
2.0
  1
グレー（マンセル値 9B6/0.5）
100
AcDbText
  0
LINE
  5
113F
330
112D
100
AcDbEntity
  8
0
100
AcDbLine
 10
142.5
 20
27.39349999999999
 30
0.0
 11
183.0
 21
27.39349999999999
 31
0.0
  0
TEXT
  5
1140
330
112D
100
AcDbEntity
  8
0
100
AcDbText
 10
143.3531994322572
 20
17.49409999999991
 30
0.0
 40
2.0
  1
グリース
100
AcDbText
  0
LINE
  5
1141
330
112D
100
AcDbEntity
  8
0
100
AcDbLine
 10
150.4725366217368
 20
39.41419999999999
 30
0.0
 11
163.5274633782631
 21
39.41419999999999
 31
0.0
  0
LINE
  5
1142
330
112D
100
AcDbEntity
  8
0
100
AcDbLine
 10
150.4725366217368
 20
40.12129999999999
 30
0.0
 11
163.5274633782631
 21
40.12129999999999
 31
0.0
  0
TEXT
  5
1143
330
112D
100
AcDbEntity
  8
0
100
AcDbText
 10
151.1299348544099
 20
40.47485
 30
0.0
 40
2.0
  1
減速機仕様
100
AcDbText
  0
TEXT
  5
1144
330
112D
100
AcDbEntity
  8
0
100
AcDbText
 10
143.3531994322572
 20
31.6361
 30
0.0
 40
2.0
  1
15
100
AcDbText
  0
TEXT
  5
1145
330
112D
100
AcDbEntity
  8
0
100
AcDbText
 10
143.3531994322572
 20
35.17159999999998
 30
0.0
 40
2.0
  1
GTR
100
AcDbText
  0
TEXT
  5
1146
330
112D
100
AcDbEntity
  8
0
100
AcDbText
 10
143.3531994322572
 20
21.02960000000004
 30
0.0
 40
2.0
  1
1/50 1/60
100
AcDbText
  0
LINE
  5
1147
330
112D
100
AcDbEntity
  8
0
100
AcDbLine
 10
142.5
 20
23.85799999999995
 30
0.0
 11
183.0
 21
23.85799999999994
 31
0.0
  0
ENDBLK
  5
1149
330
112D
100
AcDbEntity
  8
0
100
AcDbBlockEnd
  0
BLOCK
  5
1348
330
1325
100
AcDbEntity
  8
0
100
AcDbBlockBegin
  2
MSPEC_S60WF-90
 70
     0
 10
0.0
 20
0.0
 30
0.0
  3
MSPEC_S60WF-90
  1

  0
LINE
  5
1326
330
1325
100
AcDbEntity
  8
0
100
AcDbLine
 10
126.0
 20
6.180499999999994
 30
0.0
 11
126.0
 21
37.99999999999997
 31
0.0
  0
TEXT
  5
1327
330
1325
100
AcDbEntity
  8
0
100
AcDbText
 10
86.35319943225727
 20
28.10060000000001
 30
0.0
 40
2.0
  1
60 W
100
AcDbText
  0
TEXT
  5
1328
330
1325
100
AcDbEntity
  8
0
100
AcDbText
 10
74.67809444174623
 20
28.10059999999998
 30
0.0
 40
2.0
  1
出力
100
AcDbText
  0
LINE
  5
1329
330
1325
100
AcDbEntity
  8
0
100
AcDbLine
 10
85.5
 20
6.180499999999994
 30
0.0
 11
85.5
 21
38.0
 31
0.0
  0
LINE
  5
132A
330
1325
100
AcDbEntity
  8
0
100
AcDbLine
 10
73.99999999999998
 20
6.180500000000023
 30
0.0
 11
74.0
 21
38.0
 31
0.0
  0
TEXT
  5
132B
330
1325
100
AcDbEntity
  8
0
100
AcDbText
 10
86.35319943225727
 20
13.95859999999993
 30
0.0
 40
2.0
  1
1500/1800 rpm
100
AcDbText
  0
LINE
  5
132C
330
1325
100
AcDbEntity
  8
0
100
AcDbLine
 10
74.0
 20
6.180500000000023
 30
0.0
 11
126.0
 21
6.180499999999994
 31
0.0
  0
LINE
  5
132D
330
1325
100
AcDbEntity
  8
0
100
AcDbLine
 10
74.0
 20
9.716000000000008
 30
0.0
 11
126.0
 21
9.715999999999979
 31
0.0
  0
LINE
  5
132E
330
1325
100
AcDbEntity
  8
0
100
AcDbLine
 10
74.0
 20
13.25149999999999
 30
0.0
 11
126.0
 21
13.25149999999996
 31
0.0
  0
LINE
  5
132F
330
1325
100
AcDbEntity
  8
0
100
AcDbLine
 10
74.0
 20
23.85799999999994
 30
0.0
 11
126.0
 21
23.85799999999992
 31
0.0
  0
LINE
  5
1330
330
1325
100
AcDbEntity
  8
0
100
AcDbLine
 10
74.0
 20
16.78699999999997
 30
0.0
 11
126.0
 21
16.78699999999994
 31
0.0
  0
LINE
  5
1331
330
1325
100
AcDbEntity
  8
0
100
AcDbLine
 10
74.0
 20
20.32249999999996
 30
0.0
 11
126.0
 21
20.32249999999993
 31
0.0
  0
LINE
  5
1332
330
1325
100
AcDbEntity
  8
0
100
AcDbLine
 10
74.0
 20
27.39349999999999
 30
0.0
 11
126.0
 21
27.39349999999996
 31
0.0
  0
TEXT
  5
1333
330
1325
100
AcDbEntity
  8
0
100
AcDbText
 10
86.35319943225727
 20
24.56510000000003
 30
0.0
 40
2.0
  1
200 V
100
AcDbText
  0
TEXT
  5
1334
330
1325
100
AcDbEntity
  8
0
100
AcDbText
 10
86.35319943225727
 20
21.02959999999995
 30
0.0
 40
2.0
  1
50/60 Hz
100
AcDbText
  0
TEXT
  5
1335
330
1325
100
AcDbEntity
  8
0
100
AcDbText
 10
74.67809444174623
 20
10.3295422092805
 30
0.0
 40
2.0
  1
定格
100
AcDbText
  0
TEXT
  5
1336
330
1325
100
AcDbEntity
  8
0
100
AcDbText
 10
74.67809444174623
 20
6.794042209280519
 30
0.0
 40
2.0
  1
絶縁
100
AcDbText
  0
TEXT
  5
1337
330
1325
100
AcDbEntity
  8
0
100
AcDbText
 10
86.35319943225727
 20
10.42309999999994
 30
0.0
 40
2.0
  1
連続
100
AcDbText
  0
TEXT
  5
1338
330
1325
100
AcDbEntity
  8
0
100
AcDbText
 10
86.35319943225727
 20
6.887599999999963
 30
0.0
 40
2.0
  1
E種
100
AcDbText
  0
TEXT
  5
1339
330
1325
100
AcDbEntity
  8
0
100
AcDbText
 10
74.67809444174623
 20
13.86504220928048
 30
0.0
 40
2.0
  1
回転速度
100
AcDbText
  0
TEXT
  5
133A
330
1325
100
AcDbEntity
  8
0
100
AcDbText
 10
74.67809444174633
 20
21.02959999999995
 30
0.0
 40
2.0
  1
周波数
100
AcDbText
  0
TEXT
  5
133B
330
1325
100
AcDbEntity
  8
0
100
AcDbText
 10
74.67809444174623
 20
17.4005422092805
 30
0.0
 40
2.0
  1
極数
100
AcDbText
  0
TEXT
  5
133C
330
1325
100
AcDbEntity
  8
0
100
AcDbText
 10
74.67809444174623
 20
24.56509999999997
 30
0.0
 40
2.0
  1
電圧
100
AcDbText
  0
TEXT
  5
133D
330
1325
100
AcDbEntity
  8
0
100
AcDbText
 10
86.35319943225727
 20
17.49409999999994
 30
0.0
 40
2.0
  1
4
100
AcDbText
  0
TEXT
  5
133E
330
1325
100
AcDbEntity
  8
0
100
AcDbText
 10
86.35319943225727
 20
31.6361
 30
0.0
 40
2.0
  1
全閉外扇形（ｺﾝﾃﾞﾝｻﾗﾝ）DS-90
100
AcDbText
  0
LINE
  5
133F
330
1325
100
AcDbEntity
  8
0
100
AcDbLine
 10
74.0
 20
38.0
 30
0.0
 11
126.0
 21
37.99999999999997
 31
0.0
  0
LINE
  5
1340
330
1325
100
AcDbEntity
  8
0
100
AcDbLine
 10
74.0
 20
30.929
 30
0.0
 11
126.0
 21
30.92899999999994
 31
0.0
  0
LINE
  5
1341
330
1325
100
AcDbEntity
  8
0
100
AcDbLine
 10
74.0
 20
34.46450000000001
 30
0.0
 11
126.0
 21
34.46449999999998
 31
0.0
  0
TEXT
  5
1342
330
1325
100
AcDbEntity
  8
0
100
AcDbText
 10
86.35319943225727
 20
35.17159999999998
 30
0.0
 40
2.0
  1
単相誘導電動機
100
AcDbText
  0
TEXT
  5
1343
330
1325
100
AcDbEntity
  8
0
100
AcDbText
 10
74.67809444174623
 20
31.6361
 30
0.0
 40
2.0
  1
型式
100
AcDbText
  0
TEXT
  5
1344
330
1325
100
AcDbEntity
  8
0
100
AcDbText
 10
74.67809444174623
 20
35.17159999999998
 30
0.0
 40
2.0
  1
名称
100
AcDbText
  0
LINE
  5
1345
330
1325
100
AcDbEntity
  8
0
100
AcDbLine
 10
93.80123573807338
 20
40.12129999999999
 30
0.0
 11
106.1987642619266
 21
40.12129999999999
 31
0.0
  0
LINE
  5
1346
330
1325
100
AcDbEntity
  8
0
100
AcDbLine
 10
93.80123573807338
 20
39.41419999999999
 30
0.0
 11
106.1987642619266
 21
39.41419999999999
 31
0.0
  0
TEXT
  5
1347
330
1325
100
AcDbEntity
  8
0
100
AcDbText
 10
93.99902987649658
 20
40.47485
 30
0.0
 40
2.0
  1
モータ仕様
100
AcDbText
  0
ENDBLK
  5
1349
330
1325
100
AcDbEntity
  8
0
100
AcDbBlockEnd
  0
BLOCK
  5
136E
330
134B
100
AcDbEntity
  8
0
100
AcDbBlockBegin
  2
MSPEC_S90F-90
 70
     0
 10
0.0
 20
0.0
 30
0.0
  3
MSPEC_S90F-90
  1

  0
LINE
  5
134C
330
134B
100
AcDbEntity
  8
0
100
AcDbLine
 10
126.0
 20
6.180499999999994
 30
0.0
 11
126.0
 21
37.99999999999997
 31
0.0
  0
TEXT
  5
134D
330
134B
100
AcDbEntity
  8
0
100
AcDbText
 10
86.35319943225727
 20
28.10060000000001
 30
0.0
 40
2.0
  1
90 W
100
AcDbText
  0
TEXT
  5
134E
330
134B
100
AcDbEntity
  8
0
100
AcDbText
 10
74.67809444174623
 20
28.10059999999998
 30
0.0
 40
2.0
  1
出力
100
AcDbText
  0
LINE
  5
134F
330
134B
100
AcDbEntity
  8
0
100
AcDbLine
 10
85.5
 20
6.180499999999994
 30
0.0
 11
85.5
 21
38.0
 31
0.0
  0
LINE
  5
1350
330
134B
100
AcDbEntity
  8
0
100
AcDbLine
 10
73.99999999999998
 20
6.180500000000023
 30
0.0
 11
74.0
 21
38.0
 31
0.0
  0
TEXT
  5
1351
330
134B
100
AcDbEntity
  8
0
100
AcDbText
 10
86.35319943225727
 20
13.95859999999993
 30
0.0
 40
2.0
  1
1500/1800 rpm
100
AcDbText
  0
LINE
  5
1352
330
134B
100
AcDbEntity
  8
0
100
AcDbLine
 10
74.0
 20
6.180500000000023
 30
0.0
 11
126.0
 21
6.180499999999994
 31
0.0
  0
LINE
  5
1353
330
134B
100
AcDbEntity
  8
0
100
AcDbLine
 10
74.0
 20
9.716000000000008
 30
0.0
 11
126.0
 21
9.715999999999979
 31
0.0
  0
LINE
  5
1354
330
134B
100
AcDbEntity
  8
0
100
AcDbLine
 10
74.0
 20
13.25149999999999
 30
0.0
 11
126.0
 21
13.25149999999996
 31
0.0
  0
LINE
  5
1355
330
134B
100
AcDbEntity
  8
0
100
AcDbLine
 10
74.0
 20
23.85799999999994
 30
0.0
 11
126.0
 21
23.85799999999992
 31
0.0
  0
LINE
  5
1356
330
134B
100
AcDbEntity
  8
0
100
AcDbLine
 10
74.0
 20
16.78699999999997
 30
0.0
 11
126.0
 21
16.78699999999994
 31
0.0
  0
LINE
  5
1357
330
134B
100
AcDbEntity
  8
0
100
AcDbLine
 10
74.0
 20
20.32249999999996
 30
0.0
 11
126.0
 21
20.32249999999993
 31
0.0
  0
LINE
  5
1358
330
134B
100
AcDbEntity
  8
0
100
AcDbLine
 10
74.0
 20
27.39349999999999
 30
0.0
 11
126.0
 21
27.39349999999996
 31
0.0
  0
TEXT
  5
1359
330
134B
100
AcDbEntity
  8
0
100
AcDbText
 10
86.35319943225727
 20
24.56510000000003
 30
0.0
 40
2.0
  1
100 V
100
AcDbText
  0
TEXT
  5
135A
330
134B
100
AcDbEntity
  8
0
100
AcDbText
 10
86.35319943225727
 20
21.02959999999995
 30
0.0
 40
2.0
  1
50/60 Hz
100
AcDbText
  0
TEXT
  5
135B
330
134B
100
AcDbEntity
  8
0
100
AcDbText
 10
74.67809444174623
 20
10.3295422092805
 30
0.0
 40
2.0
  1
定格
100
AcDbText
  0
TEXT
  5
135C
330
134B
100
AcDbEntity
  8
0
100
AcDbText
 10
74.67809444174623
 20
6.794042209280519
 30
0.0
 40
2.0
  1
絶縁
100
AcDbText
  0
TEXT
  5
135D
330
134B
100
AcDbEntity
  8
0
100
AcDbText
 10
86.35319943225727
 20
10.42309999999994
 30
0.0
 40
2.0
  1
連続
100
AcDbText
  0
TEXT
  5
135E
330
134B
100
AcDbEntity
  8
0
100
AcDbText
 10
86.35319943225727
 20
6.887599999999963
 30
0.0
 40
2.0
  1
E種
100
AcDbText
  0
TEXT
  5
135F
330
134B
100
AcDbEntity
  8
0
100
AcDbText
 10
74.67809444174623
 20
13.86504220928048
 30
0.0
 40
2.0
  1
回転速度
100
AcDbText
  0
TEXT
  5
1360
330
134B
100
AcDbEntity
  8
0
100
AcDbText
 10
74.67809444174633
 20
21.02959999999995
 30
0.0
 40
2.0
  1
周波数
100
AcDbText
  0
TEXT
  5
1361
330
134B
100
AcDbEntity
  8
0
100
AcDbText
 10
74.67809444174623
 20
17.4005422092805
 30
0.0
 40
2.0
  1
極数
100
AcDbText
  0
TEXT
  5
1362
330
134B
100
AcDbEntity
  8
0
100
AcDbText
 10
74.67809444174623
 20
24.56509999999997
 30
0.0
 40
2.0
  1
電圧
100
AcDbText
  0
TEXT
  5
1363
330
134B
100
AcDbEntity
  8
0
100
AcDbText
 10
86.35319943225727
 20
17.49409999999994
 30
0.0
 40
2.0
  1
4
100
AcDbText
  0
TEXT
  5
1364
330
134B
100
AcDbEntity
  8
0
100
AcDbText
 10
86.35319943225727
 20
31.6361
 30
0.0
 40
2.0
  1
全閉外扇形（ｺﾝﾃﾞﾝｻﾗﾝ）DS-90
100
AcDbText
  0
LINE
  5
1365
330
134B
100
AcDbEntity
  8
0
100
AcDbLine
 10
74.0
 20
38.0
 30
0.0
 11
126.0
 21
37.99999999999997
 31
0.0
  0
LINE
  5
1366
330
134B
100
AcDbEntity
  8
0
100
AcDbLine
 10
74.0
 20
30.929
 30
0.0
 11
126.0
 21
30.92899999999994
 31
0.0
  0
LINE
  5
1367
330
134B
100
AcDbEntity
  8
0
100
AcDbLine
 10
74.0
 20
34.46450000000001
 30
0.0
 11
126.0
 21
34.46449999999998
 31
0.0
  0
TEXT
  5
1368
330
134B
100
AcDbEntity
  8
0
100
AcDbText
 10
86.35319943225727
 20
35.17159999999998
 30
0.0
 40
2.0
  1
単相誘導電動機
100
AcDbText
  0
TEXT
  5
1369
330
134B
100
AcDbEntity
  8
0
100
AcDbText
 10
74.67809444174623
 20
31.6361
 30
0.0
 40
2.0
  1
型式
100
AcDbText
  0
TEXT
  5
136A
330
134B
100
AcDbEntity
  8
0
100
AcDbText
 10
74.67809444174623
 20
35.17159999999998
 30
0.0
 40
2.0
  1
名称
100
AcDbText
  0
LINE
  5
136B
330
134B
100
AcDbEntity
  8
0
100
AcDbLine
 10
93.80123573807338
 20
40.12129999999999
 30
0.0
 11
106.1987642619266
 21
40.12129999999999
 31
0.0
  0
LINE
  5
136C
330
134B
100
AcDbEntity
  8
0
100
AcDbLine
 10
93.80123573807338
 20
39.41419999999999
 30
0.0
 11
106.1987642619266
 21
39.41419999999999
 31
0.0
  0
TEXT
  5
136D
330
134B
100
AcDbEntity
  8
0
100
AcDbText
 10
93.99902987649658
 20
40.47485
 30
0.0
 40
2.0
  1
モータ仕様
100
AcDbText
  0
ENDBLK
  5
136F
330
134B
100
AcDbEntity
  8
0
100
AcDbBlockEnd
  0
BLOCK
  5
1394
330
1371
100
AcDbEntity
  8
0
100
AcDbBlockBegin
  2
MSPEC_S90WF-90
 70
     0
 10
0.0
 20
0.0
 30
0.0
  3
MSPEC_S90WF-90
  1

  0
LINE
  5
1372
330
1371
100
AcDbEntity
  8
0
100
AcDbLine
 10
126.0
 20
6.180499999999994
 30
0.0
 11
126.0
 21
37.99999999999997
 31
0.0
  0
TEXT
  5
1373
330
1371
100
AcDbEntity
  8
0
100
AcDbText
 10
86.35319943225727
 20
28.10060000000001
 30
0.0
 40
2.0
  1
90 W
100
AcDbText
  0
TEXT
  5
1374
330
1371
100
AcDbEntity
  8
0
100
AcDbText
 10
74.67809444174623
 20
28.10059999999998
 30
0.0
 40
2.0
  1
出力
100
AcDbText
  0
LINE
  5
1375
330
1371
100
AcDbEntity
  8
0
100
AcDbLine
 10
85.5
 20
6.180499999999994
 30
0.0
 11
85.5
 21
38.0
 31
0.0
  0
LINE
  5
1376
330
1371
100
AcDbEntity
  8
0
100
AcDbLine
 10
73.99999999999998
 20
6.180500000000023
 30
0.0
 11
74.0
 21
38.0
 31
0.0
  0
TEXT
  5
1377
330
1371
100
AcDbEntity
  8
0
100
AcDbText
 10
86.35319943225727
 20
13.95859999999993
 30
0.0
 40
2.0
  1
1500/1800 rpm
100
AcDbText
  0
LINE
  5
1378
330
1371
100
AcDbEntity
  8
0
100
AcDbLine
 10
74.0
 20
6.180500000000023
 30
0.0
 11
126.0
 21
6.180499999999994
 31
0.0
  0
LINE
  5
1379
330
1371
100
AcDbEntity
  8
0
100
AcDbLine
 10
74.0
 20
9.716000000000008
 30
0.0
 11
126.0
 21
9.715999999999979
 31
0.0
  0
LINE
  5
137A
330
1371
100
AcDbEntity
  8
0
100
AcDbLine
 10
74.0
 20
13.25149999999999
 30
0.0
 11
126.0
 21
13.25149999999996
 31
0.0
  0
LINE
  5
137B
330
1371
100
AcDbEntity
  8
0
100
AcDbLine
 10
74.0
 20
23.85799999999994
 30
0.0
 11
126.0
 21
23.85799999999992
 31
0.0
  0
LINE
  5
137C
330
1371
100
AcDbEntity
  8
0
100
AcDbLine
 10
74.0
 20
16.78699999999997
 30
0.0
 11
126.0
 21
16.78699999999994
 31
0.0
  0
LINE
  5
137D
330
1371
100
AcDbEntity
  8
0
100
AcDbLine
 10
74.0
 20
20.32249999999996
 30
0.0
 11
126.0
 21
20.32249999999993
 31
0.0
  0
LINE
  5
137E
330
1371
100
AcDbEntity
  8
0
100
AcDbLine
 10
74.0
 20
27.39349999999999
 30
0.0
 11
126.0
 21
27.39349999999996
 31
0.0
  0
TEXT
  5
137F
330
1371
100
AcDbEntity
  8
0
100
AcDbText
 10
86.35319943225727
 20
24.56510000000003
 30
0.0
 40
2.0
  1
200 V
100
AcDbText
  0
TEXT
  5
1380
330
1371
100
AcDbEntity
  8
0
100
AcDbText
 10
86.35319943225727
 20
21.02959999999995
 30
0.0
 40
2.0
  1
50/60 Hz
100
AcDbText
  0
TEXT
  5
1381
330
1371
100
AcDbEntity
  8
0
100
AcDbText
 10
74.67809444174623
 20
10.3295422092805
 30
0.0
 40
2.0
  1
定格
100
AcDbText
  0
TEXT
  5
1382
330
1371
100
AcDbEntity
  8
0
100
AcDbText
 10
74.67809444174623
 20
6.794042209280519
 30
0.0
 40
2.0
  1
絶縁
100
AcDbText
  0
TEXT
  5
1383
330
1371
100
AcDbEntity
  8
0
100
AcDbText
 10
86.35319943225727
 20
10.42309999999994
 30
0.0
 40
2.0
  1
連続
100
AcDbText
  0
TEXT
  5
1384
330
1371
100
AcDbEntity
  8
0
100
AcDbText
 10
86.35319943225727
 20
6.887599999999963
 30
0.0
 40
2.0
  1
E種
100
AcDbText
  0
TEXT
  5
1385
330
1371
100
AcDbEntity
  8
0
100
AcDbText
 10
74.67809444174623
 20
13.86504220928048
 30
0.0
 40
2.0
  1
回転速度
100
AcDbText
  0
TEXT
  5
1386
330
1371
100
AcDbEntity
  8
0
100
AcDbText
 10
74.67809444174633
 20
21.02959999999995
 30
0.0
 40
2.0
  1
周波数
100
AcDbText
  0
TEXT
  5
1387
330
1371
100
AcDbEntity
  8
0
100
AcDbText
 10
74.67809444174623
 20
17.4005422092805
 30
0.0
 40
2.0
  1
極数
100
AcDbText
  0
TEXT
  5
1388
330
1371
100
AcDbEntity
  8
0
100
AcDbText
 10
74.67809444174623
 20
24.56509999999997
 30
0.0
 40
2.0
  1
電圧
100
AcDbText
  0
TEXT
  5
1389
330
1371
100
AcDbEntity
  8
0
100
AcDbText
 10
86.35319943225727
 20
17.49409999999994
 30
0.0
 40
2.0
  1
4
100
AcDbText
  0
TEXT
  5
138A
330
1371
100
AcDbEntity
  8
0
100
AcDbText
 10
86.35319943225727
 20
31.6361
 30
0.0
 40
2.0
  1
全閉外扇形（ｺﾝﾃﾞﾝｻﾗﾝ）DS-90
100
AcDbText
  0
LINE
  5
138B
330
1371
100
AcDbEntity
  8
0
100
AcDbLine
 10
74.0
 20
38.0
 30
0.0
 11
126.0
 21
37.99999999999997
 31
0.0
  0
LINE
  5
138C
330
1371
100
AcDbEntity
  8
0
100
AcDbLine
 10
74.0
 20
30.929
 30
0.0
 11
126.0
 21
30.92899999999994
 31
0.0
  0
LINE
  5
138D
330
1371
100
AcDbEntity
  8
0
100
AcDbLine
 10
74.0
 20
34.46450000000001
 30
0.0
 11
126.0
 21
34.46449999999998
 31
0.0
  0
TEXT
  5
138E
330
1371
100
AcDbEntity
  8
0
100
AcDbText
 10
86.35319943225727
 20
35.17159999999998
 30
0.0
 40
2.0
  1
単相誘導電動機
100
AcDbText
  0
TEXT
  5
138F
330
1371
100
AcDbEntity
  8
0
100
AcDbText
 10
74.67809444174623
 20
31.6361
 30
0.0
 40
2.0
  1
型式
100
AcDbText
  0
TEXT
  5
1390
330
1371
100
AcDbEntity
  8
0
100
AcDbText
 10
74.67809444174623
 20
35.17159999999998
 30
0.0
 40
2.0
  1
名称
100
AcDbText
  0
LINE
  5
1391
330
1371
100
AcDbEntity
  8
0
100
AcDbLine
 10
93.80123573807338
 20
40.12129999999999
 30
0.0
 11
106.1987642619266
 21
40.12129999999999
 31
0.0
  0
LINE
  5
1392
330
1371
100
AcDbEntity
  8
0
100
AcDbLine
 10
93.80123573807338
 20
39.41419999999999
 30
0.0
 11
106.1987642619266
 21
39.41419999999999
 31
0.0
  0
TEXT
  5
1393
330
1371
100
AcDbEntity
  8
0
100
AcDbText
 10
93.99902987649658
 20
40.47485
 30
0.0
 40
2.0
  1
モータ仕様
100
AcDbText
  0
ENDBLK
  5
1395
330
1371
100
AcDbEntity
  8
0
100
AcDbBlockEnd
  0
BLOCK
  5
164B
330
1634
100
AcDbEntity
  8
0
100
AcDbBlockBegin
  2
BSPEC_90-90-0055
 70
     0
 10
0.0
 20
0.0
 30
0.0
  3
BSPEC_90-90-0055
  1

  0
TEXT
  5
1635
330
1634
100
AcDbEntity
  8
0
100
AcDbText
 10
35.94757247309064
 20
40.47485
 30
0.0
 40
2.0
  1
ブレーキ仕様
100
AcDbText
  0
LINE
  5
1636
330
1634
100
AcDbEntity
  8
0
100
AcDbLine
 10
35.94757247309064
 20
40.12129999999999
 30
0.0
 11
50.05242752690936
 21
40.12129999999999
 31
0.0
  0
LINE
  5
1637
330
1634
100
AcDbEntity
  8
0
100
AcDbLine
 10
35.94757247309064
 20
39.41419999999999
 30
0.0
 11
50.05242752690936
 21
39.41419999999999
 31
0.0
  0
TEXT
  5
1638
330
1634
100
AcDbEntity
  8
0
100
AcDbText
 10
29.35319943225727
 20
21.29776682820352
 30
0.0
 40
2.0
  1
0.54N・m（0.055kgf・m）
100
AcDbText
  0
TEXT
  5
1639
330
1634
100
AcDbEntity
  8
0
100
AcDbText
 10
29.35319943225727
 20
24.56510000000003
 30
0.0
 40
2.0
  1
12 W （於75℃）
100
AcDbText
  0
TEXT
  5
163A
330
1634
100
AcDbEntity
  8
0
100
AcDbText
 10
29.35319943225727
 20
31.6361
 30
0.0
 40
2.0
  1
無励磁作動形（スプリングクローズ）
100
AcDbText
  0
LINE
  5
163B
330
1634
100
AcDbEntity
  8
0
100
AcDbLine
 10
17.0
 20
20.32249999999996
 30
0.0
 11
69.0
 21
20.32249999999996
 31
0.0
  0
LINE
  5
163C
330
1634
100
AcDbEntity
  8
0
100
AcDbLine
 10
17.0
 20
23.85799999999994
 30
0.0
 11
69.0
 21
23.85799999999994
 31
0.0
  0
LINE
  5
163D
330
1634
100
AcDbEntity
  8
0
100
AcDbLine
 10
17.0
 20
27.39349999999999
 30
0.0
 11
69.0
 21
27.39349999999999
 31
0.0
  0
LINE
  5
163E
330
1634
100
AcDbEntity
  8
0
100
AcDbLine
 10
17.0
 20
30.929
 30
0.0
 11
69.0
 21
30.92899999999997
 31
0.0
  0
LINE
  5
163F
330
1634
100
AcDbEntity
  8
0
100
AcDbLine
 10
17.0
 20
34.46450000000001
 30
0.0
 11
69.0
 21
34.46450000000001
 31
0.0
  0
LINE
  5
1640
330
1634
100
AcDbEntity
  8
0
100
AcDbLine
 10
17.0
 20
38.0
 30
0.0
 11
69.0
 21
38.0
 31
0.0
  0
TEXT
  5
1641
330
1634
100
AcDbEntity
  8
0
100
AcDbText
 10
29.35319943225727
 20
28.10060000000001
 30
0.0
 40
2.0
  1
DC 90V
100
AcDbText
  0
TEXT
  5
1642
330
1634
100
AcDbEntity
  8
0
100
AcDbText
 10
17.67809444174622
 20
28.10059999999998
 30
0.0
 40
2.0
  1
入力電圧
100
AcDbText
  0
LINE
  5
1643
330
1634
100
AcDbEntity
  8
0
100
AcDbLine
 10
28.5
 20
20.32249999999996
 30
0.0
 11
28.5
 21
38.0
 31
0.0
  0
LINE
  5
1644
330
1634
100
AcDbEntity
  8
0
100
AcDbLine
 10
17.0
 20
20.32249999999996
 30
0.0
 11
17.0
 21
38.0
 31
0.0
  0
TEXT
  5
1645
330
1634
100
AcDbEntity
  8
0
100
AcDbText
 10
17.67809444174622
 20
20.93604220928048
 30
0.0
 40
2.0
  1
定格トルク
 41
0.85
100
AcDbText
  0
TEXT
  5
1646
330
1634
100
AcDbEntity
  8
0
100
AcDbText
 10
17.67809444174622
 20
24.56509999999994
 30
0.0
 40
2.0
  1
容量
100
AcDbText
  0
TEXT
  5
1647
330
1634
100
AcDbEntity
  8
0
100
AcDbText
 10
17.67809444174622
 20
35.17159999999998
 30
0.0
 40
2.0
  1
型式
100
AcDbText
  0
TEXT
  5
1648
330
1634
100
AcDbEntity
  8
0
100
AcDbText
 10
17.67809444174622
 20
31.6361
 30
0.0
 40
2.0
  1
方式
100
AcDbText
  0
TEXT
  5
1649
330
1634
100
AcDbEntity
  8
0
100
AcDbText
 10
29.35319943225727
 20
35.17159999999998
 30
0.0
 40
2.0
  1
BS-90
100
AcDbText
  0
LINE
  5
164A
330
1634
100
AcDbEntity
  8
0
100
AcDbLine
 10
69.0
 20
20.32249999999996
 30
0.0
 11
69.0
 21
38.0
 31
0.0
  0
ENDBLK
  5
164C
330
1634
100
AcDbEntity
  8
0
100
AcDbBlockEnd
  0
BLOCK
  5
166E
330
1657
100
AcDbEntity
  8
0
100
AcDbBlockBegin
  2
BSPEC_90-45-0055
 70
     0
 10
0.0
 20
0.0
 30
0.0
  3
BSPEC_90-45-0055
  1

  0
TEXT
  5
1658
330
1657
100
AcDbEntity
  8
0
100
AcDbText
 10
35.94757247309064
 20
40.47485
 30
0.0
 40
2.0
  1
ブレーキ仕様
100
AcDbText
  0
LINE
  5
1659
330
1657
100
AcDbEntity
  8
0
100
AcDbLine
 10
35.94757247309064
 20
40.12129999999999
 30
0.0
 11
50.05242752690936
 21
40.12129999999999
 31
0.0
  0
LINE
  5
165A
330
1657
100
AcDbEntity
  8
0
100
AcDbLine
 10
35.94757247309064
 20
39.41419999999999
 30
0.0
 11
50.05242752690936
 21
39.41419999999999
 31
0.0
  0
TEXT
  5
165B
330
1657
100
AcDbEntity
  8
0
100
AcDbText
 10
29.35319943225727
 20
21.29776682820352
 30
0.0
 40
2.0
  1
0.54N・m（0.055kgf・m）
100
AcDbText
  0
TEXT
  5
165C
330
1657
100
AcDbEntity
  8
0
100
AcDbText
 10
29.35319943225727
 20
24.56510000000003
 30
0.0
 40
2.0
  1
10 W （於75℃）
100
AcDbText
  0
TEXT
  5
165D
330
1657
100
AcDbEntity
  8
0
100
AcDbText
 10
29.35319943225727
 20
31.6361
 30
0.0
 40
2.0
  1
無励磁作動形（スプリングクローズ）
100
AcDbText
  0
LINE
  5
165E
330
1657
100
AcDbEntity
  8
0
100
AcDbLine
 10
17.0
 20
20.32249999999996
 30
0.0
 11
69.0
 21
20.32249999999996
 31
0.0
  0
LINE
  5
165F
330
1657
100
AcDbEntity
  8
0
100
AcDbLine
 10
17.0
 20
23.85799999999994
 30
0.0
 11
69.0
 21
23.85799999999994
 31
0.0
  0
LINE
  5
1660
330
1657
100
AcDbEntity
  8
0
100
AcDbLine
 10
17.0
 20
27.39349999999999
 30
0.0
 11
69.0
 21
27.39349999999999
 31
0.0
  0
LINE
  5
1661
330
1657
100
AcDbEntity
  8
0
100
AcDbLine
 10
17.0
 20
30.929
 30
0.0
 11
69.0
 21
30.92899999999997
 31
0.0
  0
LINE
  5
1662
330
1657
100
AcDbEntity
  8
0
100
AcDbLine
 10
17.0
 20
34.46450000000001
 30
0.0
 11
69.0
 21
34.46450000000001
 31
0.0
  0
LINE
  5
1663
330
1657
100
AcDbEntity
  8
0
100
AcDbLine
 10
17.0
 20
38.0
 30
0.0
 11
69.0
 21
38.0
 31
0.0
  0
TEXT
  5
1664
330
1657
100
AcDbEntity
  8
0
100
AcDbText
 10
29.35319943225727
 20
28.10060000000001
 30
0.0
 40
2.0
  1
DC 45V
100
AcDbText
  0
TEXT
  5
1665
330
1657
100
AcDbEntity
  8
0
100
AcDbText
 10
17.67809444174622
 20
28.10059999999998
 30
0.0
 40
2.0
  1
入力電圧
100
AcDbText
  0
LINE
  5
1666
330
1657
100
AcDbEntity
  8
0
100
AcDbLine
 10
28.5
 20
20.32249999999996
 30
0.0
 11
28.5
 21
38.0
 31
0.0
  0
LINE
  5
1667
330
1657
100
AcDbEntity
  8
0
100
AcDbLine
 10
17.0
 20
20.32249999999996
 30
0.0
 11
17.0
 21
38.0
 31
0.0
  0
TEXT
  5
1668
330
1657
100
AcDbEntity
  8
0
100
AcDbText
 10
17.67809444174622
 20
20.93604220928048
 30
0.0
 40
2.0
  1
定格トルク
 41
0.85
100
AcDbText
  0
TEXT
  5
1669
330
1657
100
AcDbEntity
  8
0
100
AcDbText
 10
17.67809444174622
 20
24.56509999999994
 30
0.0
 40
2.0
  1
容量
100
AcDbText
  0
TEXT
  5
166A
330
1657
100
AcDbEntity
  8
0
100
AcDbText
 10
17.67809444174622
 20
35.17159999999998
 30
0.0
 40
2.0
  1
型式
100
AcDbText
  0
TEXT
  5
166B
330
1657
100
AcDbEntity
  8
0
100
AcDbText
 10
17.67809444174622
 20
31.6361
 30
0.0
 40
2.0
  1
方式
100
AcDbText
  0
TEXT
  5
166C
330
1657
100
AcDbEntity
  8
0
100
AcDbText
 10
29.35319943225727
 20
35.17159999999998
 30
0.0
 40
2.0
  1
BS-90
100
AcDbText
  0
LINE
  5
166D
330
1657
100
AcDbEntity
  8
0
100
AcDbLine
 10
69.0
 20
20.32249999999996
 30
0.0
 11
69.0
 21
38.0
 31
0.0
  0
ENDBLK
  5
166F
330
1657
100
AcDbEntity
  8
0
100
AcDbBlockEnd
  0
BLOCK
  5
17FC
330
17F9
100
AcDbEntity
  8
0
100
AcDbBlockBegin
  2
17
 70
     0
 10
0.0
 20
0.0
 30
0.0
  3
17
  1

  0
TEXT
  5
17FA
330
17F9
100
AcDbEntity
  8
0
100
AcDbText
 10
0.0
 20
3.5
 30
0.0
 40
2.0
  1
注。K型ターミナルボックスにはコネクター（キャプコン、膜付ゴム
100
AcDbText
  0
TEXT
  5
17FB
330
17F9
100
AcDbEntity
  8
0
100
AcDbText
 10
0.0
 20
0.0
 30
0.0
 40
2.0
  1
　　ブッシュ）が付属されています。
100
AcDbText
  0
ENDBLK
  5
17FD
330
17F9
100
AcDbEntity
  8
0
100
AcDbBlockEnd
  0
ENDSEC
  0
SECTION
  2
ENTITIES
  0
LINE
  5
5FE
330
2
100
AcDbEntity
  8
0
100
AcDbLine
 10
49.64766143610257
 20
374.8396622044298
 30
0.0
 11
49.64766143610257
 21
290.8396622044298
 31
0.0
  0
LINE
  5
5FF
330
2
100
AcDbEntity
  8
0
100
AcDbLine
 10
97.14766143610255
 20
379.8396622044299
 30
0.0
 11
97.14766143610255
 21
285.8396622044299
 31
0.0
  0
LINE
  5
600
330
2
100
AcDbEntity
  8
0
100
AcDbLine
 10
229.6476614361025
 20
313.8396622044298
 30
0.0
 11
229.6476614361025
 21
351.8396622044298
 31
0.0
  0
LINE
  5
601
330
2
100
AcDbEntity
  8
0
100
AcDbLine
 10
231.6476614361025
 20
341.3396622044298
 30
0.0
 11
231.6476614361025
 21
324.3396622044298
 31
0.0
  0
LINE
  5
602
330
2
100
AcDbEntity
  8
0
100
AcDbLine
 10
106.6477394361025
 20
377.8396622044299
 30
0.0
 11
106.6477394361025
 21
357.8396622044299
 31
0.0
  0
LINE
  5
603
330
2
100
AcDbEntity
  8
0
100
AcDbLine
 10
225.6476614361025
 20
377.8396622044299
 30
0.0
 11
225.6476614361025
 21
287.8396622044298
 31
0.0
  0
TEXT
  5
604
330
2
100
AcDbEntity
  8
TITLE
100
AcDbText
 10
412.4221416694349
 20
301.4322723525995
 30
0.0
 40
5.0
  1
GFMN-15-5~30-S90K
100
AcDbText
  0
TEXT
  5
605
330
2
100
AcDbEntity
  8
TITLE
100
AcDbText
 10
290.9790372875591
 20
302.1998608939234
 30
0.0
 40
5.0
  1
GFMN-15-5~30-T90K
100
AcDbText
  0
TEXT
  5
606
330
2
100
AcDbEntity
  8
TITLE
100
AcDbText
 10
412.4221416694349
 20
321.844082822592
 30
0.0
 40
5.0
  1
GFMN-15-5~60-S60K
100
AcDbText
  0
LINE
  5
607
330
2
100
AcDbEntity
  8
CENTER
100
AcDbLine
 10
331.6338015144141
 20
113.6084370051656
 30
0.0
 11
446.9338045144142
 21
113.6084370051656
 31
0.0
  0
LINE
  5
608
330
2
100
AcDbEntity
  8
0
100
AcDbLine
 10
363.1833090144142
 20
66.60842200516561
 30
0.0
 11
415.3842980144142
 21
66.60842200516561
 31
0.0
  0
LINE
  5
609
330
2
100
AcDbEntity
  8
0
100
AcDbLine
 10
363.1833090144142
 20
160.6084370051656
 30
0.0
 11
365.7838030144141
 21
160.6084370051656
 31
0.0
  0
LINE
  5
60A
330
2
100
AcDbEntity
  8
0
100
AcDbLine
 10
377.7636010144142
 20
90.6084220051656
 30
0.0
 11
381.0788010144142
 21
90.6084220051656
 31
0.0
  0
LINE
  5
60B
330
2
100
AcDbEntity
  8
0
100
AcDbLine
 10
377.6911980144142
 20
100.1709220051656
 30
0.0
 11
381.9778030144142
 21
100.1709220051656
 31
0.0
  0
LINE
  5
60C
330
2
100
AcDbEntity
  8
0
100
AcDbLine
 10
377.6046040144142
 20
92.49935200516564
 30
0.0
 11
378.3358970144143
 21
91.72904300516563
 31
0.0
  0
LINE
  5
60D
330
2
100
AcDbEntity
  8
0
100
AcDbLine
 10
378.3244070144141
 20
98.90090300516568
 30
0.0
 11
377.6046040144142
 21
98.00840100516564
 31
0.0
  0
LINE
  5
60E
330
2
100
AcDbEntity
  8
CENTER
100
AcDbLine
 10
365.7933550144142
 20
126.6084370051656
 30
0.0
 11
412.7742510144142
 21
126.6084370051656
 31
0.0
  0
ARC
  5
60F
330
2
100
AcDbEntity
  8
0
100
AcDbCircle
 10
389.2838030144142
 20
113.6084370051656
 30
0.0
 40
42.5
100
AcDbArc
 50
90.0
 51
160.2501069999997
  0
ARC
  5
610
330
2
100
AcDbEntity
  8
0
100
AcDbCircle
 10
389.2838030144142
 20
113.6084370051656
 30
0.0
 40
42.5
100
AcDbArc
 50
199.7498930000001
 51
270.0
  0
CIRCLE
  5
611
330
2
100
AcDbEntity
  8
0
100
AcDbCircle
 10
389.2838030144142
 20
126.6084370051656
 30
0.0
 40
20.0
  0
LINE
  5
612
330
2
100
AcDbEntity
  8
0
100
AcDbLine
 10
349.1965990144142
 20
69.3079920051656
 30
0.0
 11
389.2838030144142
 21
68.60842200516561
 31
0.0
  0
LINE
  5
613
330
2
100
AcDbEntity
  8
0
100
AcDbLine
 10
349.1965080144142
 20
157.9085170051656
 30
0.0
 11
389.2838030144142
 21
158.6084370051656
 31
0.0
  0
LINE
  5
614
330
2
100
AcDbEntity
  8
CENTER
100
AcDbLine
 10
269.6978784361025
 20
332.8396622044298
 30
0.0
 11
35.74781243610255
 21
332.8396622044298
 31
0.0
  0
LINE
  5
615
330
2
100
AcDbEntity
  8
0
100
AcDbLine
 10
216.6477384361025
 20
303.8396622044298
 30
0.0
 11
106.6477394361025
 21
303.8396622044298
 31
0.0
  0
LINE
  5
616
330
2
100
AcDbEntity
  8
0
100
AcDbLine
 10
106.6477394361025
 20
287.8396622044298
 30
0.0
 11
225.6477384361025
 21
287.8396622044298
 31
0.0
  0
LINE
  5
617
330
2
100
AcDbEntity
  8
0
100
AcDbLine
 10
106.6476594361025
 20
79.19912000516564
 30
0.0
 11
216.1435574361025
 21
79.19912000516564
 31
0.0
  0
LINE
  5
618
330
2
100
AcDbEntity
  8
0
100
AcDbLine
 10
106.6476594361025
 20
148.0177390051656
 30
0.0
 11
216.1435574361025
 21
148.0177390051656
 31
0.0
  0
LINE
  5
619
330
2
100
AcDbEntity
  8
CENTER
100
AcDbLine
 10
32.74375343610255
 20
113.6084370051656
 30
0.0
 11
237.6889134361025
 21
113.6084370051656
 31
0.0
  0
LINE
  5
61A
330
2
100
AcDbEntity
  8
0
100
AcDbLine
 10
106.6476594361025
 20
68.60842200516564
 30
0.0
 11
225.6476614361025
 21
68.60842200516564
 31
0.0
  0
LINE
  5
61B
330
2
100
AcDbEntity
  8
0
100
AcDbLine
 10
106.6476594361025
 20
158.6084370051656
 30
0.0
 11
225.6476614361025
 21
158.6084370051656
 31
0.0
  0
LINE
  5
61C
330
2
100
AcDbEntity
  8
0
100
AcDbLine
 10
101.6476614361025
 20
142.1378260051656
 30
0.0
 11
101.6476614361025
 21
137.6378260051656
 31
0.0
  0
LINE
  5
61D
330
2
100
AcDbEntity
  8
0
100
AcDbLine
 10
100.1476614361025
 20
142.1378260051656
 30
0.0
 11
100.1476614361025
 21
137.6378260051656
 31
0.0
  0
LINE
  5
61E
330
2
100
AcDbEntity
  8
0
100
AcDbLine
 10
98.64766143610253
 20
142.1378260051656
 30
0.0
 11
98.64766143610253
 21
137.1222310051656
 31
0.0
  0
LINE
  5
620
330
2
100
AcDbEntity
  8
0
100
AcDbLine
 10
49.64766143610254
 20
155.6084370051656
 30
0.0
 11
49.64766143610254
 21
71.60842200516563
 31
0.0
  0
LINE
  5
621
330
2
100
AcDbEntity
  8
0
100
AcDbLine
 10
97.14766143610255
 20
160.6084370051656
 30
0.0
 11
97.14766143610255
 21
66.60842200516563
 31
0.0
  0
LINE
  5
622
330
2
100
AcDbEntity
  8
0
100
AcDbLine
 10
54.64766143610254
 20
66.60842200516563
 30
0.0
 11
97.14766143610255
 21
66.60842200516563
 31
0.0
  0
LINE
  5
623
330
2
100
AcDbEntity
  8
0
100
AcDbLine
 10
97.14766143610255
 20
84.60842200516564
 30
0.0
 11
53.17264743610254
 21
84.60842200516564
 31
0.0
  0
ARC
  5
624
330
2
100
AcDbEntity
  8
0
100
AcDbCircle
 10
54.64766143610254
 20
71.60842200516563
 30
0.0
 40
5.0
100
AcDbArc
 50
180.0
 51
270.0
  0
LINE
  5
625
330
2
100
AcDbEntity
  8
0
100
AcDbLine
 10
106.6476594361025
 20
158.6084370051656
 30
0.0
 11
106.6476594361025
 21
68.60842200516564
 31
0.0
  0
LINE
  5
626
330
2
100
AcDbEntity
  8
0
100
AcDbLine
 10
97.14766143610255
 20
68.60842200516564
 30
0.0
 11
106.6476594361025
 21
68.60842200516564
 31
0.0
  0
LINE
  5
627
330
2
100
AcDbEntity
  8
0
100
AcDbLine
 10
106.6476594361025
 20
79.19912000516564
 30
0.0
 11
97.14766143610255
 21
79.19912000516564
 31
0.0
  0
LINE
  5
628
330
2
100
AcDbEntity
  8
HOJO
100
AcDbLine
 10
100.1476614361025
 20
138.1378260051656
 30
0.0
 11
101.6476614361025
 21
137.6378260051656
 31
0.0
  0
LINE
  5
629
330
2
100
AcDbEntity
  8
HOJO
100
AcDbLine
 10
98.64766143610253
 20
137.1378260051656
 30
0.0
 11
100.1476614361025
 21
137.6378260051656
 31
0.0
  0
LINE
  5
62A
330
2
100
AcDbEntity
  8
0
100
AcDbLine
 10
54.64766143610257
 20
285.8396622044299
 30
0.0
 11
97.14766143610255
 21
285.8396622044299
 31
0.0
  0
LINE
  5
62B
330
2
100
AcDbEntity
  8
0
100
AcDbLine
 10
97.14766143610255
 20
303.8396622044298
 30
0.0
 11
53.17264743610252
 21
303.8396622044298
 31
0.0
  0
LINE
  5
62C
330
2
100
AcDbEntity
  8
0
100
AcDbLine
 10
54.64766143610254
 20
160.6084370051656
 30
0.0
 11
97.14766143610255
 21
160.6084370051656
 31
0.0
  0
LINE
  5
62D
330
2
100
AcDbEntity
  8
0
100
AcDbLine
 10
97.14766143610255
 20
142.6084370051656
 30
0.0
 11
53.17264743610254
 21
142.6084370051656
 31
0.0
  0
ARC
  5
62E
330
2
100
AcDbEntity
  8
0
100
AcDbCircle
 10
54.64766143610254
 20
155.6084370051656
 30
0.0
 40
5.0
100
AcDbArc
 50
90.0
 51
180.0
  0
ARC
  5
62F
330
2
100
AcDbEntity
  8
0
100
AcDbCircle
 10
54.64766143610257
 20
290.8396622044298
 30
0.0
 40
5.0
100
AcDbArc
 50
180.0
 51
270.0
  0
LINE
  5
633
330
2
100
AcDbEntity
  8
0
100
AcDbLine
 10
106.6476594361025
 20
148.0177390051656
 30
0.0
 11
97.14766143610255
 21
148.0177390051656
 31
0.0
  0
LINE
  5
634
330
2
100
AcDbEntity
  8
0
100
AcDbLine
 10
97.14766143610255
 20
158.6084370051656
 30
0.0
 11
106.6476594361025
 21
158.6084370051656
 31
0.0
  0
ARC
  5
635
330
2
100
AcDbEntity
  8
0
100
AcDbCircle
 10
97.14766143610255
 20
142.1378260051656
 30
0.0
 40
1.5
100
AcDbArc
 50
0.0
 51
90.0
  0
ARC
  5
636
330
2
100
AcDbEntity
  8
0
100
AcDbCircle
 10
97.14766143610255
 20
142.1378260051656
 30
0.0
 40
3.0
100
AcDbArc
 50
0.0
 51
90.0
  0
ARC
  5
637
330
2
100
AcDbEntity
  8
0
100
AcDbCircle
 10
97.14766143610255
 20
142.1378260051656
 30
0.0
 40
4.5
100
AcDbArc
 50
0.0
 51
90.0
  0
LINE
  5
63F
330
2
100
AcDbEntity
  8
0
100
AcDbLine
 10
106.6477394361025
 20
307.8396622044298
 30
0.0
 11
106.6477394361025
 21
287.8396622044298
 31
0.0
  0
LINE
  5
640
330
2
100
AcDbEntity
  8
0
100
AcDbLine
 10
106.6477394361025
 20
303.8396622044298
 30
0.0
 11
97.14766143610255
 21
303.8396622044298
 31
0.0
  0
LINE
  5
641
330
2
100
AcDbEntity
  8
0
100
AcDbLine
 10
97.14766143610255
 20
287.8396622044298
 30
0.0
 11
106.6477394361025
 21
287.8396622044298
 31
0.0
  0
LINE
  5
642
330
2
100
AcDbEntity
  8
0
100
AcDbLine
 10
101.6476614361025
 20
293.5698262044299
 30
0.0
 11
101.6476614361025
 21
289.0698262044299
 31
0.0
  0
LINE
  5
643
330
2
100
AcDbEntity
  8
0
100
AcDbLine
 10
100.1476614361025
 20
293.5698262044299
 30
0.0
 11
100.1476614361025
 21
289.0698262044299
 31
0.0
  0
LINE
  5
644
330
2
100
AcDbEntity
  8
0
100
AcDbLine
 10
98.64766143610253
 20
293.5698262044299
 30
0.0
 11
98.64766143610253
 21
288.5542322044298
 31
0.0
  0
LINE
  5
645
330
2
100
AcDbEntity
  8
HOJO
100
AcDbLine
 10
100.1476614361025
 20
289.5698262044298
 30
0.0
 11
101.6476614361025
 21
289.0698262044299
 31
0.0
  0
LINE
  5
646
330
2
100
AcDbEntity
  8
HOJO
100
AcDbLine
 10
98.64766143610253
 20
288.5698262044298
 30
0.0
 11
100.1476614361025
 21
289.0698262044299
 31
0.0
  0
ARC
  5
647
330
2
100
AcDbEntity
  8
0
100
AcDbCircle
 10
97.14766143610255
 20
293.5698262044299
 30
0.0
 40
1.5
100
AcDbArc
 50
0.0
 51
90.0
  0
ARC
  5
648
330
2
100
AcDbEntity
  8
0
100
AcDbCircle
 10
97.14766143610255
 20
293.5698262044299
 30
0.0
 40
3.0
100
AcDbArc
 50
0.0
 51
90.0
  0
ARC
  5
649
330
2
100
AcDbEntity
  8
0
100
AcDbCircle
 10
97.14766143610255
 20
293.5698262044299
 30
0.0
 40
4.5
100
AcDbArc
 50
0.0
 51
90.0
  0
ARC
  5
658
330
2
100
AcDbEntity
  8
0
100
AcDbCircle
 10
349.2838030144142
 20
139.7089320051656
 30
0.0
 40
7.0
100
AcDbArc
 50
135.5852049999996
 51
180.0
  0
LINE
  5
659
330
2
100
AcDbEntity
  8
0
100
AcDbLine
 10
344.2838030144142
 20
74.3072290051656
 30
0.0
 11
344.2838030144142
 21
152.9093410051656
 31
0.0
  0
LINE
  5
65A
330
2
100
AcDbEntity
  8
0
100
AcDbLine
 10
229.6476614361025
 20
107.6084220051656
 30
0.0
 11
229.6476614361025
 21
145.6084370051656
 31
0.0
  0
LINE
  5
65B
330
2
100
AcDbEntity
  8
0
100
AcDbLine
 10
216.6476614361025
 20
156.6084370051656
 30
0.0
 11
216.6476614361025
 21
70.60842200516564
 31
0.0
  0
LINE
  5
65C
330
2
100
AcDbEntity
  8
0
100
AcDbLine
 10
225.6476614361025
 20
158.6084370051656
 30
0.0
 11
225.6476614361025
 21
68.60842200516564
 31
0.0
  0
LINE
  5
65D
330
2
100
AcDbEntity
  8
HIDS
  6
SEKKEI_H
100
AcDbLine
 10
216.6476614361025
 20
72.35842200516564
 30
0.0
 11
225.6476614361025
 21
72.35842200516564
 31
0.0
  0
ARC
  5
65E
330
2
100
AcDbEntity
  8
0
100
AcDbCircle
 10
218.6476614361025
 20
70.60842200516564
 30
0.0
 40
2.0
100
AcDbArc
 50
180.0
 51
270.0
  0
LINE
  5
65F
330
2
100
AcDbEntity
  8
CENTER
100
AcDbLine
 10
199.0482854361025
 20
126.6084370051656
 30
0.0
 11
265.3899564361025
 21
126.6084370051656
 31
0.0
  0
LINE
  5
660
330
2
100
AcDbEntity
  8
CENTER
100
AcDbLine
 10
213.6476614361025
 20
75.60842200516564
 30
0.0
 11
228.5276584361025
 21
75.60842200516564
 31
0.0
  0
LINE
  5
661
330
2
100
AcDbEntity
  8
HIDS
  6
SEKKEI_H
100
AcDbLine
 10
216.6476614361025
 20
78.85842200516563
 30
0.0
 11
225.6476614361025
 21
78.85842200516563
 31
0.0
  0
ARC
  5
662
330
2
100
AcDbEntity
  8
0
100
AcDbCircle
 10
228.6476614361025
 20
107.6084220051656
 30
0.0
 40
1.0
100
AcDbArc
 50
270.0
 51
0.0
  0
ARC
  5
663
330
2
100
AcDbEntity
  8
0
100
AcDbCircle
 10
228.6476614361025
 20
107.6084220051656
 30
0.0
 40
1.0
100
AcDbArc
 50
270.0
 51
0.0
  0
LINE
  5
664
330
2
100
AcDbEntity
  8
0
100
AcDbLine
 10
228.6476614361025
 20
106.6084220051656
 30
0.0
 11
225.6476614361025
 21
106.6084220051656
 31
0.0
  0
LINE
  5
665
330
2
100
AcDbEntity
  8
0
100
AcDbLine
 10
237.1476614361025
 20
124.1084370051656
 30
0.0
 11
258.6476614361025
 21
124.1084370051656
 31
0.0
  0
LINE
  5
666
330
2
100
AcDbEntity
  8
0
100
AcDbLine
 10
237.1476614361025
 20
129.1084370051656
 30
0.0
 11
258.6476614361025
 21
129.1084370051656
 31
0.0
  0
LINE
  5
667
330
2
100
AcDbEntity
  8
0
100
AcDbLine
 10
231.6476614361025
 20
119.1084370051656
 30
0.0
 11
258.6476614361025
 21
119.1084370051656
 31
0.0
  0
LINE
  5
668
330
2
100
AcDbEntity
  8
0
100
AcDbLine
 10
231.6476614361025
 20
134.1084370051656
 30
0.0
 11
258.6476614361025
 21
134.1084370051656
 31
0.0
  0
ARC
  5
669
330
2
100
AcDbEntity
  8
0
100
AcDbCircle
 10
237.1476614361025
 20
126.6084370051656
 30
0.0
 40
2.5
100
AcDbArc
 50
180.0
 51
270.0
  0
LINE
  5
66A
330
2
100
AcDbEntity
  8
0
100
AcDbLine
 10
231.6476614361025
 20
135.1084370051656
 30
0.0
 11
231.6476614361025
 21
118.1084370051656
 31
0.0
  0
LINE
  5
66B
330
2
100
AcDbEntity
  8
0
100
AcDbLine
 10
229.6476614361025
 20
118.1084370051656
 30
0.0
 11
231.6476614361025
 21
118.1084370051656
 31
0.0
  0
LINE
  5
66C
330
2
100
AcDbEntity
  8
0
100
AcDbLine
 10
229.6476614361025
 20
135.1084370051656
 30
0.0
 11
231.6476614361025
 21
135.1084370051656
 31
0.0
  0
ARC
  5
66D
330
2
100
AcDbEntity
  8
0
100
AcDbCircle
 10
237.1476614361025
 20
126.6084370051656
 30
0.0
 40
2.5
100
AcDbArc
 50
90.0
 51
180.0
  0
LINE
  5
66E
330
2
100
AcDbEntity
  8
0
100
AcDbLine
 10
258.6476614361025
 20
134.1084370051656
 30
0.0
 11
258.6476614361025
 21
119.1084370051656
 31
0.0
  0
LINE
  5
66F
330
2
100
AcDbEntity
  8
CENTER
100
AcDbLine
 10
351.2838030144142
 20
70.51467200516561
 30
0.0
 11
351.2838030144142
 21
81.53968100516555
 31
0.0
  0
CIRCLE
  5
670
330
2
100
AcDbEntity
  8
0
100
AcDbCircle
 10
351.2838030144142
 20
75.6084220051656
 30
0.0
 40
3.25
  0
ARC
  5
671
330
2
100
AcDbEntity
  8
0
100
AcDbCircle
 10
349.2838030144142
 20
74.30726000516563
 30
0.0
 40
5.0
100
AcDbArc
 50
180.0
 51
269.0004879999996
  0
ARC
  5
672
330
2
100
AcDbEntity
  8
0
100
AcDbCircle
 10
363.1833090144142
 20
73.60842200516561
 30
0.0
 40
7.0
100
AcDbArc
 50
224.9998930000001
 51
270.0
  0
LINE
  5
673
330
2
100
AcDbEntity
  8
0
100
AcDbLine
 10
357.7332050144142
 20
69.15902000516564
 30
0.0
 11
358.2334950144142
 21
68.65866900516562
 31
0.0
  0
LINE
  5
674
330
2
100
AcDbEntity
  8
0
100
AcDbLine
 10
342.2838030144142
 20
139.7089320051656
 30
0.0
 11
342.2838030144142
 21
87.50791300516562
 31
0.0
  0
LINE
  5
675
330
2
100
AcDbEntity
  8
0
100
AcDbLine
 10
349.2838030144142
 20
127.9698270051655
 30
0.0
 11
349.2838030144142
 21
99.24701800516562
 31
0.0
  0
LINE
  5
676
330
2
100
AcDbEntity
  8
CENTER
100
AcDbLine
 10
346.2338000144142
 20
75.6084220051656
 30
0.0
 11
355.9463090144142
 21
75.6084220051656
 31
0.0
  0
ARC
  5
677
330
2
100
AcDbEntity
  8
0
100
AcDbCircle
 10
349.2838030144142
 20
87.50797400516569
 30
0.0
 40
7.0
100
AcDbArc
 50
180.0
 51
224.4154970000002
  0
LINE
  5
678
330
2
100
AcDbEntity
  8
0
100
AcDbLine
 10
376.5338030144142
 20
91.84928200516571
 30
0.0
 11
377.7636010144142
 21
90.6084220051656
 31
0.0
  0
LINE
  5
679
330
2
100
AcDbEntity
  8
0
100
AcDbLine
 10
377.6046040144142
 20
98.00840100516564
 30
0.0
 11
377.6046040144142
 21
92.49935200516564
 31
0.0
  0
LINE
  5
67A
330
2
100
AcDbEntity
  8
0
100
AcDbLine
 10
376.5338030144142
 20
98.68892800516562
 30
0.0
 11
376.5338030144142
 21
91.84928200516571
 31
0.0
  0
LINE
  5
67B
330
2
100
AcDbEntity
  8
0
100
AcDbLine
 10
377.6911980144142
 20
100.1709220051656
 30
0.0
 11
376.5338030144142
 21
98.68892800516562
 31
0.0
  0
LINE
  5
67C
330
2
100
AcDbEntity
  8
CENTER
100
AcDbLine
 10
214.8476584361025
 20
151.6084370051656
 30
0.0
 11
227.3276624361025
 21
151.6084370051656
 31
0.0
  0
LINE
  5
67D
330
2
100
AcDbEntity
  8
HIDS
  6
SEKKEI_H
100
AcDbLine
 10
216.6476614361025
 20
148.3584370051656
 30
0.0
 11
225.6476614361025
 21
148.3584370051656
 31
0.0
  0
LINE
  5
67E
330
2
100
AcDbEntity
  8
HIDS
  6
SEKKEI_H
100
AcDbLine
 10
216.6476614361025
 20
154.8584370051656
 30
0.0
 11
225.6476614361025
 21
154.8584370051656
 31
0.0
  0
ARC
  5
67F
330
2
100
AcDbEntity
  8
0
100
AcDbCircle
 10
218.6476614361025
 20
156.6084370051656
 30
0.0
 40
2.0
100
AcDbArc
 50
90.0
 51
180.0
  0
ARC
  5
680
330
2
100
AcDbEntity
  8
0
100
AcDbCircle
 10
228.6476614361025
 20
145.6084370051656
 30
0.0
 40
1.0
100
AcDbArc
 50
0.0
 51
90.0
  0
LINE
  5
681
330
2
100
AcDbEntity
  8
0
100
AcDbLine
 10
228.6476614361025
 20
146.6084370051656
 30
0.0
 11
225.6476614361025
 21
146.6084370051656
 31
0.0
  0
LINE
  5
682
330
2
100
AcDbEntity
  8
HIDS
  6
SEKKEI_H
100
AcDbLine
 10
216.6476614361025
 20
291.5896622044298
 30
0.0
 11
225.6476614361025
 21
291.5896622044298
 31
0.0
  0
LINE
  5
683
330
2
100
AcDbEntity
  8
CENTER
100
AcDbLine
 10
213.6476614361025
 20
294.8396622044299
 30
0.0
 11
228.5276584361025
 21
294.8396622044299
 31
0.0
  0
LINE
  5
684
330
2
100
AcDbEntity
  8
HIDS
  6
SEKKEI_H
100
AcDbLine
 10
216.6476614361025
 20
298.0896622044298
 30
0.0
 11
225.6476614361025
 21
298.0896622044298
 31
0.0
  0
LINE
  5
685
330
2
100
AcDbEntity
  8
0
100
AcDbLine
 10
216.6477384361025
 20
303.8396622044298
 30
0.0
 11
216.6477384361025
 21
289.8396622044298
 31
0.0
  0
ARC
  5
686
330
2
100
AcDbEntity
  8
0
100
AcDbCircle
 10
218.6477384361025
 20
289.8396622044298
 30
0.0
 40
2.0
100
AcDbArc
 50
180.0
 51
270.0
  0
LINE
  5
687
330
2
100
AcDbEntity
  8
0
100
AcDbLine
 10
234.6476614361025
 20
325.7686792044298
 30
0.0
 11
258.6476614361025
 21
325.7686792044298
 31
0.0
  0
LINE
  5
688
330
2
100
AcDbEntity
  8
0
100
AcDbLine
 10
234.6476614361025
 20
323.3396622044299
 30
0.0
 11
258.6476614361025
 21
323.3396622044299
 31
0.0
  0
LINE
  5
689
330
2
100
AcDbEntity
  8
0
100
AcDbLine
 10
231.6476614361025
 20
340.3396622044299
 30
0.0
 11
258.6476614361025
 21
340.3396622044299
 31
0.0
  0
LINE
  5
68A
330
2
100
AcDbEntity
  8
0
100
AcDbLine
 10
234.6476614361025
 20
325.7686792044298
 30
0.0
 11
234.6476614361025
 21
323.3396622044299
 31
0.0
  0
ARC
  5
68B
330
2
100
AcDbEntity
  8
0
100
AcDbCircle
 10
228.6476614361025
 20
313.8396622044298
 30
0.0
 40
1.0
100
AcDbArc
 50
270.0
 51
0.0
  0
LINE
  5
68C
330
2
100
AcDbEntity
  8
0
100
AcDbLine
 10
228.6476614361025
 20
312.8396622044299
 30
0.0
 11
225.6476614361025
 21
312.8396622044299
 31
0.0
  0
LINE
  5
68D
330
2
100
AcDbEntity
  8
0
100
AcDbLine
 10
229.6476614361025
 20
324.3396622044298
 30
0.0
 11
231.6476614361025
 21
324.3396622044298
 31
0.0
  0
LINE
  5
68E
330
2
100
AcDbEntity
  8
0
100
AcDbLine
 10
231.6476614361025
 20
325.3396622044299
 30
0.0
 11
234.6476614361025
 21
325.3396622044299
 31
0.0
  0
LINE
  5
68F
330
2
100
AcDbEntity
  8
0
100
AcDbLine
 10
258.6476614361025
 20
340.3396622044299
 30
0.0
 11
258.6476614361025
 21
323.3396622044299
 31
0.0
  0
LINE
  5
690
330
2
100
AcDbEntity
  8
CENTER
100
AcDbLine
 10
345.7088060144142
 20
151.6084370051656
 30
0.0
 11
356.7338000144142
 21
151.6084370051656
 31
0.0
  0
ARC
  5
691
330
2
100
AcDbEntity
  8
0
100
AcDbCircle
 10
349.2838030144142
 20
152.9093410051656
 30
0.0
 40
5.0
100
AcDbArc
 50
91.00061000000012
 51
180.0
  0
LINE
  5
692
330
2
100
AcDbEntity
  8
CENTER
100
AcDbLine
 10
351.2838030144142
 20
157.1397180051656
 30
0.0
 11
351.2838030144142
 21
145.0647360051656
 31
0.0
  0
CIRCLE
  5
693
330
2
100
AcDbEntity
  8
0
100
AcDbCircle
 10
351.2838030144142
 20
151.6084370051656
 30
0.0
 40
3.25
  0
ARC
  5
694
330
2
100
AcDbEntity
  8
0
100
AcDbCircle
 10
363.1833090144142
 20
153.6084370051656
 30
0.0
 40
7.0
100
AcDbArc
 50
90.0
 51
135.0001979999998
  0
LINE
  5
695
330
2
100
AcDbEntity
  8
0
100
AcDbLine
 10
357.7330070144142
 20
158.0576260051656
 30
0.0
 11
358.2334950144142
 21
158.5582360051656
 31
0.0
  0
ARC
  5
696
330
2
100
AcDbEntity
  8
0
100
AcDbCircle
 10
429.2838030144142
 20
139.7089320051656
 30
0.0
 40
7.0
100
AcDbArc
 50
0.0
 51
44.41553100000023
  0
ARC
  5
697
330
2
100
AcDbEntity
  8
0
100
AcDbCircle
 10
389.2838030144142
 20
113.6084370051656
 30
0.0
 40
42.5
100
AcDbArc
 50
19.74990099999923
 51
90.0
  0
LINE
  5
698
330
2
100
AcDbEntity
  8
0
100
AcDbLine
 10
434.2838030144142
 20
74.30738200516566
 30
0.0
 11
434.2838030144142
 21
152.9094320051656
 31
0.0
  0
LINE
  5
699
330
2
100
AcDbEntity
  8
CENTER
100
AcDbLine
 10
389.2838030144142
 20
59.57717200516561
 30
0.0
 11
389.2838030144142
 21
210.4959520051655
 31
0.0
  0
LINE
  5
69A
330
2
100
AcDbEntity
  8
CENTER
100
AcDbLine
 10
427.2838030144142
 20
70.51467200516561
 30
0.0
 11
427.2838030144142
 21
81.14592800516561
 31
0.0
  0
ARC
  5
69B
330
2
100
AcDbEntity
  8
0
100
AcDbCircle
 10
389.2838030144142
 20
113.6084370051656
 30
0.0
 40
42.5
100
AcDbArc
 50
270.0
 51
340.2500920000001
  0
CIRCLE
  5
69C
330
2
100
AcDbEntity
  8
0
100
AcDbCircle
 10
427.2838030144142
 20
75.6084220051656
 30
0.0
 40
3.25
  0
LINE
  5
69D
330
2
100
AcDbEntity
  8
0
100
AcDbLine
 10
429.3709920144142
 20
69.30814500516567
 30
0.0
 11
389.2838030144142
 21
68.60842200516561
 31
0.0
  0
ARC
  5
69E
330
2
100
AcDbEntity
  8
0
100
AcDbCircle
 10
415.3842980144142
 20
73.60842200516561
 30
0.0
 40
7.0
100
AcDbArc
 50
270.0
 51
315.0
  0
LINE
  5
69F
330
2
100
AcDbEntity
  8
0
100
AcDbLine
 10
420.3340960144142
 20
68.65866900516562
 30
0.0
 11
420.8344930144142
 21
69.15914200516557
 31
0.0
  0
ARC
  5
6A0
330
2
100
AcDbEntity
  8
0
100
AcDbCircle
 10
429.2838030144142
 20
74.30738200516566
 30
0.0
 40
5.0
100
AcDbArc
 50
271.000183
 51
0.0
  0
LINE
  5
6A1
330
2
100
AcDbEntity
  8
CENTER
100
AcDbLine
 10
433.5150960144142
 20
75.6084220051656
 30
0.0
 11
421.7025960144142
 21
75.6084220051656
 31
0.0
  0
LINE
  5
6A2
330
2
100
AcDbEntity
  8
0
100
AcDbLine
 10
400.5645950144143
 20
90.6084220051656
 30
0.0
 11
402.0338030144142
 21
90.6084220051656
 31
0.0
  0
LINE
  5
6A3
330
2
100
AcDbEntity
  8
0
100
AcDbLine
 10
400.1857040144142
 20
95.16504800516566
 30
0.0
 11
401.7655080144142
 21
91.60451600516569
 31
0.0
  0
ARC
  5
6A4
330
2
100
AcDbEntity
  8
0
100
AcDbCircle
 10
399.4812980144142
 20
97.61843200516569
 30
0.0
 40
2.55249
100
AcDbArc
 50
286.0181269999996
 51
90.00350999999964
  0
LINE
  5
6A5
330
2
100
AcDbEntity
  8
0
100
AcDbLine
 10
395.6588030144142
 20
91.60451600516569
 30
0.0
 11
395.6588030144142
 21
90.6084220051656
 31
0.0
  0
LINE
  5
6A6
330
2
100
AcDbEntity
  8
0
100
AcDbLine
 10
397.6633960144143
 20
91.60451600516569
 30
0.0
 11
397.6633960144143
 21
90.6084220051656
 31
0.0
  0
LINE
  5
6A7
330
2
100
AcDbEntity
  8
0
100
AcDbLine
 10
400.5645950144143
 20
91.60451600516569
 30
0.0
 11
400.5645950144143
 21
90.6084220051656
 31
0.0
  0
LINE
  5
6A8
330
2
100
AcDbEntity
  8
0
100
AcDbLine
 10
390.2549950144142
 20
91.65432100516557
 30
0.0
 11
390.2549950144142
 21
90.6084220051656
 31
0.0
  0
LINE
  5
6A9
330
2
100
AcDbEntity
  8
0
100
AcDbLine
 10
388.1881000144142
 20
91.65432100516557
 30
0.0
 11
388.1881000144142
 21
90.6084220051656
 31
0.0
  0
ARC
  5
6AA
330
2
100
AcDbEntity
  8
0
100
AcDbCircle
 10
379.9951980144142
 20
93.72121500516561
 30
0.0
 40
1.992188
100
AcDbArc
 50
270.0002139999998
 51
0.0001089999998967
  0
LINE
  5
6AB
330
2
100
AcDbEntity
  8
0
100
AcDbLine
 10
382.9088030144142
 20
96.16164500516561
 30
0.0
 11
382.9088030144142
 21
90.6084220051656
 31
0.0
  0
LINE
  5
6AC
330
2
100
AcDbEntity
  8
0
100
AcDbLine
 10
388.1881000144142
 20
90.6084220051656
 30
0.0
 11
390.2549950144142
 21
90.6084220051656
 31
0.0
  0
LINE
  5
6AD
330
2
100
AcDbEntity
  8
0
100
AcDbLine
 10
381.9874010144142
 20
91.37069000516556
 30
0.0
 11
381.0788010144142
 21
90.6084220051656
 31
0.0
  0
LINE
  5
6AE
330
2
100
AcDbEntity
  8
0
100
AcDbLine
 10
381.9874010144142
 20
90.6084220051656
 30
0.0
 11
382.9088030144142
 21
90.6084220051656
 31
0.0
  0
LINE
  5
6AF
330
2
100
AcDbEntity
  8
0
100
AcDbLine
 10
381.9874010144142
 20
91.37069000516556
 30
0.0
 11
381.9874010144142
 21
90.6084220051656
 31
0.0
  0
LINE
  5
6B0
330
2
100
AcDbEntity
  8
0
100
AcDbLine
 10
397.6633960144143
 20
90.6084220051656
 30
0.0
 11
395.6588030144142
 21
90.6084220051656
 31
0.0
  0
LINE
  5
6B1
330
2
100
AcDbEntity
  8
0
100
AcDbLine
 10
386.0963030144142
 20
100.1709220051656
 30
0.0
 11
392.4713030144142
 21
100.1709220051656
 31
0.0
  0
LINE
  5
6B2
330
2
100
AcDbEntity
  8
0
100
AcDbLine
 10
380.3190050144142
 20
96.16164500516561
 30
0.0
 11
382.9088030144142
 21
96.16164500516561
 31
0.0
  0
LINE
  5
6B3
330
2
100
AcDbEntity
  8
0
100
AcDbLine
 10
381.9874010144142
 20
98.32946100516563
 30
0.0
 11
381.9874010144142
 21
98.17873500516567
 31
0.0
  0
LINE
  5
6B4
330
2
100
AcDbEntity
  8
0
100
AcDbLine
 10
388.6611990144142
 20
99.00051200516566
 30
0.0
 11
387.1463060144142
 21
99.00051200516566
 31
0.0
  0
LINE
  5
6B5
330
2
100
AcDbEntity
  8
0
100
AcDbLine
 10
387.1463060144142
 20
99.00051200516566
 30
0.0
 11
386.8038990144142
 21
98.17873500516567
 31
0.0
  0
LINE
  5
6B6
330
2
100
AcDbEntity
  8
0
100
AcDbLine
 10
388.1881000144142
 20
91.65432100516557
 30
0.0
 11
388.6611990144142
 21
91.65432100516557
 31
0.0
  0
LINE
  5
6B7
330
2
100
AcDbEntity
  8
0
100
AcDbLine
 10
386.0963030144142
 20
98.17873500516567
 30
0.0
 11
386.8038990144142
 21
98.17873500516567
 31
0.0
  0
LINE
  5
6B8
330
2
100
AcDbEntity
  8
0
100
AcDbLine
 10
380.3190050144142
 20
96.16164500516561
 30
0.0
 11
380.3190050144142
 21
95.11574600516565
 31
0.0
  0
LINE
  5
6B9
330
2
100
AcDbEntity
  8
0
100
AcDbLine
 10
381.9874010144142
 20
95.11574600516565
 30
0.0
 11
381.9874010144142
 21
93.72121500516561
 31
0.0
  0
LINE
  5
6BA
330
2
100
AcDbEntity
  8
0
100
AcDbLine
 10
382.9088030144142
 20
99.13778000516561
 30
0.0
 11
382.9088030144142
 21
98.17873500516567
 31
0.0
  0
LINE
  5
6BB
330
2
100
AcDbEntity
  8
0
100
AcDbLine
 10
379.9951980144142
 20
91.72904300516563
 30
0.0
 11
378.3358970144143
 21
91.72904300516563
 31
0.0
  0
LINE
  5
6BC
330
2
100
AcDbEntity
  8
0
100
AcDbLine
 10
381.9874010144142
 20
94.11965300516568
 30
0.0
 11
381.9874010144142
 21
94.91654300516563
 31
0.0
  0
LINE
  5
6BD
330
2
100
AcDbEntity
  8
0
100
AcDbLine
 10
381.9874010144142
 20
95.11574600516565
 30
0.0
 11
380.3190050144142
 21
95.11574600516565
 31
0.0
  0
LINE
  5
6BE
330
2
100
AcDbEntity
  8
0
100
AcDbLine
 10
381.9874010144142
 20
98.17873500516567
 30
0.0
 11
382.9088030144142
 21
98.17873500516567
 31
0.0
  0
LINE
  5
6BF
330
2
100
AcDbEntity
  8
0
100
AcDbLine
 10
381.9778030144142
 20
100.1709220051656
 30
0.0
 11
382.9088030144142
 21
99.13778000516561
 31
0.0
  0
LINE
  5
6C0
330
2
100
AcDbEntity
  8
0
100
AcDbLine
 10
381.9874010144142
 20
98.32946100516563
 30
0.0
 11
381.3842060144142
 21
98.90090300516568
 31
0.0
  0
LINE
  5
6C1
330
2
100
AcDbEntity
  8
0
100
AcDbLine
 10
381.3963060144142
 20
98.90090300516568
 30
0.0
 11
378.3244070144141
 21
98.90090300516568
 31
0.0
  0
LINE
  5
6C2
330
2
100
AcDbEntity
  8
0
100
AcDbLine
 10
388.6611990144142
 20
99.00051200516566
 30
0.0
 11
388.6611990144142
 21
91.65432100516557
 31
0.0
  0
LINE
  5
6C3
330
2
100
AcDbEntity
  8
0
100
AcDbLine
 10
386.0963030144142
 20
98.17873500516567
 30
0.0
 11
386.0963030144142
 21
100.1709220051656
 31
0.0
  0
LINE
  5
6C4
330
2
100
AcDbEntity
  8
0
100
AcDbLine
 10
397.2276050144142
 20
95.07839300516559
 30
0.0
 11
399.2681020144142
 21
95.07839300516559
 31
0.0
  0
LINE
  5
6C5
330
2
100
AcDbEntity
  8
0
100
AcDbLine
 10
397.2276050144142
 20
96.07427300516565
 30
0.0
 11
399.6823020144142
 21
96.07427300516565
 31
0.0
  0
LINE
  5
6C6
330
2
100
AcDbEntity
  8
0
100
AcDbLine
 10
397.2276050144142
 20
99.00051200516566
 30
0.0
 11
400.2025040144141
 21
98.99857400516566
 31
0.0
  0
LINE
  5
6C7
330
2
100
AcDbEntity
  8
0
100
AcDbLine
 10
395.6588030144142
 20
99.00051200516566
 30
0.0
 11
396.1319020144142
 21
99.00051200516566
 31
0.0
  0
LINE
  5
6C8
330
2
100
AcDbEntity
  8
0
100
AcDbLine
 10
389.8566030144142
 20
99.00051200516566
 30
0.0
 11
391.5175980144142
 21
99.00051200516566
 31
0.0
  0
LINE
  5
6C9
330
2
100
AcDbEntity
  8
0
100
AcDbLine
 10
391.5175980144142
 20
99.00051200516566
 30
0.0
 11
391.8064010144142
 21
98.17873500516567
 31
0.0
  0
LINE
  5
6CA
330
2
100
AcDbEntity
  8
0
100
AcDbLine
 10
400.5645950144143
 20
91.60451600516569
 30
0.0
 11
400.7630970144142
 21
91.60451600516569
 31
0.0
  0
LINE
  5
6CB
330
2
100
AcDbEntity
  8
0
100
AcDbLine
 10
397.2276050144142
 20
91.60451600516569
 30
0.0
 11
397.6633960144143
 21
91.60451600516569
 31
0.0
  0
LINE
  5
6CC
330
2
100
AcDbEntity
  8
0
100
AcDbLine
 10
395.6588030144142
 20
91.60451600516569
 30
0.0
 11
396.1319020144142
 21
91.60451600516569
 31
0.0
  0
LINE
  5
6CD
330
2
100
AcDbEntity
  8
0
100
AcDbLine
 10
399.2681020144142
 20
95.07839300516559
 30
0.0
 11
400.7630970144142
 21
91.60451600516569
 31
0.0
  0
LINE
  5
6CE
330
2
100
AcDbEntity
  8
0
100
AcDbLine
 10
397.2276050144142
 20
99.00051200516566
 30
0.0
 11
397.2276050144142
 21
96.07427300516565
 31
0.0
  0
LINE
  5
6CF
330
2
100
AcDbEntity
  8
0
100
AcDbLine
 10
395.6588030144142
 20
100.1709220051656
 30
0.0
 11
395.6588030144142
 21
99.00051200516566
 31
0.0
  0
LINE
  5
6D0
330
2
100
AcDbEntity
  8
0
100
AcDbLine
 10
395.6588030144142
 20
100.1709220051656
 30
0.0
 11
399.4812980144142
 21
100.1709220051656
 31
0.0
  0
ARC
  5
6D1
330
2
100
AcDbEntity
  8
0
100
AcDbCircle
 10
399.4812980144142
 20
97.61843200516569
 30
0.0
 40
1.557191999999999
100
AcDbArc
 50
277.4147260000003
 51
62.41184999999976
  0
LINE
  5
6D2
330
2
100
AcDbEntity
  8
0
100
AcDbLine
 10
391.8064010144142
 20
98.17873500516567
 30
0.0
 11
392.4713030144142
 21
98.17873500516567
 31
0.0
  0
LINE
  5
6D3
330
2
100
AcDbEntity
  8
0
100
AcDbLine
 10
389.8566030144142
 20
91.65432100516557
 30
0.0
 11
390.2549950144142
 21
91.65432100516557
 31
0.0
  0
LINE
  5
6D4
330
2
100
AcDbEntity
  8
0
100
AcDbLine
 10
397.2276050144142
 20
95.07839300516559
 30
0.0
 11
397.2276050144142
 21
91.60451600516569
 31
0.0
  0
LINE
  5
6D5
330
2
100
AcDbEntity
  8
0
100
AcDbLine
 10
396.1319020144142
 20
99.00051200516566
 30
0.0
 11
396.1319020144142
 21
91.60451600516569
 31
0.0
  0
LINE
  5
6D6
330
2
100
AcDbEntity
  8
0
100
AcDbLine
 10
389.8566030144142
 20
99.00051200516566
 30
0.0
 11
389.8566030144142
 21
91.65432100516557
 31
0.0
  0
LINE
  5
6D7
330
2
100
AcDbEntity
  8
0
100
AcDbLine
 10
392.4713030144142
 20
98.17873500516567
 30
0.0
 11
392.4713030144142
 21
100.1709220051656
 31
0.0
  0
LINE
  5
6D8
330
2
100
AcDbEntity
  8
0
100
AcDbLine
 10
402.0338030144142
 20
91.60451600516569
 30
0.0
 11
402.0338030144142
 21
90.6084220051656
 31
0.0
  0
LINE
  5
6D9
330
2
100
AcDbEntity
  8
0
100
AcDbLine
 10
401.7655080144142
 20
91.60451600516569
 30
0.0
 11
402.0338030144142
 21
91.60451600516569
 31
0.0
  0
ARC
  5
6DA
330
2
100
AcDbEntity
  8
0
100
AcDbCircle
 10
389.2838030144142
 20
126.6084370051656
 30
0.0
 40
7.5
100
AcDbArc
 50
199.4712070000002
 51
160.5287929999997
  0
LINE
  5
6DB
330
2
100
AcDbEntity
  8
0
100
AcDbLine
 10
384.7838030144142
 20
124.1084370051656
 30
0.0
 11
384.7838030144142
 21
129.1084370051656
 31
0.0
  0
LINE
  5
6DC
330
2
100
AcDbEntity
  8
0
100
AcDbLine
 10
379.7838030144142
 20
129.1084370051656
 30
0.0
 11
379.7838030144142
 21
124.1084370051656
 31
0.0
  0
LINE
  5
6DD
330
2
100
AcDbEntity
  8
0
100
AcDbLine
 10
379.7838030144142
 20
124.1084370051656
 30
0.0
 11
384.7838030144142
 21
124.1084370051656
 31
0.0
  0
LINE
  5
6DE
330
2
100
AcDbEntity
  8
0
100
AcDbLine
 10
379.7838030144142
 20
129.1084370051656
 30
0.0
 11
384.7838030144142
 21
129.1084370051656
 31
0.0
  0
LINE
  5
6DF
330
2
100
AcDbEntity
  8
0
100
AcDbLine
 10
436.2838030144142
 20
87.50792800516558
 30
0.0
 11
436.2838030144142
 21
139.7089320051656
 31
0.0
  0
LINE
  5
6E0
330
2
100
AcDbEntity
  8
0
100
AcDbLine
 10
429.2838030144142
 20
127.9698270051655
 30
0.0
 11
429.2838030144142
 21
99.24701800516562
 31
0.0
  0
ARC
  5
6E1
330
2
100
AcDbEntity
  8
0
100
AcDbCircle
 10
429.2838030144142
 20
87.50791300516562
 30
0.0
 40
7.0
100
AcDbArc
 50
315.584808
 51
0.0
  0
LINE
  5
6E2
330
2
100
AcDbEntity
  8
CENTER
100
AcDbLine
 10
433.2526140144142
 20
151.6084370051656
 30
0.0
 11
421.7025960144142
 21
151.6084370051656
 31
0.0
  0
CIRCLE
  5
6E3
330
2
100
AcDbEntity
  8
0
100
AcDbCircle
 10
427.2838030144142
 20
151.6084370051656
 30
0.0
 40
3.25
  0
LINE
  5
6E4
330
2
100
AcDbEntity
  8
0
100
AcDbLine
 10
429.3709920144142
 20
157.9087300051656
 30
0.0
 11
389.2838030144142
 21
158.6084370051656
 31
0.0
  0
ARC
  5
6E5
330
2
100
AcDbEntity
  8
0
100
AcDbCircle
 10
415.3842980144142
 20
153.6084370051656
 30
0.0
 40
7.0
100
AcDbArc
 50
45.00014099999995
 51
90.0
  0
LINE
  5
6E6
330
2
100
AcDbEntity
  8
0
100
AcDbLine
 10
420.8344930144142
 20
158.0577170051656
 30
0.0
 11
420.3340960144142
 21
158.5582360051656
 31
0.0
  0
LINE
  5
6E7
330
2
100
AcDbEntity
  8
CENTER
100
AcDbLine
 10
427.2838030144142
 20
157.4021390051656
 30
0.0
 11
427.2838030144142
 21
145.8522120051656
 31
0.0
  0
ARC
  5
6E8
330
2
100
AcDbEntity
  8
0
100
AcDbCircle
 10
429.2838030144142
 20
152.9094320051656
 30
0.0
 40
5.0
100
AcDbArc
 50
0.0
 51
89.00009199999994
  0
TEXT
  5
6E9
330
2
100
AcDbEntity
  8
TITLE
100
AcDbText
 10
290.6388610266332
 20
311.9178576199534
 30
0.0
 40
5.0
  1
GFMN-15-5~60-T60WK
100
AcDbText
  0
TEXT
  5
6EA
330
2
100
AcDbEntity
  8
TITLE
100
AcDbText
 10
290.6388610266332
 20
322.0545989543929
 30
0.0
 40
5.0
  1
GFMN-15-40~60-T60K
100
AcDbText
  0
TEXT
  5
6EB
330
2
100
AcDbEntity
  8
TITLE
100
AcDbText
 10
290.6091317596655
 20
364.382607783563
 30
0.0
 40
5.0
  1
GFMN-15-160~240-T25K
100
AcDbText
  0
TEXT
  5
6EC
330
2
100
AcDbEntity
  8
TITLE
100
AcDbText
 10
412.3924124024672
 20
341.7313967223823
 30
0.0
 40
5.0
  1
GFMN-15-80~120-S40K
100
AcDbText
  0
TEXT
  5
6ED
330
2
100
AcDbEntity
  8
TITLE
100
AcDbText
 10
290.6091317596655
 20
343.3557769557087
 30
0.0
 40
5.0
  1
GFMN-15-80~120-T40K
100
AcDbText
  0
TEXT
  5
6EE
330
2
100
AcDbEntity
  8
TITLE
100
AcDbText
 10
412.3924124024672
 20
363.7860460023958
 30
0.0
 40
5.0
  1
GFMN-15-160~240-S25K
100
AcDbText
  0
LINE
  5
6EF
330
2
100
AcDbEntity
  8
0
100
AcDbLine
 10
216.6477384361025
 20
361.8396622044298
 30
0.0
 11
106.6477394361025
 21
361.8396622044298
 31
0.0
  0
LINE
  5
6F0
330
2
100
AcDbEntity
  8
0
100
AcDbLine
 10
106.6477394361025
 20
377.8396622044299
 30
0.0
 11
225.6477384361025
 21
377.8396622044299
 31
0.0
  0
LINE
  5
6F1
330
2
100
AcDbEntity
  8
0
100
AcDbLine
 10
54.64766143610257
 20
379.8396622044299
 30
0.0
 11
97.14766143610255
 21
379.8396622044299
 31
0.0
  0
LINE
  5
6F2
330
2
100
AcDbEntity
  8
0
100
AcDbLine
 10
97.14766143610255
 20
361.8396622044298
 30
0.0
 11
53.17264743610252
 21
361.8396622044298
 31
0.0
  0
ARC
  5
6F3
330
2
100
AcDbEntity
  8
0
100
AcDbCircle
 10
54.64766143610257
 20
374.8396622044298
 30
0.0
 40
5.0
100
AcDbArc
 50
90.0
 51
180.0
  0
LINE
  5
6F4
330
2
100
AcDbEntity
  8
0
100
AcDbLine
 10
106.6477394361025
 20
361.8396622044298
 30
0.0
 11
97.14766143610255
 21
361.8396622044298
 31
0.0
  0
LINE
  5
6F5
330
2
100
AcDbEntity
  8
0
100
AcDbLine
 10
97.14766143610255
 20
377.8396622044299
 30
0.0
 11
106.6477394361025
 21
377.8396622044299
 31
0.0
  0
LINE
  5
6F6
330
2
100
AcDbEntity
  8
CENTER
100
AcDbLine
 10
214.8476584361024
 20
370.8396622044298
 30
0.0
 11
227.3276624361025
 21
370.8396622044298
 31
0.0
  0
LINE
  5
6F7
330
2
100
AcDbEntity
  8
HIDS
  6
SEKKEI_H
100
AcDbLine
 10
216.6476614361025
 20
367.5896622044299
 30
0.0
 11
225.6476614361025
 21
367.5896622044299
 31
0.0
  0
LINE
  5
6F8
330
2
100
AcDbEntity
  8
HIDS
  6
SEKKEI_H
100
AcDbLine
 10
216.6476614361025
 20
374.0896622044298
 30
0.0
 11
225.6476614361025
 21
374.0896622044298
 31
0.0
  0
LINE
  5
6F9
330
2
100
AcDbEntity
  8
0
100
AcDbLine
 10
216.6477384361025
 20
361.8396622044298
 30
0.0
 11
216.6477384361025
 21
375.8396622044299
 31
0.0
  0
ARC
  5
6FA
330
2
100
AcDbEntity
  8
0
100
AcDbCircle
 10
218.6477384361025
 20
375.8396932044298
 30
0.0
 40
2.0
100
AcDbArc
 50
90.0
 51
180.0
  0
LINE
  5
6FB
330
2
100
AcDbEntity
  8
0
100
AcDbLine
 10
229.6476614361025
 20
341.3396622044298
 30
0.0
 11
231.6476614361025
 21
341.3396622044298
 31
0.0
  0
ARC
  5
6FC
330
2
100
AcDbEntity
  8
0
100
AcDbCircle
 10
228.6476614361025
 20
351.8396622044298
 30
0.0
 40
1.0
100
AcDbArc
 50
0.0
 51
90.0
  0
LINE
  5
6FD
330
2
100
AcDbEntity
  8
0
100
AcDbLine
 10
228.6476614361025
 20
352.8396622044299
 30
0.0
 11
225.6476614361025
 21
352.8396622044299
 31
0.0
  0
TEXT
  5
6FE
330
2
100
AcDbEntity
  8
TITLE
100
AcDbText
 10
290.6091317596655
 20
353.8368170051548
 30
0.0
 40
5.0
  1
GFMN-15-160~240-T25WK
100
AcDbText
  0
TEXT
  5
6FF
330
2
100
AcDbEntity
  8
TITLE
100
AcDbText
 10
290.6091317596655
 20
332.3514738097659
 30
0.0
 40
5.0
  1
GFMN-15-80~120-T40WK
100
AcDbText
  0
TEXT
  5
700
330
2
100
AcDbEntity
  8
TITLE
100
AcDbText
 10
412.3924124024672
 20
352.7817425050579
 30
0.0
 40
5.0
  1
GFMN-15-160~240-S25WK
100
AcDbText
  0
TEXT
  5
701
330
2
100
AcDbEntity
  8
TITLE
100
AcDbText
 10
412.3924124024672
 20
332.3088814551553
 30
0.0
 40
5.0
  1
GFMN-15-80~120-S40WK
100
AcDbText
  0
TEXT
  5
702
330
2
100
AcDbEntity
  8
TITLE
100
AcDbText
 10
412.4221416694349
 20
310.7948485330134
 30
0.0
 40
5.0
  1
GFMN-15-5~60-S60WK
100
AcDbText
  0
TEXT
  5
703
330
2
100
AcDbEntity
  8
TITLE
100
AcDbText
 10
290.9790372875591
 20
291.6645445027946
 30
0.0
 40
5.0
  1
GFMN-15-5~30-T90WK
100
AcDbText
  0
TEXT
  5
704
330
2
100
AcDbEntity
  8
TITLE
100
AcDbText
 10
412.4221416694349
 20
290.6399971879435
 30
0.0
 40
5.0
  1
GFMN-15-5~30-S90WK
100
AcDbText
  0
LINE
  5
1983
330
2
100
AcDbEntity
  8
0
100
AcDbLine
 10
414.2837880144142
 20
204.1084520051656
 30
0.0
 11
414.2837880144142
 21
162.1084370051655
 31
0.0
  0
LINE
  5
1985
330
2
100
AcDbEntity
  8
0
100
AcDbLine
 10
364.2838030144142
 20
204.1084520051656
 30
0.0
 11
364.2838030144142
 21
162.1084370051655
 31
0.0
  0
LINE
  5
1986
330
2
100
AcDbEntity
  8
0
100
AcDbLine
 10
147.6476594361025
 20
204.1084520051656
 30
0.0
 11
147.6476594361025
 21
162.1084370051655
 31
0.0
  0
LINE
  5
1987
330
2
100
AcDbEntity
  8
0
100
AcDbLine
 10
97.64765243610254
 20
204.1084520051656
 30
0.0
 11
97.64765243610254
 21
162.1084370051655
 31
0.0
  0
LINE
  5
1988
330
2
100
AcDbEntity
  8
CENTER
100
AcDbLine
 10
122.6476594361025
 20
153.7189410051656
 30
0.0
 11
122.6476594361025
 21
210.4959520051655
 31
0.0
  0
LINE
  5
198B
330
2
100
AcDbEntity
  8
CENTER
100
AcDbLine
 10
92.60405245489398
 20
188.1084370051656
 30
0.0
 11
152.691266417311
 21
188.1084370051656
 31
0.0
  0
LINE
  5
198C
330
2
100
AcDbEntity
  8
0
100
AcDbLine
 10
97.64765243610254
 20
173.1084370051656
 30
0.0
 11
147.6476594361025
 21
173.1084370051656
 31
0.0
  0
LINE
  5
198D
330
2
100
AcDbEntity
  8
0
100
AcDbLine
 10
97.64765243610254
 20
162.1084370051655
 30
0.0
 11
147.6476594361025
 21
162.1084370051655
 31
0.0
  0
LINE
  5
198E
330
2
100
AcDbEntity
  8
0
100
AcDbLine
 10
97.64765243610254
 20
172.1084370051656
 30
0.0
 11
147.6476594361025
 21
172.1084370051656
 31
0.0
  0
LINE
  5
198F
330
2
100
AcDbEntity
  8
0
100
AcDbLine
 10
99.14765243610254
 20
160.1084370051656
 30
0.0
 11
145.6476594361025
 21
160.1084370051656
 31
0.0
  0
LINE
  5
1991
330
2
100
AcDbEntity
  8
0
100
AcDbLine
 10
99.14765243610254
 20
160.1084370051656
 30
0.0
 11
99.14765243610254
 21
158.6084370051656
 31
0.0
  0
LINE
  5
1992
330
2
100
AcDbEntity
  8
0
100
AcDbLine
 10
97.64765243610254
 20
162.1084370051655
 30
0.0
 11
99.64765243610253
 21
160.1084370051656
 31
0.0
  0
LINE
  5
1993
330
2
100
AcDbEntity
  8
0
100
AcDbLine
 10
96.77265243610253
 20
177.6084370051655
 30
0.0
 11
98.77265243610253
 21
177.6084370051655
 31
0.0
  0
LINE
  5
1994
330
2
100
AcDbEntity
  8
0
100
AcDbLine
 10
145.6476594361025
 20
160.1084370051656
 30
0.0
 11
147.6476594361025
 21
162.1084370051655
 31
0.0
  0
LINE
  5
1995
330
2
100
AcDbEntity
  8
0
100
AcDbLine
 10
145.1476594361025
 20
160.1084370051656
 30
0.0
 11
145.1476594361025
 21
158.6084370051656
 31
0.0
  0
LINE
  5
1996
330
2
100
AcDbEntity
  8
CENTER
100
AcDbLine
 10
359.2401960332056
 20
188.1084370051655
 30
0.0
 11
419.3274099956227
 21
188.1084370051655
 31
0.0
  0
LINE
  5
1997
330
2
100
AcDbEntity
  8
0
100
AcDbLine
 10
364.2838030144142
 20
173.1084370051655
 30
0.0
 11
414.2837880144142
 21
173.1084370051655
 31
0.0
  0
LINE
  5
1998
330
2
100
AcDbEntity
  8
0
100
AcDbLine
 10
364.2838030144142
 20
162.1084370051655
 30
0.0
 11
414.2837880144142
 21
162.1084370051655
 31
0.0
  0
LINE
  5
1999
330
2
100
AcDbEntity
  8
0
100
AcDbLine
 10
364.2838030144142
 20
172.1084370051655
 30
0.0
 11
414.2837880144142
 21
172.1084370051655
 31
0.0
  0
LINE
  5
199B
330
2
100
AcDbEntity
  8
0
100
AcDbLine
 10
366.2838030144142
 20
160.1084370051655
 30
0.0
 11
412.2837880144142
 21
160.1084370051655
 31
0.0
  0
LINE
  5
199C
330
2
100
AcDbEntity
  8
0
100
AcDbLine
 10
364.2838030144142
 20
162.1084370051655
 30
0.0
 11
366.2838030144142
 21
160.1084370051655
 31
0.0
  0
LINE
  5
199D
330
2
100
AcDbEntity
  8
0
100
AcDbLine
 10
366.7838030144142
 20
160.1084370051655
 30
0.0
 11
366.7838030144142
 21
158.2155893460756
 31
0.0
  0
LINE
  5
199E
330
2
100
AcDbEntity
  8
0
100
AcDbLine
 10
411.7837880144142
 20
160.1084370051655
 30
0.0
 11
411.7837880144142
 21
158.2157081210227
 31
0.0
  0
LINE
  5
199F
330
2
100
AcDbEntity
  8
0
100
AcDbLine
 10
412.2837880144142
 20
160.1084370051655
 30
0.0
 11
414.2837880144142
 21
162.1084370051655
 31
0.0
  0
LINE
  5
19A1
330
2
100
AcDbEntity
  8
0
100
AcDbLine
 10
145.6474614361025
 20
350.3396622044299
 30
0.0
 11
145.6474614361025
 21
315.3396622044299
 31
0.0
  0
LINE
  5
19A2
330
2
100
AcDbEntity
  8
0
100
AcDbLine
 10
147.6476594361025
 20
355.8396622044298
 30
0.0
 11
147.6474614361025
 21
309.8396622044298
 31
0.0
  0
LINE
  5
19A3
330
2
100
AcDbEntity
  8
CENTER
100
AcDbLine
 10
122.6476594361025
 20
302.7960552232213
 30
0.0
 11
122.6476594361025
 21
362.8832691856383
 31
0.0
  0
LINE
  5
19A4
330
2
100
AcDbEntity
  8
0
100
AcDbLine
 10
99.64755243610255
 20
350.3396622044299
 30
0.0
 11
99.64755243610255
 21
315.3396622044299
 31
0.0
  0
LINE
  5
19A5
330
2
100
AcDbEntity
  8
0
100
AcDbLine
 10
97.64755243610256
 20
309.8396622044298
 30
0.0
 11
97.64755243610256
 21
355.8396622044298
 31
0.0
  0
LINE
  5
19A6
330
2
100
AcDbEntity
  8
0
100
AcDbLine
 10
99.64755243610255
 20
307.8396622044298
 30
0.0
 11
145.6474614361025
 21
307.8396622044298
 31
0.0
  0
LINE
  5
19A7
330
2
100
AcDbEntity
  8
0
100
AcDbLine
 10
140.1474614361025
 20
309.8396622044298
 30
0.0
 11
105.1475524361025
 21
309.8396622044298
 31
0.0
  0
LINE
  5
19A8
330
2
100
AcDbEntity
  8
0
100
AcDbLine
 10
105.1476594361025
 20
204.1084520051656
 30
0.0
 11
140.1476594361025
 21
204.1084520051656
 31
0.0
  0
LINE
  5
19A9
330
2
100
AcDbEntity
  8
0
100
AcDbLine
 10
102.4855682521291
 20
205.1084520051655
 30
0.0
 11
142.8097506200761
 21
205.1084520051656
 31
0.0
  0
LINE
  5
19AB
330
2
100
AcDbEntity
  8
0
100
AcDbLine
 10
105.1476594361025
 20
202.6084520051656
 30
0.0
 11
97.64765943610251
 21
202.6084520051656
 31
0.0
  0
LINE
  5
19AC
330
2
100
AcDbEntity
  8
0
100
AcDbLine
 10
105.1476594361025
 20
204.6084520051656
 30
0.0
 11
104.0926368257228
 21
204.6084520051656
 31
0.0
  0
ARC
  5
19AD
330
2
100
AcDbEntity
  8
0
100
AcDbCircle
 10
103.2546701896954
 20
203.614564729412
 30
0.0
 40
1.3
100
AcDbArc
 50
5.000000000000026
 51
74.11914999171549
  0
LINE
  5
19AE
330
2
100
AcDbEntity
  8
0
100
AcDbLine
 10
104.6476594361025
 20
202.6084520051656
 30
0.0
 11
104.5497232972145
 21
203.7278671949839
 31
0.0
  0
LINE
  5
19AF
330
2
100
AcDbEntity
  8
0
100
AcDbLine
 10
97.64765943610251
 20
202.6084520051656
 30
0.0
 11
97.74559557499044
 21
203.7278671949839
 31
0.0
  0
LINE
  5
19B0
330
2
100
AcDbEntity
  8
0
100
AcDbLine
 10
96.77265243610253
 20
198.6084370051655
 30
0.0
 11
98.77265243610253
 21
198.6084370051655
 31
0.0
  0
SPLINE
  5
19B1
330
2
100
AcDbEntity
  8
0
100
AcDbSpline
210
0.0
220
0.0
230
1.0
 70
     8
 71
     3
 72
    11
 73
     7
 74
     0
 42
0.0000000001
 43
0.0000000001
 40
0.0
 40
0.0
 40
0.0
 40
0.0
 40
0.4601364636755307
 40
1.04988694485363
 40
1.713742833862792
 40
2.320347933405154
 40
2.320347933405154
 40
2.320347933405154
 40
2.320347933405179
 10
101.4351594365575
 20
203.6914520051656
 30
0.0
 10
101.4575770936654
 20
203.8464754448455
 30
0.0
 10
101.5087271488985
 20
204.200190262763
 30
0.0
 10
101.9446123104322
 20
204.6249179343647
 30
0.0
 10
102.5496630254396
 20
204.8441051143305
 30
0.0
 10
102.9748476496154
 20
204.7751138147199
 30
0.0
 10
103.1773992592665
 20
204.7608935425432
 30
0.0
  0
LINE
  5
19B2
330
2
100
AcDbEntity
  8
0
100
AcDbLine
 10
103.1773992592665
 20
204.7608935425432
 30
0.0
 11
103.1976594361024
 21
204.9718702880048
 31
0.0
  0
LINE
  5
19B3
330
2
100
AcDbEntity
  8
0
100
AcDbLine
 10
100.8601594356474
 20
203.6914520051656
 30
0.0
 11
101.4351594365575
 21
203.6914520051656
 31
0.0
  0
LINE
  5
19B4
330
2
100
AcDbEntity
  8
0
100
AcDbLine
 10
99.80975062007605
 20
205.1084520051656
 30
0.0
 11
98.64765943610251
 21
205.1084520051656
 31
0.0
  0
ARC
  5
19B5
330
2
100
AcDbEntity
  8
0
100
AcDbCircle
 10
99.04064868250959
 20
203.614564729412
 30
0.0
 40
1.3
100
AcDbArc
 50
105.8808500082777
 51
174.9999999999999
  0
LINE
  5
19B6
330
2
100
AcDbEntity
  8
0
100
AcDbLine
 10
99.11791961293836
 20
204.7608935425432
 30
0.0
 11
99.09765943610246
 21
204.9718702880048
 31
0.0
  0
LINE
  5
19B7
330
2
100
AcDbEntity
  8
0
100
AcDbLine
 10
98.64765943610251
 20
205.1084520051656
 30
0.0
 11
97.64765943610251
 21
204.1084520051656
 31
0.0
  0
ARC
  5
19B8
330
2
100
AcDbEntity
  8
0
100
AcDbCircle
 10
101.1476594361025
 20
196.2084520051656
 30
0.0
 40
9.0
100
AcDbArc
 50
74.11914999171549
 51
105.8808500082777
  0
SPLINE
  5
19B9
330
2
100
AcDbEntity
  8
0
100
AcDbSpline
210
0.0
220
0.0
230
1.0
 70
     8
 71
     3
 72
    11
 73
     7
 74
     0
 42
0.0000000001
 43
0.0000000001
 40
0.0
 40
0.0
 40
0.0
 40
0.0
 40
0.4601364636755307
 40
1.04988694485363
 40
1.713742833862792
 40
2.320347933405154
 40
2.320347933405154
 40
2.320347933405154
 40
2.320347933405179
 10
100.8601594356474
 20
203.6914520051656
 30
0.0
 10
100.8377417785396
 20
203.8464754448455
 30
0.0
 10
100.7865917233062
 20
204.200190262763
 30
0.0
 10
100.3507065617727
 20
204.6249179343647
 30
0.0
 10
99.74565584676525
 20
204.8441051143305
 30
0.0
 10
99.32047122258945
 20
204.7751138147199
 30
0.0
 10
99.11791961293836
 20
204.7608935425432
 30
0.0
  0
LINE
  5
19BA
330
2
100
AcDbEntity
  8
0
100
AcDbLine
 10
105.1476594361025
 20
202.6084520051656
 30
0.0
 11
105.1476594361025
 21
204.6084520051656
 31
0.0
  0
LINE
  5
19BB
330
2
100
AcDbEntity
  8
0
100
AcDbLine
 10
105.6476594361025
 20
205.1084520051656
 30
0.0
 11
105.1476594361025
 21
204.6084520051656
 31
0.0
  0
ARC
  5
19BC
330
2
100
AcDbEntity
  8
0
100
AcDbCircle
 10
101.1475524361025
 20
311.3395702044298
 30
0.0
 40
4.0
100
AcDbArc
 50
0.0
 51
90.0
  0
CIRCLE
  5
19BD
330
2
100
AcDbEntity
  8
0
100
AcDbCircle
 10
101.1475524361025
 20
311.3395702044298
 30
0.0
 40
3.500000000000028
  0
ARC
  5
19BE
330
2
100
AcDbEntity
  8
0
100
AcDbCircle
 10
103.1772524361024
 20
313.3692702044298
 30
0.0
 40
1.742199999999999
100
AcDbArc
 50
179.9986903345002
 51
270.0013096654997
  0
ARC
  5
19BF
330
2
100
AcDbEntity
  8
0
100
AcDbCircle
 10
101.1475524361025
 20
311.3395702044298
 30
0.0
 40
2.049999999999998
100
AcDbArc
 50
0.0
 51
8.061960083981649
  0
ARC
  5
19C0
330
2
100
AcDbEntity
  8
0
100
AcDbCircle
 10
101.1475524361025
 20
311.3395702044298
 30
0.0
 40
2.049999999999998
100
AcDbArc
 50
90.0
 51
98.06196008398188
  0
ARC
  5
19C1
330
2
100
AcDbEntity
  8
0
100
AcDbCircle
 10
101.1475524361025
 20
311.3395702044298
 30
0.0
 40
2.049999999999998
100
AcDbArc
 50
81.93803991601813
 51
90.0
  0
ARC
  5
19C2
330
2
100
AcDbEntity
  8
0
100
AcDbCircle
 10
103.1772524361024
 20
309.3098702044299
 30
0.0
 40
1.742199999999999
100
AcDbArc
 50
89.99869033450025
 51
180.0013096654997
  0
ARC
  5
19C3
330
2
100
AcDbEntity
  8
0
100
AcDbCircle
 10
101.1475524361025
 20
311.3395702044298
 30
0.0
 40
2.049999999999998
100
AcDbArc
 50
351.9380399160183
 51
0.0
  0
ARC
  5
19C4
330
2
100
AcDbEntity
  8
0
100
AcDbCircle
 10
101.1475524361025
 20
311.3395702044298
 30
0.0
 40
2.049999999999998
100
AcDbArc
 50
261.9380399160181
 51
270.0
  0
ARC
  5
19C5
330
2
100
AcDbEntity
  8
0
100
AcDbCircle
 10
101.1475524361025
 20
311.3395702044298
 30
0.0
 40
2.049999999999998
100
AcDbArc
 50
270.0
 51
278.0619600839818
  0
ARC
  5
19C6
330
2
100
AcDbEntity
  8
0
100
AcDbCircle
 10
101.1475524361025
 20
311.3395702044298
 30
0.0
 40
2.049999999999998
100
AcDbArc
 50
171.9380399160183
 51
180.0
  0
LINE
  5
19C7
330
2
100
AcDbEntity
  8
0
100
AcDbLine
 10
97.64755243610256
 20
309.8396622044298
 30
0.0
 11
99.64755243610255
 21
307.8396622044298
 31
0.0
  0
ARC
  5
19C8
330
2
100
AcDbEntity
  8
0
100
AcDbCircle
 10
101.1475524361025
 20
311.3395702044298
 30
0.0
 40
2.049999999999998
100
AcDbArc
 50
180.0
 51
188.0619600839816
  0
ARC
  5
19C9
330
2
100
AcDbEntity
  8
0
100
AcDbCircle
 10
99.11785243610239
 20
313.3692702044298
 30
0.0
 40
1.742199999999999
100
AcDbArc
 50
269.9986903345067
 51
0.0013096654997424
  0
ARC
  5
19CA
330
2
100
AcDbEntity
  8
0
100
AcDbCircle
 10
99.11785243610239
 20
309.3098702044299
 30
0.0
 40
1.742199999999999
100
AcDbArc
 50
359.9986903345002
 51
90.00130966549322
  0
LINE
  5
19CB
330
2
100
AcDbEntity
  8
0
100
AcDbLine
 10
101.1475524361025
 20
315.3396622044299
 30
0.0
 11
97.64755243610256
 21
315.3396622044299
 31
0.0
  0
LINE
  5
19CC
330
2
100
AcDbEntity
  8
0
100
AcDbLine
 10
105.1475524361025
 20
311.3395702044298
 30
0.0
 11
105.1475524361025
 21
307.8396622044298
 31
0.0
  0
LINE
  5
19CD
330
2
100
AcDbEntity
  8
0
100
AcDbLine
 10
147.6476594361025
 20
202.6084520051656
 30
0.0
 11
147.5497232972147
 21
203.7278671949839
 31
0.0
  0
LINE
  5
19CE
330
2
100
AcDbEntity
  8
0
100
AcDbLine
 10
140.1476594361025
 20
202.6084520051656
 30
0.0
 11
140.1476594361025
 21
204.6084520051656
 31
0.0
  0
LINE
  5
19CF
330
2
100
AcDbEntity
  8
0
100
AcDbLine
 10
140.6476594361026
 20
202.6084520051656
 30
0.0
 11
140.7455955749904
 21
203.7278671949839
 31
0.0
  0
LINE
  5
19D0
330
2
100
AcDbEntity
  8
0
100
AcDbLine
 10
140.1476594361025
 20
202.6084520051656
 30
0.0
 11
147.6476594361025
 21
202.6084520051656
 31
0.0
  0
LINE
  5
19D1
330
2
100
AcDbEntity
  8
0
100
AcDbLine
 10
146.6476594361025
 20
205.1084520051656
 30
0.0
 11
147.6476594361025
 21
204.1084520051656
 31
0.0
  0
ARC
  5
19D2
330
2
100
AcDbEntity
  8
0
100
AcDbCircle
 10
146.2546701896954
 20
203.614564729412
 30
0.0
 40
1.3
100
AcDbArc
 50
5.000000000000026
 51
74.11914999171549
  0
SPLINE
  5
19D3
330
2
100
AcDbEntity
  8
0
100
AcDbSpline
210
0.0
220
0.0
230
1.0
 70
     8
 71
     3
 72
    11
 73
     7
 74
     0
 42
0.0000000001
 43
0.0000000001
 40
0.0
 40
0.0
 40
0.0
 40
0.0
 40
0.4601364636755307
 40
1.04988694485363
 40
1.713742833862792
 40
2.320347933405154
 40
2.320347933405154
 40
2.320347933405154
 40
2.320347933405179
 10
144.4351594365576
 20
203.6914520051656
 30
0.0
 10
144.4575770936655
 20
203.8464754448455
 30
0.0
 10
144.5087271488987
 20
204.200190262763
 30
0.0
 10
144.9446123104324
 20
204.6249179343647
 30
0.0
 10
145.5496630254397
 20
204.8441051143305
 30
0.0
 10
145.9748476496157
 20
204.7751138147199
 30
0.0
 10
146.1773992592666
 20
204.7608935425432
 30
0.0
  0
LINE
  5
19D4
330
2
100
AcDbEntity
  8
0
100
AcDbLine
 10
144.4351594365576
 20
203.6914520051656
 30
0.0
 11
143.8601594356476
 21
203.6914520051656
 31
0.0
  0
LINE
  5
19D5
330
2
100
AcDbEntity
  8
0
100
AcDbLine
 10
146.1773992592666
 20
204.7608935425432
 30
0.0
 11
146.1976594361027
 21
204.9718702880048
 31
0.0
  0
LINE
  5
19D6
330
2
100
AcDbEntity
  8
0
100
AcDbLine
 10
145.4855682521291
 20
205.1084520051656
 30
0.0
 11
146.6476594361025
 21
205.1084520051656
 31
0.0
  0
LINE
  5
19D7
330
2
100
AcDbEntity
  8
0
100
AcDbLine
 10
139.6476594361025
 20
205.1084520051656
 30
0.0
 11
140.1476594361025
 21
204.6084520051656
 31
0.0
  0
LINE
  5
19D8
330
2
100
AcDbEntity
  8
0
100
AcDbLine
 10
140.1476594361025
 20
204.6084520051656
 30
0.0
 11
141.2026820464821
 21
204.6084520051656
 31
0.0
  0
ARC
  5
19D9
330
2
100
AcDbEntity
  8
0
100
AcDbCircle
 10
142.0406486825095
 20
203.614564729412
 30
0.0
 40
1.3
100
AcDbArc
 50
105.8808500082777
 51
174.9999999999999
  0
LINE
  5
19DA
330
2
100
AcDbEntity
  8
0
100
AcDbLine
 10
142.1179196129385
 20
204.7608935425432
 30
0.0
 11
142.0976594361025
 21
204.9718702880048
 31
0.0
  0
SPLINE
  5
19DB
330
2
100
AcDbEntity
  8
0
100
AcDbSpline
210
0.0
220
0.0
230
1.0
 70
     8
 71
     3
 72
    11
 73
     7
 74
     0
 42
0.0000000001
 43
0.0000000001
 40
0.0
 40
0.0
 40
0.0
 40
0.0
 40
0.4601364636755307
 40
1.04988694485363
 40
1.713742833862792
 40
2.320347933405154
 40
2.320347933405154
 40
2.320347933405154
 40
2.320347933405179
 10
143.8601594356476
 20
203.6914520051656
 30
0.0
 10
143.8377417785397
 20
203.8464754448455
 30
0.0
 10
143.7865917233064
 20
204.200190262763
 30
0.0
 10
143.3507065617728
 20
204.6249179343647
 30
0.0
 10
142.7456558467654
 20
204.8441051143305
 30
0.0
 10
142.3204712225895
 20
204.7751138147199
 30
0.0
 10
142.1179196129385
 20
204.7608935425432
 30
0.0
  0
ARC
  5
19DC
330
2
100
AcDbEntity
  8
0
100
AcDbCircle
 10
144.1476594361026
 20
196.2084520051656
 30
0.0
 40
9.0
100
AcDbArc
 50
74.11914999171549
 51
105.8808500082777
  0
CIRCLE
  5
19DD
330
2
100
AcDbEntity
  8
0
100
AcDbCircle
 10
144.1476594361025
 20
311.3395702044298
 30
0.0
 40
3.500000000000028
  0
ARC
  5
19DE
330
2
100
AcDbEntity
  8
0
100
AcDbCircle
 10
144.1476594361025
 20
311.3395702044298
 30
0.0
 40
4.0
100
AcDbArc
 50
90.0
 51
180.0
  0
LINE
  5
19DF
330
2
100
AcDbEntity
  8
0
100
AcDbLine
 10
145.6474614361025
 20
307.8396622044298
 30
0.0
 11
147.6474614361025
 21
309.8396622044298
 31
0.0
  0
LINE
  5
19E0
330
2
100
AcDbEntity
  8
0
100
AcDbLine
 10
147.6474614361025
 20
309.8396622044298
 30
0.0
 11
145.6474614361025
 21
307.8396622044298
 31
0.0
  0
ARC
  5
19E1
330
2
100
AcDbEntity
  8
0
100
AcDbCircle
 10
146.1773594361024
 20
313.3692702044298
 30
0.0
 40
1.742199999999999
100
AcDbArc
 50
179.9986903345002
 51
270.0013096654997
  0
ARC
  5
19E2
330
2
100
AcDbEntity
  8
0
100
AcDbCircle
 10
144.1476594361025
 20
311.3395702044298
 30
0.0
 40
2.049999999999998
100
AcDbArc
 50
0.0
 51
8.061960083981649
  0
ARC
  5
19E3
330
2
100
AcDbEntity
  8
0
100
AcDbCircle
 10
144.1476594361025
 20
311.3395702044298
 30
0.0
 40
2.049999999999998
100
AcDbArc
 50
90.0
 51
98.06196008398188
  0
ARC
  5
19E4
330
2
100
AcDbEntity
  8
0
100
AcDbCircle
 10
144.1476594361025
 20
311.3395702044298
 30
0.0
 40
2.049999999999998
100
AcDbArc
 50
81.93803991601813
 51
90.0
  0
ARC
  5
19E5
330
2
100
AcDbEntity
  8
0
100
AcDbCircle
 10
146.1773594361024
 20
309.3098702044299
 30
0.0
 40
1.742199999999999
100
AcDbArc
 50
89.99869033450025
 51
180.0013096654997
  0
ARC
  5
19E6
330
2
100
AcDbEntity
  8
0
100
AcDbCircle
 10
144.1476594361025
 20
311.3395702044298
 30
0.0
 40
2.049999999999998
100
AcDbArc
 50
351.9380399160183
 51
0.0
  0
ARC
  5
19E7
330
2
100
AcDbEntity
  8
0
100
AcDbCircle
 10
144.1476594361025
 20
311.3395702044298
 30
0.0
 40
2.049999999999998
100
AcDbArc
 50
261.9380399160181
 51
270.0
  0
ARC
  5
19E8
330
2
100
AcDbEntity
  8
0
100
AcDbCircle
 10
144.1476594361025
 20
311.3395702044298
 30
0.0
 40
2.049999999999998
100
AcDbArc
 50
270.0
 51
278.0619600839818
  0
ARC
  5
19E9
330
2
100
AcDbEntity
  8
0
100
AcDbCircle
 10
144.1476594361025
 20
311.3395702044298
 30
0.0
 40
2.049999999999998
100
AcDbArc
 50
171.9380399160183
 51
180.0
  0
ARC
  5
19EA
330
2
100
AcDbEntity
  8
0
100
AcDbCircle
 10
144.1476594361025
 20
311.3395702044298
 30
0.0
 40
2.049999999999998
100
AcDbArc
 50
180.0
 51
188.0619600839816
  0
LINE
  5
19EB
330
2
100
AcDbEntity
  8
0
100
AcDbLine
 10
140.1474614361025
 20
311.3395702044298
 30
0.0
 11
140.1474614361025
 21
307.8396622044298
 31
0.0
  0
ARC
  5
19EC
330
2
100
AcDbEntity
  8
0
100
AcDbCircle
 10
142.1179594361023
 20
313.3692702044298
 30
0.0
 40
1.742199999999999
100
AcDbArc
 50
269.9986903345067
 51
0.0013096654997424
  0
ARC
  5
19ED
330
2
100
AcDbEntity
  8
0
100
AcDbCircle
 10
142.1179594361023
 20
309.3098702044299
 30
0.0
 40
1.742199999999999
100
AcDbArc
 50
359.9986903345002
 51
90.00130966549322
  0
LINE
  5
19EE
330
2
100
AcDbEntity
  8
0
100
AcDbLine
 10
144.1474614361025
 20
315.3396622044299
 30
0.0
 11
147.6474614361025
 21
315.3396622044299
 31
0.0
  0
LINE
  5
19F0
330
2
100
AcDbEntity
  8
0
100
AcDbLine
 10
99.64755243610255
 20
357.8396622044298
 30
0.0
 11
145.6474614361025
 21
357.8396622044298
 31
0.0
  0
LINE
  5
19F1
330
2
100
AcDbEntity
  8
0
100
AcDbLine
 10
140.1474614361025
 20
355.8396622044298
 30
0.0
 11
105.1475524361025
 21
355.8396622044298
 31
0.0
  0
ARC
  5
19F2
330
2
100
AcDbEntity
  8
0
100
AcDbCircle
 10
101.1475524361025
 20
354.3396622044298
 30
0.0
 40
4.0
100
AcDbArc
 50
270.0
 51
0.0
  0
LINE
  5
19F3
330
2
100
AcDbEntity
  8
0
100
AcDbLine
 10
101.1475524361025
 20
350.3396622044299
 30
0.0
 11
97.64755243610256
 21
350.3396622044299
 31
0.0
  0
ARC
  5
19F4
330
2
100
AcDbEntity
  8
0
100
AcDbCircle
 10
101.1475524361025
 20
354.3396622044298
 30
0.0
 40
2.049999999999998
100
AcDbArc
 50
90.0
 51
98.06196008398188
  0
ARC
  5
19F5
330
2
100
AcDbEntity
  8
0
100
AcDbCircle
 10
101.1475524361025
 20
354.3396622044298
 30
0.0
 40
2.049999999999998
100
AcDbArc
 50
81.93803991601813
 51
90.0
  0
LINE
  5
19F6
330
2
100
AcDbEntity
  8
0
100
AcDbLine
 10
97.64755243610256
 20
355.8396622044298
 30
0.0
 11
99.64755243610255
 21
357.8396622044298
 31
0.0
  0
LINE
  5
19F7
330
2
100
AcDbEntity
  8
0
100
AcDbLine
 10
97.64755243610256
 20
355.8396622044298
 30
0.0
 11
99.64755243610255
 21
357.8396622044298
 31
0.0
  0
ARC
  5
19F8
330
2
100
AcDbEntity
  8
0
100
AcDbCircle
 10
103.1772524361024
 20
352.3099622044298
 30
0.0
 40
1.742199999999999
100
AcDbArc
 50
89.99869033450025
 51
180.0013096654997
  0
ARC
  5
19F9
330
2
100
AcDbEntity
  8
0
100
AcDbCircle
 10
101.1475524361025
 20
354.3396622044298
 30
0.0
 40
2.049999999999998
100
AcDbArc
 50
351.9380399160183
 51
0.0
  0
ARC
  5
19FA
330
2
100
AcDbEntity
  8
0
100
AcDbCircle
 10
101.1475524361025
 20
354.3396622044298
 30
0.0
 40
2.049999999999998
100
AcDbArc
 50
0.0
 51
8.061960083981649
  0
ARC
  5
19FB
330
2
100
AcDbEntity
  8
0
100
AcDbCircle
 10
101.1475524361025
 20
354.3396622044298
 30
0.0
 40
2.049999999999998
100
AcDbArc
 50
261.9380399160181
 51
270.0
  0
ARC
  5
19FC
330
2
100
AcDbEntity
  8
0
100
AcDbCircle
 10
101.1475524361025
 20
354.3396622044298
 30
0.0
 40
2.049999999999998
100
AcDbArc
 50
270.0
 51
278.0619600839818
  0
ARC
  5
19FD
330
2
100
AcDbEntity
  8
0
100
AcDbCircle
 10
101.1475524361025
 20
354.3396622044298
 30
0.0
 40
2.049999999999998
100
AcDbArc
 50
180.0
 51
188.0619600839816
  0
ARC
  5
19FE
330
2
100
AcDbEntity
  8
0
100
AcDbCircle
 10
101.1475524361025
 20
354.3396622044298
 30
0.0
 40
2.049999999999998
100
AcDbArc
 50
171.9380399160183
 51
180.0
  0
ARC
  5
19FF
330
2
100
AcDbEntity
  8
0
100
AcDbCircle
 10
99.11785243610239
 20
352.3099622044298
 30
0.0
 40
1.742199999999999
100
AcDbArc
 50
359.9986903345002
 51
90.00130966549322
  0
CIRCLE
  5
1A00
330
2
100
AcDbEntity
  8
0
100
AcDbCircle
 10
101.1475524361025
 20
354.3396622044298
 30
0.0
 40
3.500000000000028
  0
ARC
  5
1A01
330
2
100
AcDbEntity
  8
0
100
AcDbCircle
 10
99.11785243610239
 20
356.3693622044298
 30
0.0
 40
1.742199999999999
100
AcDbArc
 50
269.9986903345067
 51
0.0013096654997424
  0
ARC
  5
1A02
330
2
100
AcDbEntity
  8
0
100
AcDbCircle
 10
103.1772524361024
 20
356.3693622044298
 30
0.0
 40
1.742199999999999
100
AcDbArc
 50
179.9986903345002
 51
270.0013096654997
  0
LINE
  5
1A03
330
2
100
AcDbEntity
  8
0
100
AcDbLine
 10
105.1475524361025
 20
354.3396622044298
 30
0.0
 11
105.1475524361025
 21
357.8394782044298
 31
0.0
  0
ARC
  5
1A04
330
2
100
AcDbEntity
  8
0
100
AcDbCircle
 10
144.1476594361025
 20
354.3396622044298
 30
0.0
 40
4.0
100
AcDbArc
 50
180.0
 51
270.0
  0
LINE
  5
1A05
330
2
100
AcDbEntity
  8
0
100
AcDbLine
 10
144.1474614361025
 20
350.3396622044299
 30
0.0
 11
147.6474614361025
 21
350.3396622044299
 31
0.0
  0
LINE
  5
1A06
330
2
100
AcDbEntity
  8
0
100
AcDbLine
 10
147.6476594361025
 20
355.8396622044298
 30
0.0
 11
145.6474614361025
 21
357.8396622044298
 31
0.0
  0
LINE
  5
1A07
330
2
100
AcDbEntity
  8
0
100
AcDbLine
 10
147.6474614361025
 20
355.8396622044298
 30
0.0
 11
145.6474614361025
 21
357.8396622044298
 31
0.0
  0
LINE
  5
1A08
330
2
100
AcDbEntity
  8
0
100
AcDbLine
 10
147.6474614361025
 20
355.8396622044298
 30
0.0
 11
145.6474614361025
 21
357.8396622044298
 31
0.0
  0
CIRCLE
  5
1A09
330
2
100
AcDbEntity
  8
0
100
AcDbCircle
 10
144.1476594361025
 20
354.3396622044298
 30
0.0
 40
3.500000000000028
  0
ARC
  5
1A0A
330
2
100
AcDbEntity
  8
0
100
AcDbCircle
 10
144.1476594361025
 20
354.3396622044298
 30
0.0
 40
2.049999999999998
100
AcDbArc
 50
90.0
 51
98.06196008398188
  0
ARC
  5
1A0B
330
2
100
AcDbEntity
  8
0
100
AcDbCircle
 10
144.1476594361025
 20
354.3396622044298
 30
0.0
 40
2.049999999999998
100
AcDbArc
 50
81.93803991601813
 51
90.0
  0
ARC
  5
1A0C
330
2
100
AcDbEntity
  8
0
100
AcDbCircle
 10
146.1773594361024
 20
352.3099622044298
 30
0.0
 40
1.742199999999999
100
AcDbArc
 50
89.99869033450025
 51
180.0013096654997
  0
ARC
  5
1A0D
330
2
100
AcDbEntity
  8
0
100
AcDbCircle
 10
144.1476594361025
 20
354.3396622044298
 30
0.0
 40
2.049999999999998
100
AcDbArc
 50
351.9380399160183
 51
0.0
  0
ARC
  5
1A0E
330
2
100
AcDbEntity
  8
0
100
AcDbCircle
 10
144.1476594361025
 20
354.3396622044298
 30
0.0
 40
2.049999999999998
100
AcDbArc
 50
0.0
 51
8.061960083981649
  0
ARC
  5
1A0F
330
2
100
AcDbEntity
  8
0
100
AcDbCircle
 10
144.1476594361025
 20
354.3396622044298
 30
0.0
 40
2.049999999999998
100
AcDbArc
 50
261.9380399160181
 51
270.0
  0
ARC
  5
1A10
330
2
100
AcDbEntity
  8
0
100
AcDbCircle
 10
144.1476594361025
 20
354.3396622044298
 30
0.0
 40
2.049999999999998
100
AcDbArc
 50
270.0
 51
278.0619600839818
  0
ARC
  5
1A11
330
2
100
AcDbEntity
  8
0
100
AcDbCircle
 10
146.1773594361024
 20
356.3693622044298
 30
0.0
 40
1.742199999999999
100
AcDbArc
 50
179.9986903345002
 51
270.0013096654997
  0
ARC
  5
1A12
330
2
100
AcDbEntity
  8
0
100
AcDbCircle
 10
144.1476594361025
 20
354.3396622044298
 30
0.0
 40
2.049999999999998
100
AcDbArc
 50
180.0
 51
188.0619600839816
  0
ARC
  5
1A13
330
2
100
AcDbEntity
  8
0
100
AcDbCircle
 10
144.1476594361025
 20
354.3396622044298
 30
0.0
 40
2.049999999999998
100
AcDbArc
 50
171.9380399160183
 51
180.0
  0
LINE
  5
1A14
330
2
100
AcDbEntity
  8
0
100
AcDbLine
 10
140.1474614361025
 20
354.3396622044298
 30
0.0
 11
140.1474614361025
 21
357.8394782044298
 31
0.0
  0
ARC
  5
1A15
330
2
100
AcDbEntity
  8
0
100
AcDbCircle
 10
142.1179594361023
 20
356.3693622044298
 30
0.0
 40
1.742199999999999
100
AcDbArc
 50
269.9986903345067
 51
0.0013096654997424
  0
ARC
  5
1A16
330
2
100
AcDbEntity
  8
0
100
AcDbCircle
 10
142.1179594361023
 20
352.3099622044298
 30
0.0
 40
1.742199999999999
100
AcDbArc
 50
359.9986903345002
 51
90.00130966549322
  0
LINE
  5
1A17
330
2
100
AcDbEntity
  8
0
100
AcDbLine
 10
371.7838030144142
 20
204.1084520051656
 30
0.0
 11
406.7838030144142
 21
204.1084520051656
 31
0.0
  0
LINE
  5
1A18
330
2
100
AcDbEntity
  8
0
100
AcDbLine
 10
369.121711830441
 20
205.1084520051655
 30
0.0
 11
409.4458941983874
 21
205.1084520051655
 31
0.0
  0
LINE
  5
1A19
330
2
100
AcDbEntity
  8
0
100
AcDbLine
 10
371.7838030144142
 20
202.6084520051656
 30
0.0
 11
371.7838030144142
 21
204.6084520051656
 31
0.0
  0
LINE
  5
1A1A
330
2
100
AcDbEntity
  8
0
100
AcDbLine
 10
371.2838030144141
 20
202.6084520051656
 30
0.0
 11
371.1858668755263
 21
203.7278671949839
 31
0.0
  0
LINE
  5
1A1B
330
2
100
AcDbEntity
  8
0
100
AcDbLine
 10
364.2838030144142
 20
202.6084520051656
 30
0.0
 11
364.381739153302
 21
203.7278671949839
 31
0.0
  0
LINE
  5
1A1C
330
2
100
AcDbEntity
  8
0
100
AcDbLine
 10
371.7838030144142
 20
202.6084520051656
 30
0.0
 11
364.2838030144142
 21
202.6084520051656
 31
0.0
  0
ARC
  5
1A1D
330
2
100
AcDbEntity
  8
0
100
AcDbCircle
 10
365.6767922608212
 20
203.614564729412
 30
0.0
 40
1.3
100
AcDbArc
 50
105.8808500082777
 51
174.9999999999999
  0
LINE
  5
1A1E
330
2
100
AcDbEntity
  8
0
100
AcDbLine
 10
366.4458941983876
 20
205.1084520051656
 30
0.0
 11
365.2838030144142
 21
205.1084520051656
 31
0.0
  0
LINE
  5
1A1F
330
2
100
AcDbEntity
  8
0
100
AcDbLine
 10
365.2838030144142
 20
205.1084520051656
 30
0.0
 11
364.2838030144142
 21
204.1084520051656
 31
0.0
  0
ARC
  5
1A20
330
2
100
AcDbEntity
  8
0
100
AcDbCircle
 10
369.8908137680071
 20
203.614564729412
 30
0.0
 40
1.3
100
AcDbArc
 50
5.000000000000026
 51
74.11914999171549
  0
LINE
  5
1A21
330
2
100
AcDbEntity
  8
0
100
AcDbLine
 10
371.7838030144142
 20
204.6084520051656
 30
0.0
 11
370.7287804040345
 21
204.6084520051656
 31
0.0
  0
LINE
  5
1A22
330
2
100
AcDbEntity
  8
0
100
AcDbLine
 10
369.8135428375782
 20
204.7608935425433
 30
0.0
 11
369.8338030144141
 21
204.9718702880048
 31
0.0
  0
LINE
  5
1A23
330
2
100
AcDbEntity
  8
0
100
AcDbLine
 10
372.2838030144142
 20
205.1084520051656
 30
0.0
 11
371.7838030144142
 21
204.6084520051656
 31
0.0
  0
SPLINE
  5
1A24
330
2
100
AcDbEntity
  8
0
100
AcDbSpline
210
0.0
220
0.0
230
1.0
 70
     8
 71
     3
 72
    11
 73
     7
 74
     0
 42
0.0000000001
 43
0.0000000001
 40
0.0
 40
0.0
 40
0.0
 40
0.0
 40
0.4601364636755307
 40
1.04988694485363
 40
1.713742833862792
 40
2.320347933405154
 40
2.320347933405154
 40
2.320347933405154
 40
2.320347933405179
 10
367.4963030139591
 20
203.6914520051656
 30
0.0
 10
367.4738853568512
 20
203.8464754448455
 30
0.0
 10
367.4227353016179
 20
204.2001902627631
 30
0.0
 10
366.9868501400844
 20
204.6249179343647
 30
0.0
 10
366.3817994250769
 20
204.8441051143305
 30
0.0
 10
365.9566148009011
 20
204.7751138147199
 30
0.0
 10
365.75406319125
 20
204.7608935425433
 30
0.0
  0
LINE
  5
1A25
330
2
100
AcDbEntity
  8
0
100
AcDbLine
 10
367.4963030139591
 20
203.6914520051656
 30
0.0
 11
368.0713030148692
 21
203.6914520051656
 31
0.0
  0
LINE
  5
1A26
330
2
100
AcDbEntity
  8
0
100
AcDbLine
 10
365.75406319125
 20
204.7608935425433
 30
0.0
 11
365.7338030144141
 21
204.9718702880048
 31
0.0
  0
SPLINE
  5
1A27
330
2
100
AcDbEntity
  8
0
100
AcDbSpline
210
0.0
220
0.0
230
1.0
 70
     8
 71
     3
 72
    11
 73
     7
 74
     0
 42
0.0000000001
 43
0.0000000001
 40
0.0
 40
0.0
 40
0.0
 40
0.0
 40
0.4601364636755307
 40
1.04988694485363
 40
1.713742833862792
 40
2.320347933405154
 40
2.320347933405154
 40
2.320347933405154
 40
2.320347933405179
 10
368.0713030148692
 20
203.6914520051656
 30
0.0
 10
368.0937206719769
 20
203.8464754448455
 30
0.0
 10
368.1448707272102
 20
204.2001902627631
 30
0.0
 10
368.5807558887439
 20
204.6249179343647
 30
0.0
 10
369.1858066037513
 20
204.8441051143305
 30
0.0
 10
369.6109912279271
 20
204.7751138147199
 30
0.0
 10
369.8135428375782
 20
204.7608935425433
 30
0.0
  0
ARC
  5
1A28
330
2
100
AcDbEntity
  8
0
100
AcDbCircle
 10
367.783803014414
 20
196.2084520051657
 30
0.0
 40
9.0
100
AcDbArc
 50
74.11914999171549
 51
105.8808500082777
  0
LINE
  5
1A29
330
2
100
AcDbEntity
  8
0
100
AcDbLine
 10
406.7838030144142
 20
202.6084520051656
 30
0.0
 11
414.2838030144142
 21
202.6084520051656
 31
0.0
  0
ARC
  5
1A2A
330
2
100
AcDbEntity
  8
0
100
AcDbCircle
 10
408.6767922608212
 20
203.614564729412
 30
0.0
 40
1.3
100
AcDbArc
 50
105.8808500082777
 51
174.9999999999999
  0
LINE
  5
1A2B
330
2
100
AcDbEntity
  8
0
100
AcDbLine
 10
407.2838030144143
 20
202.6084520051656
 30
0.0
 11
407.3817391533021
 21
203.7278671949839
 31
0.0
  0
LINE
  5
1A2C
330
2
100
AcDbEntity
  8
0
100
AcDbLine
 10
406.7838030144142
 20
202.6084520051656
 30
0.0
 11
406.7838030144142
 21
204.6084520051656
 31
0.0
  0
LINE
  5
1A2D
330
2
100
AcDbEntity
  8
0
100
AcDbLine
 10
406.7838030144142
 20
204.6084520051656
 30
0.0
 11
407.8388256247938
 21
204.6084520051656
 31
0.0
  0
LINE
  5
1A2E
330
2
100
AcDbEntity
  8
0
100
AcDbLine
 10
406.2838030144142
 20
205.1084520051656
 30
0.0
 11
406.7838030144142
 21
204.6084520051656
 31
0.0
  0
LINE
  5
1A2F
330
2
100
AcDbEntity
  8
0
100
AcDbLine
 10
414.2838030144142
 20
202.6084520051656
 30
0.0
 11
414.1858668755264
 21
203.7278671949839
 31
0.0
  0
ARC
  5
1A30
330
2
100
AcDbEntity
  8
0
100
AcDbCircle
 10
412.8908137680071
 20
203.614564729412
 30
0.0
 40
1.3
100
AcDbArc
 50
5.000000000000026
 51
74.11914999171549
  0
LINE
  5
1A31
330
2
100
AcDbEntity
  8
0
100
AcDbLine
 10
413.2838030144141
 20
205.1084520051656
 30
0.0
 11
414.2838030144142
 21
204.1084520051656
 31
0.0
  0
SPLINE
  5
1A32
330
2
100
AcDbEntity
  8
0
100
AcDbSpline
210
0.0
220
0.0
230
1.0
 70
     8
 71
     3
 72
    11
 73
     7
 74
     0
 42
0.0000000001
 43
0.0000000001
 40
0.0
 40
0.0
 40
0.0
 40
0.0
 40
0.4601364636755307
 40
1.04988694485363
 40
1.713742833862792
 40
2.320347933405154
 40
2.320347933405154
 40
2.320347933405154
 40
2.320347933405179
 10
410.4963030139591
 20
203.6914520051656
 30
0.0
 10
410.4738853568514
 20
203.8464754448455
 30
0.0
 10
410.4227353016181
 20
204.2001902627631
 30
0.0
 10
409.9868501400845
 20
204.6249179343647
 30
0.0
 10
409.3817994250771
 20
204.8441051143305
 30
0.0
 10
408.9566148009012
 20
204.7751138147199
 30
0.0
 10
408.7540631912501
 20
204.7608935425433
 30
0.0
  0
LINE
  5
1A33
330
2
100
AcDbEntity
  8
0
100
AcDbLine
 10
408.7540631912501
 20
204.7608935425433
 30
0.0
 11
408.7338030144143
 21
204.9718702880048
 31
0.0
  0
LINE
  5
1A34
330
2
100
AcDbEntity
  8
0
100
AcDbLine
 10
412.8135428375784
 20
204.7608935425433
 30
0.0
 11
412.8338030144142
 21
204.9718702880048
 31
0.0
  0
LINE
  5
1A35
330
2
100
AcDbEntity
  8
0
100
AcDbLine
 10
411.0713030148692
 20
203.6914520051656
 30
0.0
 11
410.4963030139591
 21
203.6914520051656
 31
0.0
  0
SPLINE
  5
1A36
330
2
100
AcDbEntity
  8
0
100
AcDbSpline
210
0.0
220
0.0
230
1.0
 70
     8
 71
     3
 72
    11
 73
     7
 74
     0
 42
0.0000000001
 43
0.0000000001
 40
0.0
 40
0.0
 40
0.0
 40
0.0
 40
0.4601364636755307
 40
1.04988694485363
 40
1.713742833862792
 40
2.320347933405154
 40
2.320347933405154
 40
2.320347933405154
 40
2.320347933405179
 10
411.0713030148692
 20
203.6914520051656
 30
0.0
 10
411.0937206719772
 20
203.8464754448455
 30
0.0
 10
411.1448707272105
 20
204.2001902627631
 30
0.0
 10
411.580755888744
 20
204.6249179343647
 30
0.0
 10
412.1858066037514
 20
204.8441051143305
 30
0.0
 10
412.6109912279273
 20
204.7751138147199
 30
0.0
 10
412.8135428375784
 20
204.7608935425433
 30
0.0
  0
ARC
  5
1A37
330
2
100
AcDbEntity
  8
0
100
AcDbCircle
 10
410.7838030144143
 20
196.2084520051657
 30
0.0
 40
9.0
100
AcDbArc
 50
74.11914999171549
 51
105.8808500082777
  0
LINE
  5
1A38
330
2
100
AcDbEntity
  8
0
100
AcDbLine
 10
412.1217118304407
 20
205.1084520051656
 30
0.0
 11
413.2838030144141
 21
205.1084520051656
 31
0.0
  0
LINE
  5
1B5F
330
2
100
AcDbEntity
  8
0
100
AcDbLine
 10
412.7837880144142
 20
160.6084370051656
 30
0.0
 11
415.3842980144142
 21
160.6084370051656
 31
0.0
  0
VIEWPORT
  5
1575
330
1574
100
AcDbEntity
 67
     1
  8
0
100
AcDbViewport
 10
159.0005751730651
 20
103.1575498589519
 30
0.0
 40
348.0824323118757
 41
222.1372534836783
 68
     1
 69
     1
1001
ACAD
1000
MVIEW
1002
{
1070
    16
1010
0.0
1020
0.0
1030
0.0
1010
0.0
1020
0.0
1030
1.0
1040
0.0
1040
222.1372534836783
1040
159.0005751730651
1040
103.1575498589519
1040
50.0
1040
0.0
1040
0.0
1070
     0
1070
   100
1070
     1
1070
     1
1070
     0
1070
     0
1070
     0
1070
     0
1040
0.0
1040
0.0
1040
0.0
1040
10.0
1040
10.0
1040
10.0
1040
10.0
1070
     0
1002
{
1002
}
1002
}
  0
TEXT
  5
1576
330
1574
100
AcDbEntity
 67
     1
  8
TEXT
100
AcDbText
 10
266.4665517915716
 20
9.492177985111482
 30
0.0
 40
2.0
  1
2006.04.05
 41
0.7
100
AcDbText
  0
TEXT
  5
1577
330
1574
100
AcDbEntity
 67
     1
  8
TEXT
100
AcDbText
 10
221.2876186247744
 20
25.81289445791026
 30
0.0
 40
2.0
  1
GFMN15-S60WK
100
AcDbText
  0
INSERT
  5
1578
330
1574
100
AcDbEntity
 67
     1
  8
0
100
AcDbBlockReference
 66
     1
  2
外寸枠A4テンプレート
 10
0.0
 20
0.0
 30
0.0
  0
ATTRIB
  5
1579
330
1578
100
AcDbEntity
 67
     1
  8
TEXT
100
AcDbText
 10
219.0189809523808
 20
34.33735183158626
 30
0.0
 40
2.500000000000001
  1
GFMN-15-5~60-S60WK
 72
     4
 11
241.8165999999999
 21
35.58735183158626
 31
0.0
100
AcDbAttribute
  2
T　I　T　L　E
 70
     0
  0
ATTRIB
  5
157A
330
1578
100
AcDbEntity
 67
     1
  8
TEXT
100
AcDbText
 10
231.4275923057046
 20
7.13444951887557
 30
0.0
 40
2.0
  1
1：2
 72
     4
 11
234.056163734276
 21
8.13444951887557
 31
0.0
100
AcDbAttribute
  2
FREE
 70
     0
  0
ATTRIB
  5
157B
330
1578
100
AcDbEntity
 67
     1
  8
TEXT
100
AcDbText
 10
205.1985180173093
 20
6.884449518875568
 30
0.0
 40
2.500000000000004
  1
海野
 72
     4
 11
207.865184683976
 21
8.13444951887557
 31
0.0
100
AcDbAttribute
  2
海野
 70
     0
  0
ATTRIB
  5
157C
330
1578
100
AcDbEntity
 67
     1
  8
TEXT
100
AcDbText
 10
222.6686227589094
 20
6.884449518875568
 30
0.0
 40
2.500000000000004
  1
森松
 72
     4
 11
225.3352894255761
 21
8.13444951887557
 31
0.0
100
AcDbAttribute
  2
鳥居
 70
     0
  0
ATTRIB
  5
157D
330
1578
100
AcDbEntity
 67
     1
  8
TEXT
100
AcDbText
 10
213.9476826899094
 20
6.884449518875567
 30
0.0
 40
2.500000000000004
  1
永坂
 72
     4
 11
216.6143493565761
 21
8.13444951887557
 31
0.0
100
AcDbAttribute
  2
永坂
 70
     0
  0
SEQEND
  5
157E
330
1578
100
AcDbEntity
 67
     1
  8
0
  0
INSERT
  5
157F
330
1574
100
AcDbEntity
 67
     1
  8
TEXT
100
AcDbBlockReference
  2
1
 10
202.0
 20
40.0
 30
0.0
  0
VIEWPORT
  5
1580
330
1574
100
AcDbEntity
 67
     1
  8
DEFPOINTS
100
AcDbViewport
 10
141.5
 20
121.0
 30
0.0
 40
277.0
 41
128.0
 68
    -1
 69
     2
1001
ACAD
1000
MVIEW
1002
{
1070
    16
1010
0.0
1020
0.0
1030
0.0
1010
0.0
1020
0.0
1030
1.0
1040
0.0
1040
255.9999997646468
1040
251.6218141961577
1040
136.094058719447
1040
50.0
1040
0.0
1040
0.0
1070
     0
1070
   100
1070
     1
1070
     3
1070
     0
1070
     0
1070
     0
1070
     0
1040
0.0
1040
0.0
1040
0.0
1040
10.0
1040
10.0
1040
10.0
1040
10.0
1070
     0
1002
{
1002
}
1002
}
  0
INSERT
  5
1581
330
1574
100
AcDbEntity
 67
     1
  8
TEXT
100
AcDbBlockReference
  2
22
 10
202.0
 20
43.5
 30
0.0
  0
INSERT
  5
16FA
330
1574
100
AcDbEntity
 67
     1
  8
TEXT
100
AcDbBlockReference
  2
GSPEC_G-15-5-60
 10
3.0
 20
4.0
 30
0.0
  0
INSERT
  5
1796
330
1574
100
AcDbEntity
 67
     1
  8
TEXT
100
AcDbBlockReference
  2
MSPEC_S60WF-90
 10
3.0
 20
4.0
 30
0.0
  0
INSERT
  5
17BB
330
1574
100
AcDbEntity
 67
     1
  8
TEXT
100
AcDbBlockReference
  2
BSPEC_90-90-0038
 10
3.0
 20
4.0
 30
0.0
  0
INSERT
  5
185F
330
1574
100
AcDbEntity
 67
     1
  8
TEXT
100
AcDbBlockReference
  2
17
 10
202.0
 20
50.5
 30
0.0
  0
ENDSEC
  0
SECTION
  2
OBJECTS
  0
DICTIONARY
  5
7
330
0
100
AcDbDictionary
  3
ACAD_GROUP
350
75
  3
ACAD_LAYOUT
350
61
  3
ACAD_MLINESTYLE
350
76
  3
ACAD_PLOTSETTINGS
350
77
  3
ACAD_PLOTSTYLENAME
350
6
  3
ACADDIM
350
13C4
  3
ACDBHEADERROUNDTRIPXREC
350
1C14
  3
ACDBVARIABLEDICTIONARY
350
102
  3
DWGPROPS
350
3D2
  0
DICTIONARY
  5
1C35
330
2
100
AcDbDictionary
280
     1
  3
ACAD_LAYOUTSELFREF
360
1C36
  0
DICTIONARY
  5
1C38
330
1574
100
AcDbDictionary
280
     1
  3
ACAD_LAYOUTSELFREF
360
1C39
  0
DICTIONARY
  5
75
102
{ACAD_REACTORS
330
7
102
}
330
7
100
AcDbDictionary
  0
DICTIONARY
  5
61
102
{ACAD_REACTORS
330
7
102
}
330
7
100
AcDbDictionary
  0
DICTIONARY
  5
76
102
{ACAD_REACTORS
330
7
102
}
330
7
100
AcDbDictionary
  3
STANDARD
350
78
  0
DICTIONARY
  5
77
102
{ACAD_REACTORS
330
7
102
}
330
7
100
AcDbDictionary
  0
ACDBDICTIONARYWDFLT
  5
6
102
{ACAD_REACTORS
330
7
102
}
330
7
100
AcDbDictionary
281
     1
  3
Normal
350
5
100
AcDbDictionaryWithDefault
340
5
  0
XRECORD
  5
13C4
102
{ACAD_REACTORS
330
7
102
}
330
7
100
AcDbXrecord
 90
   990106
  3

 60
     0
 61
     0
 62
     4
 63
     4
 64
     1
 65
     0
 66
     0
 67
     3
 68
     1
 69
     0
 70
     0
 71
     0
 72
     0
 40
0.0
170
     2
340
0
  0
DICTIONARY
  5
1C14
102
{ACAD_REACTORS
330
7
102
}
330
7
100
AcDbDictionary
  3
CEPSNTYPE
350
1C1E
  3
DIMSTYLEDATA
350
1C22
  3
FINGERPRINTGUID
350
1C1F
  3
HYPERLINKBASE
350
1C17
  3
INSUNITS
350
1C1D
  3
LAYOUTDICT
350
1C19
  3
LWETCUNION
350
1C1C
  3
PLOTSETDICT
350
1C1A
  3
PLOTSTYLNAMDICT
350
1C1B
  3
PSVPSCALE
350
1C21
  3
PUCSBASE
350
1C25
  3
PUCSORGBACK
350
1C2B
  3
PUCSORGBOTTOM
350
1C27
  3
PUCSORGFRONT
350
1C2A
  3
PUCSORGLEFT
350
1C28
  3
PUCSORGRIGHT
350
1C29
  3
PUCSORGTOP
350
1C26
  3
PUCSORTHOREF
350
1C23
  3
PUCSORTHOVIEW
350
1C24
  3
STYLESHEET
350
1C18
  3
TSTACKALIGN
350
1C15
  3
TSTACKSIZE
350
1C16
  3
UCSBASE
350
1C2E
  3
UCSORGBACK
350
1C34
  3
UCSORGBOTTOM
350
1C30
  3
UCSORGFRONT
350
1C33
  3
UCSORGLEFT
350
1C31
  3
UCSORGRIGHT
350
1C32
  3
UCSORGTOP
350
1C2F
  3
UCSORTHOREF
350
1C2C
  3
UCSORTHOVIEW
350
1C2D
  3
VERSIONGUID
350
1C20
  0
DICTIONARY
  5
102
102
{ACAD_REACTORS
330
7
102
}
330
7
100
AcDbDictionary
  3
DIMASSOC
350
103
  0
XRECORD
  5
3D2
102
{ACAD_REACTORS
330
7
102
}
330
7
100
AcDbXrecord
  1
DWGPROPS COOKIE
  2

  3

  4

  6

  7

  8

  9

300
=
301
=
302
=
303
=
304
=
305
=
306
=
307
=
308
=
309
=
 40
0.5353330671296296
 41
2452052.431989363
 42
2453406.550756377
  1

 90
        0
  0
XRECORD
  5
1C36
102
{ACAD_REACTORS
330
1C35
102
}
330
1C35
100
AcDbXrecord
340
2
  0
XRECORD
  5
1C39
102
{ACAD_REACTORS
330
1C38
102
}
330
1C38
100
AcDbXrecord
340
1574
  0
MLINESTYLE
  5
78
102
{ACAD_REACTORS
330
76
102
}
330
76
100
AcDbMlineStyle
  2
STANDARD
 70
     0
  3

 62
     0
 51
90.0
 52
90.0
 71
     2
 49
0.5
 62
   256
  6
BYLAYER
 49
-0.5
 62
   256
  6
BYLAYER
  0
ACDBPLACEHOLDER
  5
5
102
{ACAD_REACTORS
330
6
102
}
330
6
100
AcDbPlaceHolder
280
     0
  0
XRECORD
  5
1C1E
102
{ACAD_REACTORS
330
1C14
102
}
330
1C14
100
AcDbXrecord
 90
        0
  0
XRECORD
  5
1C22
102
{ACAD_REACTORS
330
1C14
102
}
330
1C14
100
AcDbXrecord
1000
DSTYLE
1002
{
1070
   179
 70
     2
1070
   277
 70
     6
1002
}
  0
XRECORD
  5
1C1F
102
{ACAD_REACTORS
330
1C14
102
}
330
1C14
100
AcDbXrecord
  1
{6385560B-F4B1-4644-A7C2-A3E32AC3D232}
  0
XRECORD
  5
1C17
102
{ACAD_REACTORS
330
1C14
102
}
330
1C14
100
AcDbXrecord
  1

  0
XRECORD
  5
1C1D
102
{ACAD_REACTORS
330
1C14
102
}
330
1C14
100
AcDbXrecord
 90
        0
  0
XRECORD
  5
1C19
102
{ACAD_REACTORS
330
1C14
102
}
330
1C14
100
AcDbXrecord
340
61
  0
XRECORD
  5
1C1C
102
{ACAD_REACTORS
330
1C14
102
}
330
1C14
100
AcDbXrecord
 90
    10781
  0
XRECORD
  5
1C1A
102
{ACAD_REACTORS
330
1C14
102
}
330
1C14
100
AcDbXrecord
340
77
  0
XRECORD
  5
1C1B
102
{ACAD_REACTORS
330
1C14
102
}
330
1C14
100
AcDbXrecord
340
6
  0
XRECORD
  5
1C21
102
{ACAD_REACTORS
330
1C14
102
}
330
1C14
100
AcDbXrecord
 40
0.0
  0
XRECORD
  5
1C25
102
{ACAD_REACTORS
330
1C14
102
}
330
1C14
100
AcDbXrecord
340
0
  0
XRECORD
  5
1C2B
102
{ACAD_REACTORS
330
1C14
102
}
330
1C14
100
AcDbXrecord
 10
0.0
 20
0.0
 30
0.0
  0
XRECORD
  5
1C27
102
{ACAD_REACTORS
330
1C14
102
}
330
1C14
100
AcDbXrecord
 10
0.0
 20
0.0
 30
0.0
  0
XRECORD
  5
1C2A
102
{ACAD_REACTORS
330
1C14
102
}
330
1C14
100
AcDbXrecord
 10
0.0
 20
0.0
 30
0.0
  0
XRECORD
  5
1C28
102
{ACAD_REACTORS
330
1C14
102
}
330
1C14
100
AcDbXrecord
 10
0.0
 20
0.0
 30
0.0
  0
XRECORD
  5
1C29
102
{ACAD_REACTORS
330
1C14
102
}
330
1C14
100
AcDbXrecord
 10
0.0
 20
0.0
 30
0.0
  0
XRECORD
  5
1C26
102
{ACAD_REACTORS
330
1C14
102
}
330
1C14
100
AcDbXrecord
 10
0.0
 20
0.0
 30
0.0
  0
XRECORD
  5
1C23
102
{ACAD_REACTORS
330
1C14
102
}
330
1C14
100
AcDbXrecord
340
0
  0
XRECORD
  5
1C24
102
{ACAD_REACTORS
330
1C14
102
}
330
1C14
100
AcDbXrecord
 70
     0
  0
XRECORD
  5
1C18
102
{ACAD_REACTORS
330
1C14
102
}
330
1C14
100
AcDbXrecord
  1
Sekkei.ctb
  0
XRECORD
  5
1C15
102
{ACAD_REACTORS
330
1C14
102
}
330
1C14
100
AcDbXrecord
 90
        1
  0
XRECORD
  5
1C16
102
{ACAD_REACTORS
330
1C14
102
}
330
1C14
100
AcDbXrecord
 90
       70
  0
XRECORD
  5
1C2E
102
{ACAD_REACTORS
330
1C14
102
}
330
1C14
100
AcDbXrecord
340
0
  0
XRECORD
  5
1C34
102
{ACAD_REACTORS
330
1C14
102
}
330
1C14
100
AcDbXrecord
 10
0.0
 20
0.0
 30
0.0
  0
XRECORD
  5
1C30
102
{ACAD_REACTORS
330
1C14
102
}
330
1C14
100
AcDbXrecord
 10
0.0
 20
0.0
 30
0.0
  0
XRECORD
  5
1C33
102
{ACAD_REACTORS
330
1C14
102
}
330
1C14
100
AcDbXrecord
 10
0.0
 20
0.0
 30
0.0
  0
XRECORD
  5
1C31
102
{ACAD_REACTORS
330
1C14
102
}
330
1C14
100
AcDbXrecord
 10
0.0
 20
0.0
 30
0.0
  0
XRECORD
  5
1C32
102
{ACAD_REACTORS
330
1C14
102
}
330
1C14
100
AcDbXrecord
 10
0.0
 20
0.0
 30
0.0
  0
XRECORD
  5
1C2F
102
{ACAD_REACTORS
330
1C14
102
}
330
1C14
100
AcDbXrecord
 10
0.0
 20
0.0
 30
0.0
  0
XRECORD
  5
1C2C
102
{ACAD_REACTORS
330
1C14
102
}
330
1C14
100
AcDbXrecord
340
0
  0
XRECORD
  5
1C2D
102
{ACAD_REACTORS
330
1C14
102
}
330
1C14
100
AcDbXrecord
 70
     0
  0
XRECORD
  5
1C20
102
{ACAD_REACTORS
330
1C14
102
}
330
1C14
100
AcDbXrecord
  1
{DCCA41ED-489B-4D4A-B339-8B8CFE1CBA5A}
  0
DICTIONARYVAR
  5
103
102
{ACAD_REACTORS
330
102
102
}
330
102
100
DictionaryVariables
280
     0
  1
1
  0
ENDSEC
  0
EOF
