  0
SECTION
  2
HEADER
  9
$CLAYER
  8
1
  9
$LTSCALE
 40
3.0
  0
ENDSEC
  0
SECTION
  2
TABLES
  0
TABLE
  2
LTYPE
 70
     4
  0
LTYPE
  2
CONTINUOUS
  3
solid line
 70
    64
 72
    65
 73
     0
 40
0.0
  0
LTYPE
  2
DASHED
  3
__ __ __ __ __ __ __ __ __ __ __ __ __ __ __
 70
    64
 72
    65
 73
     2
 40
0.75
 49
0.5
 49
-0.25
  0
LTYPE
  2
CENTER
  3
____ _ ____ _ ____ _ ____ _ ____ _ ____ _ ____
 70
    64
 72
    65
 73
     4
 40
2.0
 49
1.25
 49
-0.25
 49
0.25
 49
-0.25
  0
LTYPE
  2
PHANTOM
  3
_____ _ _ _____ _ _ _____ _ _ _____ _ _ ____
 70
    64
 72
    65
 73
     6
 40
2.5
 49
1.25
 49
-0.25
 49
0.25
 49
-0.25
 49
0.25
 49
-0.25
  0
ENDTAB
  0
TABLE
  2
LAYER
 70
     1
  0
LAYER
  2
0
 70
    64
 62
     7
  6
CONTINUOUS
  0
ENDTAB
  0
TABLE
  2
STYLE
 70
     1
  0
STYLE
  2
STANDARD
 70
     0
 40
0.000000
 41
1.000000
 50
0.000000
 71
     0
 42
3.000000
  3
txt
  4
BIGFONT
  0
ENDTAB
  0
ENDSEC
  0
SECTION
  2
BLOCKS
  0
ENDSEC
  0
SECTION
  2
ENTITIES
  0
LINE
  8
0
  6
CONTINUOUS
 10
50.750000
 20
94.347183
 11
60.250000
 21
94.347183
  0
LINE
  8
0
  6
CONTINUOUS
 10
60.250000
 20
83.756485
 11
50.750000
 21
83.756485
  0
LINE
  8
0
  6
CONTINUOUS
 10
50.750000
 20
4.347187
 11
60.250000
 21
4.347187
  0
LINE
  8
0
  6
CONTINUOUS
 10
60.250000
 20
14.937887
 11
50.750000
 21
14.937887
  0
LINE
  8
0
  6
CONTINUOUS
 10
50.750000
 20
96.347183
 11
50.750000
 21
2.347187
  0
LINE
  8
0
  6
CONTINUOUS
 10
50.750000
 20
78.347183
 11
6.774990
 21
78.347183
  0
LINE
  8
0
  6
CONTINUOUS
 10
50.750000
 20
20.347189
 11
6.774990
 21
20.347189
  0
LINE
  8
0
  6
CONTINUOUS
 10
8.250000
 20
96.347183
 11
50.750000
 21
96.347183
  0
LINE
  8
0
  6
CONTINUOUS
 10
8.250000
 20
2.347187
 11
50.750000
 21
2.347187
  0
ARC
  8
0
  6
CONTINUOUS
 10
8.250000
 20
91.347183
 40
5.000000
 50
90.000000
 51
180.000000
  0
ARC
  8
0
  6
CONTINUOUS
 10
8.250000
 20
7.347187
 40
5.000000
 50
180.000000
 51
270.000000
  0
LINE
  8
0
  6
CONTINUOUS
 10
3.250000
 20
91.347183
 11
3.250000
 21
7.347177
  0
LINE
  8
0
  6
CONTINUOUS
 10
60.250000
 20
49.347187
 11
60.250000
 21
94.347183
  0
LINE
  8
0
  6
CONTINUOUS
 10
60.250000
 20
49.347187
 11
60.250000
 21
4.347187
  0
LINE
  8
0
  6
CONTINUOUS
 10
179.250000
 20
94.347183
 11
179.250000
 21
4.347187
  0
LINE
  8
0
  6
CONTINUOUS
 10
170.250000
 20
92.347183
 11
170.250000
 21
6.347177
  0
LINE
  8
0
  6
CONTINUOUS
 10
60.250000
 20
94.347183
 11
179.250000
 21
94.347183
  0
LINE
  8
0
  6
CONTINUOUS
 10
60.250000
 20
4.347187
 11
179.250000
 21
4.347187
  0
LINE
  8
0
  6
CONTINUOUS
 10
182.250000
 20
82.347183
 11
179.250000
 21
82.347183
  0
LINE
  8
0
  6
CONTINUOUS
 10
182.250000
 20
42.347187
 11
179.250000
 21
42.347187
  0
LINE
  8
0
  6
CONTINUOUS
 10
183.250000
 20
43.347187
 11
183.250000
 21
81.347183
  0
ARC
  8
0
  6
CONTINUOUS
 10
182.250000
 20
81.347183
 40
1.000000
 50
0.000000
 51
90.000000
  0
ARC
  8
0
  6
CONTINUOUS
 10
182.250000
 20
43.347187
 40
1.000000
 50
-90.000000
 51
0.000000
  0
ARC
  8
0
  6
CONTINUOUS
 10
182.250000
 20
43.347187
 40
1.000000
 50
-90.000000
 51
0.000000
  0
LINE
  8
0
  6
CONTINUOUS
 10
185.250000
 20
70.847183
 11
185.250000
 21
53.847187
  0
LINE
  8
0
  6
CONTINUOUS
 10
212.250000
 20
69.847183
 11
212.250000
 21
54.847187
  0
LINE
  8
0
  6
CONTINUOUS
 10
185.250000
 20
69.847183
 11
212.250000
 21
69.847183
  0
LINE
  8
0
  6
CONTINUOUS
 10
185.250000
 20
54.847187
 11
212.250000
 21
54.847187
  0
LINE
  8
0
  6
CONTINUOUS
 10
183.250000
 20
70.847183
 11
185.250000
 21
70.847183
  0
LINE
  8
0
  6
CONTINUOUS
 10
183.250000
 20
53.847187
 11
185.250000
 21
53.847187
  0
LINE
  8
0
  6
CONTINUOUS
 10
190.750000
 20
64.847183
 11
212.250000
 21
64.847183
  0
LINE
  8
0
  6
CONTINUOUS
 10
190.750000
 20
59.847187
 11
212.250000
 21
59.847187
  0
ARC
  8
0
  6
CONTINUOUS
 10
190.750000
 20
62.347187
 40
2.500000
 50
90.000000
 51
180.000000
  0
ARC
  8
0
  6
CONTINUOUS
 10
190.750000
 20
62.347187
 40
2.500000
 50
180.000000
 51
270.000000
  0
LINE
  8
0
  6
CENTER
 10
-13.653906
 20
49.347187
 11
191.291245
 21
49.347187
  0
LINE
  8
0
  6
DASHED
 10
170.250000
 20
90.597183
 11
179.250000
 21
90.597183
  0
LINE
  8
0
  6
DASHED
 10
170.250000
 20
84.097183
 11
179.250000
 21
84.097183
  0
LINE
  8
0
  6
DASHED
 10
170.250000
 20
14.597187
 11
179.250000
 21
14.597187
  0
LINE
  8
0
  6
DASHED
 10
170.250000
 20
8.097187
 11
179.250000
 21
8.097187
  0
LINE
  8
0
  6
PHANTOM
 10
168.449997
 20
87.347183
 11
180.929993
 21
87.347183
  0
LINE
  8
0
  6
PHANTOM
 10
167.250000
 20
11.347187
 11
182.130005
 21
11.347187
  0
LINE
  8
0
  6
CENTER
 10
152.650620
 20
62.347187
 11
218.992294
 21
62.347187
  0
LINE
  8
0
  6
CONTINUOUS
 10
60.250000
 20
83.756485
 11
169.745895
 21
83.756485
  0
LINE
  8
0
  6
CONTINUOUS
 10
60.250000
 20
14.937887
 11
169.745895
 21
14.937887
  0
ARC
  8
0
  6
CONTINUOUS
 10
172.250000
 20
92.347183
 40
2.000000
 50
90.000000
 51
180.000000
  0
ARC
  8
0
  6
CONTINUOUS
 10
172.250000
 20
6.347187
 40
2.000000
 50
180.000000
 51
270.000000
  0
LINE
  8
0
  6
CENTER
 10
323.250000
 20
-4.684063
 11
323.250000
 21
150.505630
  0
LINE
  8
0
  6
CONTINUOUS
 10
278.250000
 20
10.045997
 11
278.250000
 21
88.648087
  0
LINE
  8
0
  6
CONTINUOUS
 10
368.250000
 20
10.046137
 11
368.250000
 21
88.648186
  0
LINE
  8
0
  6
CONTINUOUS
 10
363.337189
 20
93.647491
 11
323.250000
 21
94.347183
  0
LINE
  8
0
  6
CONTINUOUS
 10
363.337189
 20
5.046907
 11
323.250000
 21
4.347187
  0
LINE
  8
0
  6
CONTINUOUS
 10
283.162689
 20
93.647285
 11
323.250000
 21
94.347183
  0
LINE
  8
0
  6
CONTINUOUS
 10
283.162811
 20
5.046757
 11
323.250000
 21
4.347187
  0
ARC
  8
0
  6
CONTINUOUS
 10
363.250000
 20
88.648186
 40
5.000000
 50
0.000000
 51
89.000092
  0
ARC
  8
0
  6
CONTINUOUS
 10
283.250000
 20
88.648087
 40
5.000000
 50
91.000610
 51
180.000000
  0
ARC
  8
0
  6
CONTINUOUS
 10
283.250000
 20
10.046027
 40
5.000000
 50
180.000000
 51
269.000488
  0
ARC
  8
0
  6
CONTINUOUS
 10
363.250000
 20
10.046137
 40
5.000000
 50
-88.999817
 51
0.000000
  0
CIRCLE
  8
0
  6
CONTINUOUS
 10
361.250000
 20
87.347183
 40
3.250000
  0
CIRCLE
  8
0
  6
CONTINUOUS
 10
285.250000
 20
87.347183
 40
3.250000
  0
CIRCLE
  8
0
  6
CONTINUOUS
 10
361.250000
 20
11.347187
 40
3.250000
  0
CIRCLE
  8
0
  6
CONTINUOUS
 10
285.250000
 20
11.347187
 40
3.250000
  0
CIRCLE
  8
0
  6
CONTINUOUS
 10
323.250000
 20
62.347187
 40
20.000000
  0
LINE
  8
0
  6
CONTINUOUS
 10
363.250000
 20
63.708588
 11
363.250000
 21
34.985779
  0
ARC
  8
0
  6
CONTINUOUS
 10
323.250000
 20
49.347187
 40
42.500000
 50
270.000000
 51
340.250092
  0
ARC
  8
0
  6
CONTINUOUS
 10
323.250000
 20
49.347187
 40
42.500000
 50
19.749901
 51
90.000000
  0
LINE
  8
0
  6
CONTINUOUS
 10
283.250000
 20
63.708588
 11
283.250000
 21
34.985779
  0
ARC
  8
0
  6
CONTINUOUS
 10
323.250000
 20
49.347187
 40
42.500000
 50
-160.250107
 51
-90.000000
  0
ARC
  8
0
  6
CONTINUOUS
 10
323.250000
 20
49.347187
 40
42.500000
 50
90.000000
 51
160.250107
  0
LINE
  8
0
  6
CENTER
 10
361.250000
 20
93.140884
 11
361.250000
 21
81.590988
  0
LINE
  8
0
  6
CENTER
 10
361.250000
 20
6.253437
 11
361.250000
 21
16.884687
  0
LINE
  8
0
  6
CENTER
 10
285.250000
 20
92.878487
 11
285.250000
 21
80.803490
  0
LINE
  8
0
  6
CENTER
 10
285.250000
 20
6.253437
 11
285.250000
 21
17.278437
  0
LINE
  8
0
  6
CENTER
 10
280.200012
 20
11.347187
 11
289.912506
 21
11.347187
  0
LINE
  8
0
  6
CENTER
 10
367.481293
 20
11.347187
 11
355.668793
 21
11.347187
  0
LINE
  8
0
  6
CENTER
 10
279.674988
 20
87.347183
 11
290.700012
 21
87.347183
  0
LINE
  8
0
  6
CENTER
 10
367.218811
 20
87.347183
 11
355.668793
 21
87.347183
  0
LINE
  8
0
  6
CONTINUOUS
 10
313.750000
 20
64.847183
 11
318.750000
 21
64.847183
  0
LINE
  8
0
  6
CONTINUOUS
 10
313.750000
 20
59.847187
 11
318.750000
 21
59.847187
  0
LINE
  8
0
  6
CONTINUOUS
 10
313.750000
 20
64.847183
 11
313.750000
 21
59.847187
  0
LINE
  8
0
  6
CONTINUOUS
 10
318.750000
 20
59.847187
 11
318.750000
 21
64.847183
  0
ARC
  8
0
  6
CONTINUOUS
 10
323.250000
 20
62.347187
 40
7.500000
 50
-160.528793
 51
160.528793
  0
LINE
  8
0
  6
CENTER
 10
300.404297
 20
62.347187
 11
347.385193
 21
62.347187
  0
LINE
  8
0
  6
CONTINUOUS
 10
316.875000
 20
31.900408
 11
316.875000
 21
26.347187
  0
LINE
  8
0
  6
CONTINUOUS
 10
320.062500
 20
33.917496
 11
320.062500
 21
35.909687
  0
LINE
  8
0
  6
CONTINUOUS
 10
326.437500
 20
33.917496
 11
326.437500
 21
35.909687
  0
LINE
  8
0
  6
CONTINUOUS
 10
322.627411
 20
34.739277
 11
322.627411
 21
27.393087
  0
LINE
  8
0
  6
CONTINUOUS
 10
323.822815
 20
34.739277
 11
323.822815
 21
27.393087
  0
LINE
  8
0
  6
CONTINUOUS
 10
330.098114
 20
34.739277
 11
330.098114
 21
27.343277
  0
LINE
  8
0
  6
CONTINUOUS
 10
331.193787
 20
30.817158
 11
331.193787
 21
27.343277
  0
LINE
  8
0
  6
CONTINUOUS
 10
315.362488
 20
34.639668
 11
312.290588
 21
34.639668
  0
LINE
  8
0
  6
CONTINUOUS
 10
312.290588
 20
34.639668
 11
311.570801
 21
33.747166
  0
LINE
  8
0
  6
CONTINUOUS
 10
311.657410
 20
35.909687
 11
310.500000
 21
34.427689
  0
LINE
  8
0
  6
CONTINUOUS
 10
311.570801
 20
28.238108
 11
312.302094
 21
27.467796
  0
LINE
  8
0
  6
CONTINUOUS
 10
310.500000
 20
27.588037
 11
311.729797
 21
26.347187
  0
LINE
  8
0
  6
CONTINUOUS
 10
310.500000
 20
34.427689
 11
310.500000
 21
27.588037
  0
LINE
  8
0
  6
CONTINUOUS
 10
311.570801
 20
33.747166
 11
311.570801
 21
28.238108
  0
LINE
  8
0
  6
CONTINUOUS
 10
315.953613
 20
34.068226
 11
315.350403
 21
34.639668
  0
LINE
  8
0
  6
CONTINUOUS
 10
315.944000
 20
35.909687
 11
316.875000
 21
34.876549
  0
LINE
  8
0
  6
CONTINUOUS
 10
315.953613
 20
33.917496
 11
316.875000
 21
33.917496
  0
LINE
  8
0
  6
CONTINUOUS
 10
311.657410
 20
35.909687
 11
315.944000
 21
35.909687
  0
LINE
  8
0
  6
CONTINUOUS
 10
315.953613
 20
30.854507
 11
314.285187
 21
30.854507
  0
LINE
  8
0
  6
CONTINUOUS
 10
315.953613
 20
29.858418
 11
315.953613
 21
30.655296
  0
LINE
  8
0
  6
CONTINUOUS
 10
313.961395
 20
27.467796
 11
312.302094
 21
27.467796
  0
ARC
  8
0
  6
CONTINUOUS
 10
313.961395
 20
29.459976
 40
1.992188
 50
-89.999786
 51
0.000109
  0
LINE
  8
0
  6
CONTINUOUS
 10
315.953613
 20
27.109447
 11
315.953613
 21
26.347187
  0
LINE
  8
0
  6
CONTINUOUS
 10
316.875000
 20
34.876549
 11
316.875000
 21
33.917496
  0
LINE
  8
0
  6
CONTINUOUS
 10
315.953613
 20
30.854507
 11
315.953613
 21
29.459976
  0
LINE
  8
0
  6
CONTINUOUS
 10
314.285187
 20
31.900408
 11
314.285187
 21
30.854507
  0
LINE
  8
0
  6
CONTINUOUS
 10
315.953613
 20
26.347187
 11
316.875000
 21
26.347187
  0
LINE
  8
0
  6
CONTINUOUS
 10
315.953613
 20
27.109447
 11
315.045013
 21
26.347187
  0
LINE
  8
0
  6
CONTINUOUS
 10
323.822815
 20
27.393087
 11
324.221191
 21
27.393087
  0
LINE
  8
0
  6
CONTINUOUS
 10
322.154297
 20
27.393087
 11
322.154297
 21
26.347187
  0
LINE
  8
0
  6
CONTINUOUS
 10
324.221191
 20
27.393087
 11
324.221191
 21
26.347187
  0
LINE
  8
0
  6
CONTINUOUS
 10
325.772614
 20
33.917496
 11
326.437500
 21
33.917496
  0
LINE
  8
0
  6
CONTINUOUS
 10
320.062500
 20
33.917496
 11
320.770111
 21
33.917496
  0
LINE
  8
0
  6
CONTINUOUS
 10
320.062500
 20
35.909687
 11
326.437500
 21
35.909687
  0
LINE
  8
0
  6
CONTINUOUS
 10
322.154297
 20
26.347187
 11
324.221191
 21
26.347187
  0
LINE
  8
0
  6
CONTINUOUS
 10
322.154297
 20
27.393087
 11
322.627411
 21
27.393087
  0
ARC
  8
0
  6
CONTINUOUS
 10
333.447510
 20
33.357197
 40
2.552490
 50
-73.981873
 51
90.003510
  0
ARC
  8
0
  6
CONTINUOUS
 10
333.447510
 20
33.357197
 40
1.557192
 50
-82.585274
 51
62.411850
  0
LINE
  8
0
  6
CONTINUOUS
 10
329.625000
 20
35.909687
 11
333.447510
 21
35.909687
  0
LINE
  8
0
  6
CONTINUOUS
 10
329.625000
 20
35.909687
 11
329.625000
 21
34.739277
  0
LINE
  8
0
  6
CONTINUOUS
 10
331.193787
 20
34.739277
 11
331.193787
 21
31.813026
  0
LINE
  8
0
  6
CONTINUOUS
 10
334.151886
 20
30.903807
 11
335.731689
 21
27.343277
  0
LINE
  8
0
  6
CONTINUOUS
 10
333.234314
 20
30.817158
 11
334.729309
 21
27.343277
  0
LINE
  8
0
  6
CONTINUOUS
 10
329.625000
 20
27.343277
 11
330.098114
 21
27.343277
  0
LINE
  8
0
  6
CONTINUOUS
 10
331.193787
 20
27.343277
 11
331.629608
 21
27.343277
  0
LINE
  8
0
  6
CONTINUOUS
 10
331.629608
 20
26.347187
 11
329.625000
 21
26.347187
  0
LINE
  8
0
  6
CONTINUOUS
 10
334.530792
 20
27.343277
 11
334.729309
 21
27.343277
  0
LINE
  8
0
  6
CONTINUOUS
 10
335.731689
 20
27.343277
 11
336.000000
 21
27.343277
  0
LINE
  8
0
  6
CONTINUOUS
 10
334.530792
 20
26.347187
 11
336.000000
 21
26.347187
  0
LINE
  8
0
  6
CONTINUOUS
 10
336.000000
 20
27.343277
 11
336.000000
 21
26.347187
  0
LINE
  8
0
  6
CONTINUOUS
 10
334.530792
 20
27.343277
 11
334.530792
 21
26.347187
  0
LINE
  8
0
  6
CONTINUOUS
 10
331.629608
 20
27.343277
 11
331.629608
 21
26.347187
  0
LINE
  8
0
  6
CONTINUOUS
 10
329.625000
 20
27.343277
 11
329.625000
 21
26.347187
  0
LINE
  8
0
  6
CONTINUOUS
 10
321.112488
 20
34.739277
 11
320.770111
 21
33.917496
  0
LINE
  8
0
  6
CONTINUOUS
 10
325.483795
 20
34.739277
 11
325.772614
 21
33.917496
  0
LINE
  8
0
  6
CONTINUOUS
 10
323.822815
 20
34.739277
 11
325.483795
 21
34.739277
  0
LINE
  8
0
  6
CONTINUOUS
 10
322.627411
 20
34.739277
 11
321.112488
 21
34.739277
  0
LINE
  8
0
  6
CONTINUOUS
 10
329.625000
 20
34.739277
 11
330.098114
 21
34.739277
  0
LINE
  8
0
  6
CONTINUOUS
 10
331.193787
 20
34.739277
 11
334.168701
 21
34.737335
  0
LINE
  8
0
  6
CONTINUOUS
 10
315.953613
 20
34.068226
 11
315.953613
 21
33.917496
  0
LINE
  8
0
  6
CONTINUOUS
 10
311.729797
 20
26.347187
 11
315.045013
 21
26.347187
  0
LINE
  8
0
  6
CONTINUOUS
 10
331.193787
 20
31.813026
 11
333.648499
 21
31.813026
  0
LINE
  8
0
  6
CONTINUOUS
 10
331.193787
 20
30.817158
 11
333.234314
 21
30.817158
  0
LINE
  8
0
  6
CONTINUOUS
 10
314.285187
 20
31.900408
 11
316.875000
 21
31.900408
  0
LINE
  8
0
  6
CONTINUOUS
 10
297.149506
 20
2.347187
 11
349.350494
 21
2.347187
  0
LINE
  8
0
  6
CONTINUOUS
 10
276.250000
 20
75.447685
 11
276.250000
 21
23.246677
  0
LINE
  8
0
  6
CONTINUOUS
 10
370.250000
 20
23.246687
 11
370.250000
 21
75.447685
  0
LINE
  8
0
  6
CONTINUOUS
 10
354.800690
 20
93.796486
 11
354.300293
 21
94.296989
  0
LINE
  8
0
  6
CONTINUOUS
 10
291.699188
 20
93.796387
 11
292.199707
 21
94.296989
  0
LINE
  8
0
  6
CONTINUOUS
 10
291.699402
 20
4.897777
 11
292.199707
 21
4.397437
  0
LINE
  8
0
  6
CONTINUOUS
 10
354.300293
 20
4.397437
 11
354.800690
 21
4.897897
  0
ARC
  8
0
  6
CONTINUOUS
 10
349.350494
 20
89.347183
 40
7.000000
 50
45.000141
 51
68.213211
  0
ARC
  8
0
  6
CONTINUOUS
 10
363.250000
 20
75.447685
 40
7.000000
 50
0.000000
 51
44.415531
  0
ARC
  8
0
  6
CONTINUOUS
 10
363.250000
 20
23.246668
 40
7.000000
 50
-44.415192
 51
0.000000
  0
ARC
  8
0
  6
CONTINUOUS
 10
349.350494
 20
9.347187
 40
7.000000
 50
270.000000
 51
315.000000
  0
ARC
  8
0
  6
CONTINUOUS
 10
297.149506
 20
9.347187
 40
7.000000
 50
224.999893
 51
270.000000
  0
ARC
  8
0
  6
CONTINUOUS
 10
283.250000
 20
23.246737
 40
7.000000
 50
180.000000
 51
224.415497
  0
ARC
  8
0
  6
CONTINUOUS
 10
297.149506
 20
89.347183
 40
7.000000
 50
111.786789
 51
135.000198
  0
ARC
  8
0
  6
CONTINUOUS
 10
283.250000
 20
75.447685
 40
7.000000
 50
135.585205
 51
180.000000
  0
LINE
  8
0
  6
CENTER
 10
267.677490
 20
49.347187
 11
382.977509
 21
49.347187
  0
LINE
  8
0
  6
CONTINUOUS
 10
179.250000
 20
283.367493
 11
179.250000
 21
193.367493
  0
LINE
  8
0
  6
CONTINUOUS
 10
170.250076
 20
267.367493
 11
170.250076
 21
281.367493
  0
LINE
  8
0
  6
CONTINUOUS
 10
60.250080
 20
283.367493
 11
179.250076
 21
283.367493
  0
LINE
  8
0
  6
CONTINUOUS
 10
60.250080
 20
193.367508
 11
179.250076
 21
193.367508
  0
LINE
  8
0
  6
CONTINUOUS
 10
60.250080
 20
283.367493
 11
60.250080
 21
269.367493
  0
LINE
  8
0
  6
CONTINUOUS
 10
170.250076
 20
267.367493
 11
113.249992
 21
267.367493
  0
ARC
  8
0
  6
CONTINUOUS
 10
172.250076
 20
281.367523
 40
2.000000
 50
90.000000
 51
180.000000
  0
ARC
  8
0
  6
CONTINUOUS
 10
172.250076
 20
195.367508
 40
2.000000
 50
180.000000
 51
270.000000
  0
LINE
  8
0
  6
CONTINUOUS
 10
50.750000
 20
283.367493
 11
60.250080
 21
283.367493
  0
LINE
  8
0
  6
CONTINUOUS
 10
51.249989
 20
267.367493
 11
50.750000
 21
267.367493
  0
LINE
  8
0
  6
CONTINUOUS
 10
50.750000
 20
193.367508
 11
60.250080
 21
193.367508
  0
LINE
  8
0
  6
CONTINUOUS
 10
170.250076
 20
209.367493
 11
113.249992
 21
209.367493
  0
LINE
  8
0
  6
CONTINUOUS
 10
51.249989
 20
209.367493
 11
50.750000
 21
209.367493
  0
LINE
  8
0
  6
CONTINUOUS
 10
170.250076
 20
209.367493
 11
170.250076
 21
195.367477
  0
LINE
  8
0
  6
CONTINUOUS
 10
60.250080
 20
207.367477
 11
60.250080
 21
193.367508
  0
LINE
  8
0
  6
CENTER
 10
223.300217
 20
238.367493
 11
-10.649844
 21
238.367493
  0
LINE
  8
0
  6
CONTINUOUS
 10
212.250000
 20
245.867493
 11
212.250000
 21
228.867493
  0
LINE
  8
0
  6
CONTINUOUS
 10
185.250000
 20
246.867493
 11
185.250000
 21
229.867493
  0
LINE
  8
0
  6
CONTINUOUS
 10
185.250000
 20
245.867493
 11
212.250000
 21
245.867493
  0
LINE
  8
0
  6
CONTINUOUS
 10
185.250000
 20
230.867493
 11
188.250000
 21
230.867493
  0
LINE
  8
0
  6
CONTINUOUS
 10
182.250000
 20
258.367493
 11
179.250000
 21
258.367493
  0
LINE
  8
0
  6
CONTINUOUS
 10
182.250000
 20
218.367493
 11
179.250000
 21
218.367493
  0
LINE
  8
0
  6
CONTINUOUS
 10
183.250000
 20
219.367493
 11
183.250000
 21
257.367493
  0
ARC
  8
0
  6
CONTINUOUS
 10
182.250000
 20
257.367493
 40
1.000000
 50
0.000000
 51
90.000000
  0
ARC
  8
0
  6
CONTINUOUS
 10
182.250000
 20
219.367493
 40
1.000000
 50
-90.000000
 51
0.000000
  0
LINE
  8
0
  6
CONTINUOUS
 10
183.250000
 20
246.867493
 11
185.250000
 21
246.867493
  0
LINE
  8
0
  6
CONTINUOUS
 10
183.250000
 20
229.867493
 11
185.250000
 21
229.867493
  0
LINE
  8
0
  6
CONTINUOUS
 10
188.250000
 20
231.296494
 11
188.250000
 21
228.867493
  0
LINE
  8
0
  6
CONTINUOUS
 10
188.250000
 20
228.867493
 11
212.250000
 21
228.867493
  0
LINE
  8
0
  6
CONTINUOUS
 10
188.250000
 20
231.296494
 11
212.250000
 21
231.296494
  0
LINE
  8
0
  6
DASHED
 10
170.250000
 20
279.617493
 11
179.250000
 21
279.617493
  0
LINE
  8
0
  6
DASHED
 10
170.250000
 20
273.117493
 11
179.250000
 21
273.117493
  0
LINE
  8
0
  6
PHANTOM
 10
168.449997
 20
276.367493
 11
180.929993
 21
276.367493
  0
LINE
  8
0
  6
DASHED
 10
170.250000
 20
203.617493
 11
179.250000
 21
203.617493
  0
LINE
  8
0
  6
PHANTOM
 10
167.250000
 20
200.367493
 11
182.130005
 21
200.367493
  0
LINE
  8
0
  6
DASHED
 10
170.250000
 20
197.117493
 11
179.250000
 21
197.117493
  0
LINE
  8
0
  6
CONTINUOUS
 10
50.750000
 20
285.367493
 11
50.750000
 21
191.367493
  0
LINE
  8
0
  6
CONTINUOUS
 10
50.750000
 20
267.367493
 11
6.774990
 21
267.367493
  0
LINE
  8
0
  6
CONTINUOUS
 10
50.750000
 20
209.367508
 11
6.774990
 21
209.367508
  0
LINE
  8
0
  6
CONTINUOUS
 10
8.250000
 20
285.367493
 11
50.750000
 21
285.367493
  0
LINE
  8
0
  6
CONTINUOUS
 10
8.250000
 20
191.367493
 11
50.750000
 21
191.367493
  0
ARC
  8
0
  6
CONTINUOUS
 10
8.250000
 20
280.367493
 40
5.000000
 50
90.000000
 51
180.000000
  0
ARC
  8
0
  6
CONTINUOUS
 10
8.250000
 20
196.367493
 40
5.000000
 50
180.000000
 51
270.000000
  0
LINE
  8
0
  6
CONTINUOUS
 10
3.250000
 20
280.367493
 11
3.250000
 21
196.367493
  0
LINE
  8
0
  6
CONTINUOUS
 10
52.749989
 20
95.847198
 11
111.250008
 21
95.847183
  0
LINE
  8
0
  6
CONTINUOUS
 10
52.749989
 20
95.847183
 11
52.749989
 21
94.347183
  0
LINE
  8
0
  6
CONTINUOUS
 10
98.749992
 20
95.847183
 11
98.749992
 21
94.347183
  0
LINE
  8
0
  6
CONTINUOUS
 10
51.249989
 20
144.847183
 11
51.249989
 21
97.847198
  0
LINE
  8
0
  6
CONTINUOUS
 10
113.250008
 20
144.847214
 11
113.250008
 21
97.847183
  0
LINE
  8
0
  6
CONTINUOUS
 10
113.250008
 20
97.847183
 11
111.250008
 21
95.847183
  0
LINE
  8
0
  6
CONTINUOUS
 10
51.249989
 20
97.847198
 11
53.249989
 21
95.847198
  0
LINE
  8
0
  6
CONTINUOUS
 10
51.249989
 20
97.847198
 11
113.250008
 21
97.847183
  0
LINE
  8
0
  6
CONTINUOUS
 10
51.249989
 20
107.847198
 11
113.250008
 21
107.847198
  0
LINE
  8
0
  6
CENTER
 10
82.249992
 20
156.403442
 11
82.249992
 21
91.253166
  0
LINE
  8
0
  6
CONTINUOUS
 10
51.249989
 20
108.847198
 11
113.250008
 21
108.847198
  0
LINE
  8
0
  6
CONTINUOUS
 10
52.249989
 20
145.847183
 11
112.250008
 21
145.847214
  0
LINE
  8
0
  6
CONTINUOUS
 10
112.250008
 20
145.847214
 11
113.250008
 21
144.847214
  0
LINE
  8
0
  6
CONTINUOUS
 10
51.249989
 20
144.847183
 11
52.249989
 21
145.847183
  0
LINE
  8
0
  6
CONTINUOUS
 10
51.249989
 20
144.847183
 11
113.250008
 21
144.847214
  0
LINE
  8
0
  6
CENTER
 10
48.624989
 20
128.847214
 11
54.374989
 21
128.847214
  0
LINE
  8
0
  6
CONTINUOUS
 10
50.124989
 20
139.347214
 11
53.249989
 21
139.347214
  0
LINE
  8
0
  6
CONTINUOUS
 10
50.124989
 20
118.347198
 11
53.249989
 21
118.347198
  0
LINE
  8
0
  6
CONTINUOUS
 10
294.250000
 20
95.847183
 11
352.250000
 21
95.847183
  0
LINE
  8
0
  6
CONTINUOUS
 10
354.250000
 20
144.847183
 11
354.250000
 21
97.847183
  0
LINE
  8
0
  6
CONTINUOUS
 10
292.250000
 20
144.847183
 11
292.250000
 21
97.847183
  0
LINE
  8
0
  6
CONTINUOUS
 10
354.250000
 20
97.847183
 11
352.250000
 21
95.847183
  0
LINE
  8
0
  6
CONTINUOUS
 10
292.250000
 20
97.847183
 11
294.250000
 21
95.847183
  0
LINE
  8
0
  6
CONTINUOUS
 10
292.250000
 20
97.847183
 11
354.250000
 21
97.847183
  0
LINE
  8
0
  6
CONTINUOUS
 10
292.250000
 20
107.847183
 11
354.250000
 21
107.847183
  0
LINE
  8
0
  6
CONTINUOUS
 10
292.250000
 20
108.847183
 11
354.250000
 21
108.847183
  0
LINE
  8
0
  6
CONTINUOUS
 10
293.250000
 20
145.847183
 11
353.250000
 21
145.847183
  0
LINE
  8
0
  6
CONTINUOUS
 10
353.250000
 20
145.847183
 11
354.250000
 21
144.847183
  0
LINE
  8
0
  6
CONTINUOUS
 10
293.250000
 20
145.847183
 11
292.250000
 21
144.847183
  0
LINE
  8
0
  6
CONTINUOUS
 10
292.250000
 20
144.847183
 11
354.250000
 21
144.847183
  0
LINE
  8
0
  6
CONTINUOUS
 10
345.750000
 20
95.847183
 11
345.750000
 21
93.954445
  0
LINE
  8
0
  6
CONTINUOUS
 10
300.750000
 20
95.847183
 11
300.750000
 21
93.954460
  0
LINE
  8
0
  6
CONTINUOUS
 10
51.249989
 20
267.367493
 11
51.249989
 21
209.367477
  0
LINE
  8
0
  6
CONTINUOUS
 10
113.249992
 20
209.367477
 11
113.249992
 21
267.367493
  0
LINE
  8
0
  6
CONTINUOUS
 10
53.249989
 20
269.367493
 11
111.249992
 21
269.367493
  0
LINE
  8
0
  6
CONTINUOUS
 10
53.249989
 20
207.367477
 11
111.249992
 21
207.367477
  0
LINE
  8
0
  6
CONTINUOUS
 10
111.249992
 20
269.367493
 11
113.249992
 21
267.367493
  0
LINE
  8
0
  6
CONTINUOUS
 10
113.249992
 20
209.367477
 11
111.249992
 21
207.367477
  0
LINE
  8
0
  6
CONTINUOUS
 10
51.249989
 20
209.367477
 11
53.249989
 21
207.367477
  0
LINE
  8
0
  6
CONTINUOUS
 10
51.249989
 20
267.367493
 11
53.249989
 21
269.367493
  0
LINE
  8
0
  6
CONTINUOUS
 10
105.249992
 20
264.367493
 11
105.249992
 21
269.367493
  0
LINE
  8
0
  6
CONTINUOUS
 10
108.249992
 20
261.367493
 11
113.249992
 21
261.367493
  0
CIRCLE
  8
0
  6
CONTINUOUS
 10
109.249992
 20
265.367493
 40
2.250000
  0
ARC
  8
0
  6
CONTINUOUS
 10
108.249992
 20
264.367493
 40
3.000000
 50
180.000000
 51
270.000000
  0
LINE
  8
0
  6
CONTINUOUS
 10
112.249992
 20
260.367493
 11
112.249992
 21
216.367477
  0
LINE
  8
0
  6
CONTINUOUS
 10
108.249992
 20
260.367493
 11
112.249992
 21
260.367493
  0
ARC
  8
0
  6
CONTINUOUS
 10
108.249992
 20
264.367493
 40
4.000000
 50
180.000000
 51
270.000000
  0
LINE
  8
0
  6
CONTINUOUS
 10
104.249992
 20
268.367493
 11
104.249992
 21
264.367493
  0
LINE
  8
0
  6
CONTINUOUS
 10
112.249992
 20
260.367493
 11
113.249992
 21
261.367493
  0
LINE
  8
0
  6
CONTINUOUS
 10
60.249989
 20
268.367493
 11
104.249992
 21
268.367493
  0
LINE
  8
0
  6
CONTINUOUS
 10
104.249992
 20
268.367493
 11
105.249992
 21
269.367493
  0
LINE
  8
0
  6
CONTINUOUS
 10
56.249989
 20
261.367493
 11
51.249989
 21
261.367493
  0
LINE
  8
0
  6
CONTINUOUS
 10
59.249989
 20
264.367493
 11
59.249989
 21
269.367493
  0
CIRCLE
  8
0
  6
CONTINUOUS
 10
55.249989
 20
265.367493
 40
2.250000
  0
ARC
  8
0
  6
CONTINUOUS
 10
56.249989
 20
264.367493
 40
3.000000
 50
-90.000000
 51
0.000000
  0
LINE
  8
0
  6
CONTINUOUS
 10
60.249989
 20
264.367493
 11
60.249989
 21
268.367493
  0
ARC
  8
0
  6
CONTINUOUS
 10
56.249989
 20
264.367493
 40
4.000000
 50
-90.000000
 51
0.000000
  0
LINE
  8
0
  6
CONTINUOUS
 10
52.249989
 20
260.367493
 11
56.249989
 21
260.367493
  0
LINE
  8
0
  6
CONTINUOUS
 10
60.249989
 20
268.367493
 11
59.249989
 21
269.367493
  0
LINE
  8
0
  6
CONTINUOUS
 10
52.249989
 20
260.367493
 11
51.249989
 21
261.367493
  0
LINE
  8
0
  6
CONTINUOUS
 10
59.249989
 20
212.367477
 11
59.249989
 21
207.367477
  0
LINE
  8
0
  6
CONTINUOUS
 10
56.249989
 20
215.367477
 11
51.249989
 21
215.367477
  0
CIRCLE
  8
0
  6
CONTINUOUS
 10
55.249989
 20
211.367477
 40
2.250000
  0
ARC
  8
0
  6
CONTINUOUS
 10
56.249989
 20
212.367477
 40
3.000000
 50
0.000000
 51
90.000000
  0
LINE
  8
0
  6
CONTINUOUS
 10
56.249989
 20
216.367477
 11
52.249989
 21
216.367477
  0
ARC
  8
0
  6
CONTINUOUS
 10
56.249989
 20
212.367477
 40
4.000000
 50
0.000000
 51
90.000000
  0
LINE
  8
0
  6
CONTINUOUS
 10
60.249989
 20
208.367477
 11
60.249989
 21
212.367477
  0
LINE
  8
0
  6
CONTINUOUS
 10
52.249989
 20
216.367477
 11
51.249989
 21
215.367477
  0
LINE
  8
0
  6
CONTINUOUS
 10
60.249989
 20
208.367477
 11
59.249989
 21
207.367477
  0
LINE
  8
0
  6
CONTINUOUS
 10
108.249992
 20
215.367477
 11
113.249992
 21
215.367477
  0
LINE
  8
0
  6
CONTINUOUS
 10
105.249992
 20
212.367477
 11
105.249992
 21
207.367477
  0
CIRCLE
  8
0
  6
CONTINUOUS
 10
109.249992
 20
211.367477
 40
2.250000
  0
ARC
  8
0
  6
CONTINUOUS
 10
108.249992
 20
212.367477
 40
3.000000
 50
90.000000
 51
180.000000
  0
LINE
  8
0
  6
CONTINUOUS
 10
104.249992
 20
212.367477
 11
104.249992
 21
208.367477
  0
ARC
  8
0
  6
CONTINUOUS
 10
108.249992
 20
212.367477
 40
4.000000
 50
90.000000
 51
180.000000
  0
LINE
  8
0
  6
CONTINUOUS
 10
112.249992
 20
216.367477
 11
108.249992
 21
216.367477
  0
LINE
  8
0
  6
CONTINUOUS
 10
104.249992
 20
208.367477
 11
105.249992
 21
207.367477
  0
LINE
  8
0
  6
CONTINUOUS
 10
112.249992
 20
216.367477
 11
113.249992
 21
215.367477
  0
LINE
  8
0
  6
CONTINUOUS
 10
60.249989
 20
208.367477
 11
104.249992
 21
208.367477
  0
LINE
  8
0
  6
CONTINUOUS
 10
52.249989
 20
260.367493
 11
52.249989
 21
216.367477
  0
LINE
  8
0
  6
CENTER
 10
82.249992
 20
274.613739
 11
82.249992
 21
201.920914
  0
TEXT
  8
0
 10
-13.000000
 20
-4.000000
 40
4.000000
 41
1.000000
  1
GFMN-15-160~240-T25WC
 50
0.000000
  0
ENDSEC
  0
EOF
