  0
SECTION
  2
HEADER
  9
$ACADVER
  1
AC1014
  9
$ACADMAINTVER
 70
     9
  9
$DWGCODEPAGE
  3
ANSI_932
  9
$INSBASE
 10
0.0
 20
0.0
 30
0.0
  9
$EXTMIN
 10
46.19864583948731
 20
59.80171318425016
 30
0.0
  9
$EXTMAX
 10
544.4274492512928
 20
411.8114866442291
 30
0.0
  9
$LIMMIN
 10
-31.71278087975042
 20
-7.401886382482871
  9
$LIMMAX
 10
531.4902435198068
 20
459.7246670731071
  9
$ORTHOMODE
 70
     1
  9
$REGENMODE
 70
     1
  9
$FILLMODE
 70
     1
  9
$QTEXTMODE
 70
     0
  9
$MIRRTEXT
 70
     0
  9
$DRAGMODE
 70
     2
  9
$LTSCALE
 40
2.0
  9
$OSMODE
 70
    37
  9
$ATTMODE
 70
     1
  9
$TEXTSIZE
 40
2.0
  9
$TRACEWID
 40
1.0
  9
$TEXTSTYLE
  7
STANDARD
  9
$CLAYER
  8
0
  9
$CELTYPE
  6
BYLAYER
  9
$CECOLOR
 62
   256
  9
$CELTSCALE
 40
1.0
  9
$DELOBJ
 70
     1
  9
$DISPSILH
 70
     0
  9
$DIMSCALE
 40
2.0
  9
$DIMASZ
 40
1.8
  9
$DIMEXO
 40
0.625
  9
$DIMDLI
 40
3.75
  9
$DIMRND
 40
0.0
  9
$DIMDLE
 40
0.0
  9
$DIMEXE
 40
0.8
  9
$DIMTP
 40
0.0
  9
$DIMTM
 40
0.0
  9
$DIMTXT
 40
1.8
  9
$DIMCEN
 40
2.5
  9
$DIMTSZ
 40
0.0
  9
$DIMTOL
 70
     0
  9
$DIMLIM
 70
     0
  9
$DIMTIH
 70
     0
  9
$DIMTOH
 70
     0
  9
$DIMSE1
 70
     0
  9
$DIMSE2
 70
     0
  9
$DIMTAD
 70
     1
  9
$DIMZIN
 70
     8
  9
$DIMBLK
  1

  9
$DIMASO
 70
     1
  9
$DIMSHO
 70
     1
  9
$DIMPOST
  1

  9
$DIMAPOST
  1

  9
$DIMALT
 70
     0
  9
$DIMALTD
 70
     4
  9
$DIMALTF
 40
0.0394
  9
$DIMLFAC
 40
1.0
  9
$DIMTOFL
 70
     1
  9
$DIMTVP
 40
0.0
  9
$DIMTIX
 70
     0
  9
$DIMSOXD
 70
     0
  9
$DIMSAH
 70
     0
  9
$DIMBLK1
  1

  9
$DIMBLK2
  1

  9
$DIMSTYLE
  2
STANDARD
  9
$DIMCLRD
 70
     0
  9
$DIMCLRE
 70
     0
  9
$DIMCLRT
 70
     0
  9
$DIMTFAC
 40
1.0
  9
$DIMGAP
 40
0.75
  9
$DIMJUST
 70
     0
  9
$DIMSD1
 70
     0
  9
$DIMSD2
 70
     0
  9
$DIMTOLJ
 70
     1
  9
$DIMTZIN
 70
     0
  9
$DIMALTZ
 70
     0
  9
$DIMALTTZ
 70
     0
  9
$DIMFIT
 70
     3
  9
$DIMUPT
 70
     0
  9
$DIMUNIT
 70
     8
  9
$DIMDEC
 70
     2
  9
$DIMTDEC
 70
     2
  9
$DIMALTU
 70
     8
  9
$DIMALTTD
 70
     4
  9
$DIMTXSTY
  7
STANDARD
  9
$DIMAUNIT
 70
     0
  9
$LUNITS
 70
     2
  9
$LUPREC
 70
     3
  9
$SKETCHINC
 40
1.0
  9
$FILLETRAD
 40
10.0
  9
$AUNITS
 70
     0
  9
$AUPREC
 70
     2
  9
$MENU
  1
.
  9
$ELEVATION
 40
0.0
  9
$PELEVATION
 40
0.0
  9
$THICKNESS
 40
0.0
  9
$LIMCHECK
 70
     0
  9
$BLIPMODE
 70
     0
  9
$CHAMFERA
 40
0.0
  9
$CHAMFERB
 40
0.0
  9
$CHAMFERC
 40
20.0
  9
$CHAMFERD
 40
0.0
  9
$SKPOLY
 70
     0
  9
$TDCREATE
 40
2453760.712651180
  9
$TDUPDATE
 40
2453832.507673970
  9
$TDINDWG
 40
0.5856789352
  9
$TDUSRTIMER
 40
0.5856789352
  9
$USRTIMER
 70
     1
  9
$ANGBASE
 50
0.0
  9
$ANGDIR
 70
     0
  9
$PDMODE
 70
     0
  9
$PDSIZE
 40
-10.0
  9
$PLINEWID
 40
0.0
  9
$COORDS
 70
     0
  9
$SPLFRAME
 70
     0
  9
$SPLINETYPE
 70
     6
  9
$SPLINESEGS
 70
     8
  9
$ATTDIA
 70
     0
  9
$ATTREQ
 70
     1
  9
$HANDLING
 70
-16383
  9
$HANDSEED
  5
1959
  9
$SURFTAB1
 70
     6
  9
$SURFTAB2
 70
     6
  9
$SURFTYPE
 70
     6
  9
$SURFU
 70
     6
  9
$SURFV
 70
     6
  9
$UCSNAME
  2

  9
$UCSORG
 10
0.0
 20
0.0
 30
0.0
  9
$UCSXDIR
 10
1.0
 20
0.0
 30
0.0
  9
$UCSYDIR
 10
0.0
 20
1.0
 30
0.0
  9
$PUCSNAME
  2

  9
$PUCSORG
 10
0.0
 20
0.0
 30
0.0
  9
$PUCSXDIR
 10
1.0
 20
0.0
 30
0.0
  9
$PUCSYDIR
 10
0.0
 20
1.0
 30
0.0
  9
$USERI1
 70
     0
  9
$USERI2
 70
     0
  9
$USERI3
 70
     0
  9
$USERI4
 70
     0
  9
$USERI5
 70
     0
  9
$USERR1
 40
0.0
  9
$USERR2
 40
0.0
  9
$USERR3
 40
0.0
  9
$USERR4
 40
0.0
  9
$USERR5
 40
0.0
  9
$WORLDVIEW
 70
     1
  9
$SHADEDGE
 70
     3
  9
$SHADEDIF
 70
    70
  9
$TILEMODE
 70
     1
  9
$MAXACTVP
 70
    48
  9
$PINSBASE
 10
0.0
 20
0.0
 30
0.0
  9
$PLIMCHECK
 70
     0
  9
$PEXTMIN
 10
0.0
 20
0.0
 30
0.0
  9
$PEXTMAX
 10
0.0
 20
0.0
 30
0.0
  9
$PLIMMIN
 10
0.0
 20
0.0
  9
$PLIMMAX
 10
12.0
 20
9.0
  9
$UNITMODE
 70
     0
  9
$VISRETAIN
 70
     1
  9
$PLINEGEN
 70
     0
  9
$PSLTSCALE
 70
     1
  9
$TREEDEPTH
 70
  3020
  9
$PICKSTYLE
 70
     1
  9
$CMLSTYLE
  2
STANDARD
  9
$CMLJUST
 70
     0
  9
$CMLSCALE
 40
1.0
  9
$PROXYGRAPHICS
 70
     1
  9
$MEASUREMENT
 70
     0
  0
ENDSEC
  0
SECTION
  2
CLASSES
  0
CLASS
  1
DICTIONARYVAR
  2
AcDbDictionaryVar
  3
AutoCAD 2000
 90
        0
280
     0
281
     0
  0
CLASS
  1
ACDBDICTIONARYWDFLT
  2
AcDbDictionaryWithDefault
  3
AutoCAD 2000
 90
        0
280
     0
281
     0
  0
CLASS
  1
ACDBPLACEHOLDER
  2
AcDbPlaceHolder
  3
AutoCAD 2000
 90
        0
280
     0
281
     0
  0
CLASS
  1
LAYOUT
  2
AcDbLayout
  3
AutoCAD 2000
 90
        0
280
     0
281
     0
  0
CLASS
  1
LONG_TRANSACTION
  2
AcDbLongTransaction
  3
AutoCAD 2000
 90
        0
280
     0
281
     0
  0
CLASS
  1
LWPOLYLINE
  2
AcDbPolyline
  3
AutoCAD 2000
 90
        0
280
     0
281
     1
  0
CLASS
  1
HATCH
  2
AcDbHatch
  3
AutoCAD 2000
 90
        0
280
     0
281
     1
  0
CLASS
  1
XRECORD
  2
AcDbXrecord
  3
AutoCAD 2000
 90
        0
280
     0
281
     0
  0
ENDSEC
  0
SECTION
  2
TABLES
  0
TABLE
  2
VPORT
  5
6E
330
0
100
AcDbSymbolTable
 70
     2
  0
VPORT
  5
1933
330
6E
100
AcDbSymbolTableRecord
100
AcDbViewportTableRecord
  2
*ACTIVE
 70
     0
 10
0.0
 20
0.0
 11
1.0
 21
1.0
 12
283.9617105991859
 22
219.1583421271335
 13
0.0
 23
0.0
 14
10.0
 24
10.0
 15
10.0
 25
10.0
 16
0.0
 26
0.0
 36
1.0
 17
0.0
 27
0.0
 37
0.0
 40
388.3665596011997
 41
1.566970091027308
 42
50.0
 43
0.0
 44
0.0
 50
0.0
 51
0.0
 71
     0
 72
   100
 73
     1
 74
     3
 75
     0
 76
     0
 77
     0
 78
     0
  0
ENDTAB
  0
TABLE
  2
LTYPE
  5
69
330
0
100
AcDbSymbolTable
 70
     3
  0
LTYPE
  5
6A
330
69
100
AcDbSymbolTableRecord
100
AcDbLinetypeTableRecord
  2
BYBLOCK
 70
     0
  3

 72
    65
 73
     0
 40
0.0
  0
LTYPE
  5
6B
330
69
100
AcDbSymbolTableRecord
100
AcDbLinetypeTableRecord
  2
BYLAYER
 70
     0
  3

 72
    65
 73
     0
 40
0.0
  0
LTYPE
  5
8
330
69
100
AcDbSymbolTableRecord
100
AcDbLinetypeTableRecord
  2
CONTINUOUS
 70
     0
  3
Solid line
 72
    65
 73
     0
 40
0.0
  0
LTYPE
  5
27C
330
69
100
AcDbSymbolTableRecord
100
AcDbLinetypeTableRecord
  2
SEKKEI_A2_
 70
     0
  3
center(A2)  ____ _ ____ _ ____ _ ____ _ ____ _ 
 72
    65
 73
     4
 40
14.28749999999999
 49
9.525
 74
     0
 49
-1.587499999999999
 74
     0
 49
1.587499999999999
 74
     0
 49
-1.587499999999999
 74
     0
  0
LTYPE
  5
2B4
330
69
100
AcDbSymbolTableRecord
100
AcDbLinetypeTableRecord
  2
HIDDEN2
 70
     0
  3
Hidden (.5x) _ _ _ _ _ _ _ _ _ _ _ _ _ _ _ _ _
 72
    65
 73
     2
 40
4.762499999999999
 49
3.174999999999999
 74
     0
 49
-1.587499999999999
 74
     0
  0
ENDTAB
  0
TABLE
  2
LAYER
  5
66
330
0
100
AcDbSymbolTable
 70
     9
  0
LAYER
  5
5E
330
66
100
AcDbSymbolTableRecord
100
AcDbLayerTableRecord
  2
0
 70
     0
 62
     7
  6
CONTINUOUS
  0
LAYER
  5
3E
330
66
100
AcDbSymbolTableRecord
100
AcDbLayerTableRecord
  2
CENTER
 70
     0
 62
     3
  6
SEKKEI_A2_
  0
LAYER
  5
2B5
330
66
100
AcDbSymbolTableRecord
100
AcDbLayerTableRecord
  2
HIDS
 70
     0
 62
     1
  6
HIDDEN2
  0
LAYER
  5
2BA
330
66
100
AcDbSymbolTableRecord
100
AcDbLayerTableRecord
  2
HOJO
 70
     0
 62
     4
  6
CONTINUOUS
  0
LAYER
  5
3FA
330
66
100
AcDbSymbolTableRecord
100
AcDbLayerTableRecord
  2
TITLE
 70
     0
 62
     4
  6
CONTINUOUS
  0
ENDTAB
  0
TABLE
  2
STYLE
  5
67
330
0
100
AcDbSymbolTable
 70
     1
  0
STYLE
  5
16
330
67
100
AcDbSymbolTableRecord
100
AcDbTextStyleTableRecord
  2
STANDARD
 70
     0
 40
0.0
 41
1.0
 50
0.0
 71
     0
 42
2.0
  3
simplex.shx
  4
extfont.shx
  0
ENDTAB
  0
TABLE
  2
VIEW
  5
6C
330
0
100
AcDbSymbolTable
 70
     0
  0
ENDTAB
  0
TABLE
  2
UCS
  5
6D
330
0
100
AcDbSymbolTable
 70
     0
  0
ENDTAB
  0
TABLE
  2
APPID
  5
70
330
0
100
AcDbSymbolTable
 70
     1
  0
APPID
  5
71
330
70
100
AcDbSymbolTableRecord
100
AcDbRegAppTableRecord
  2
ACAD
 70
     0
  0
ENDTAB
  0
TABLE
  2
DIMSTYLE
  5
72
330
0
100
AcDbSymbolTable
 70
     1
  0
DIMSTYLE
105
73
330
72
100
AcDbSymbolTableRecord
100
AcDbDimStyleTableRecord
  2
STANDARD
 70
     0
  3

  4

  5

  6

  7

 40
2.0
 41
1.8
 42
0.625
 43
3.75
 44
0.8
 45
0.0
 46
0.0
 47
0.0
 48
0.0
140
1.8
141
2.5
142
0.0
143
0.0394
144
1.0
145
0.0
146
1.0
147
0.75
 71
     0
 72
     0
 73
     0
 74
     0
 75
     0
 76
     0
 77
     1
 78
     8
170
     0
171
     4
172
     1
173
     0
174
     0
175
     0
176
     0
177
     0
178
     0
270
     8
271
     2
272
     2
273
     8
274
     4
340
16
275
     0
280
     0
281
     0
282
     0
283
     1
284
     0
285
     0
286
     0
287
     3
288
     0
  0
ENDTAB
  0
TABLE
  2
BLOCK_RECORD
  5
1
330
0
100
AcDbSymbolTable
 70
    63
  0
BLOCK_RECORD
  5
2
102
{ACAD_XDICTIONARY
360
1955
102
}
330
1
100
AcDbSymbolTableRecord
100
AcDbBlockTableRecord
  2
*MODEL_SPACE
  0
BLOCK_RECORD
  5
192E
102
{ACAD_XDICTIONARY
360
1957
102
}
330
1
100
AcDbSymbolTableRecord
100
AcDbBlockTableRecord
  2
*PAPER_SPACE
  0
ENDTAB
  0
ENDSEC
  0
SECTION
  2
BLOCKS
  0
BLOCK
  5
5D
330
2
100
AcDbEntity
  8
0
100
AcDbBlockBegin
  2
*MODEL_SPACE
 70
     0
 10
0.0
 20
0.0
 30
0.0
  3
*MODEL_SPACE
  1

  0
ENDBLK
  5
5F
330
2
100
AcDbEntity
  8
0
100
AcDbBlockEnd
  0
BLOCK
  5
1930
330
192E
100
AcDbEntity
 67
     1
  8
0
100
AcDbBlockBegin
  2
*PAPER_SPACE
 70
     0
 10
0.0
 20
0.0
 30
0.0
  3
*PAPER_SPACE
  1

  0
ENDBLK
  5
1931
330
192E
100
AcDbEntity
 67
     1
  8
0
100
AcDbBlockEnd
  0
ENDSEC
  0
SECTION
  2
ENTITIES
  0
TEXT
  5
5FB
330
2
100
AcDbEntity
  8
TITLE
100
AcDbText
 10
439.9451766339222
 20
333.5261682171918
 30
0.0
 40
5.0
  1
GFMN-18-40~240-S90K
100
AcDbText
  0
TEXT
  5
5FC
330
2
100
AcDbEntity
  8
TITLE
100
AcDbText
 10
325.2717398577794
 20
334.006973600817
 30
0.0
 40
5.0
  1
GFMN-18-40~240-T90K
100
AcDbText
  0
TEXT
  5
5FD
330
2
100
AcDbEntity
  8
TITLE
100
AcDbText
 10
325.1130856029358
 20
366.6641749290715
 30
0.0
 40
5.0
  1
GFMN-18-160~240-T40K
100
AcDbText
  0
TEXT
  5
5FE
330
2
100
AcDbEntity
  8
TITLE
100
AcDbText
 10
439.9005878692772
 20
350.3515786314128
 30
0.0
 40
5.0
  1
GFMN-18-80~240-S60K
100
AcDbText
  0
TEXT
  5
5FF
330
2
100
AcDbEntity
  8
TITLE
100
AcDbText
 10
325.1130856029358
 20
350.3701206288414
 30
0.0
 40
5.0
  1
GFMN-18-80~240-T60K
100
AcDbText
  0
TEXT
  5
600
330
2
100
AcDbEntity
  8
TITLE
100
AcDbText
 10
439.9036397274831
 20
366.6917314913574
 30
0.0
 40
5.0
  1
GFMN-18-160~240-S40K
100
AcDbText
  0
LINE
  5
601
330
2
100
AcDbEntity
  8
CENTER
100
AcDbLine
 10
353.3416193394872
 20
121.7946042686252
 30
0.0
 11
483.9241083394873
 21
121.7946042686252
 31
0.0
  0
ARC
  5
602
330
2
100
AcDbEntity
  8
0
100
AcDbCircle
 10
107.6328178394873
 20
309.6774458323636
 30
0.0
 40
3.0
100
AcDbArc
 50
0.0
 51
90.0
  0
ARC
  5
603
330
2
100
AcDbEntity
  8
0
100
AcDbCircle
 10
107.6328178394873
 20
309.6774458323636
 30
0.0
 40
4.5
100
AcDbArc
 50
0.0
 51
90.0
  0
LINE
  5
604
330
2
100
AcDbEntity
  8
0
100
AcDbLine
 10
58.63281783948735
 20
309.7404188323637
 30
0.0
 11
58.63281783948735
 21
399.7404188323636
 31
0.0
  0
LINE
  5
605
330
2
100
AcDbEntity
  8
0
100
AcDbLine
 10
107.6328178394873
 20
409.7404188323636
 30
0.0
 11
107.6328178394873
 21
378.2404838323636
 31
0.0
  0
LINE
  5
606
330
2
100
AcDbEntity
  8
0
100
AcDbLine
 10
236.1328638394873
 20
323.2404188323636
 30
0.0
 11
236.1328638394873
 21
303.7404038323636
 31
0.0
  0
LINE
  5
607
330
2
100
AcDbEntity
  8
0
100
AcDbLine
 10
116.1328598394873
 20
301.7404188323637
 30
0.0
 11
116.1328598394873
 21
329.7404188323636
 31
0.0
  0
LINE
  5
608
330
2
100
AcDbEntity
  8
0
100
AcDbLine
 10
246.1328638394873
 20
301.7404188323637
 30
0.0
 11
246.1328638394873
 21
407.7404188323637
 31
0.0
  0
LINE
  5
609
330
2
100
AcDbEntity
  8
0
100
AcDbLine
 10
116.1328598394873
 20
79.17124326862529
 30
0.0
 11
236.1328638394873
 21
79.17124326862529
 31
0.0
  0
LINE
  5
60A
330
2
100
AcDbEntity
  8
0
100
AcDbLine
 10
116.1328598394873
 20
164.4180022686252
 30
0.0
 11
236.1328638394873
 21
164.4180022686252
 31
0.0
  0
LINE
  5
60B
330
2
100
AcDbEntity
  8
0
100
AcDbLine
 10
116.1328598394873
 20
68.79460326862528
 30
0.0
 11
246.1328638394873
 21
68.79460326862528
 31
0.0
  0
LINE
  5
60C
330
2
100
AcDbEntity
  8
0
100
AcDbLine
 10
116.1328598394873
 20
174.7946042686252
 30
0.0
 11
246.1328638394873
 21
174.7946042686252
 31
0.0
  0
LINE
  5
60E
330
2
100
AcDbEntity
  8
0
100
AcDbLine
 10
116.1328598394873
 20
301.7404188323637
 30
0.0
 11
246.1328638394873
 21
301.7404188323637
 31
0.0
  0
LINE
  5
60F
330
2
100
AcDbEntity
  8
0
100
AcDbLine
 10
116.1328598394873
 20
68.79460326862528
 30
0.0
 11
116.1328598394873
 21
174.7946042686252
 31
0.0
  0
LINE
  5
610
330
2
100
AcDbEntity
  8
0
100
AcDbLine
 10
58.63285983948734
 20
76.79460326862528
 30
0.0
 11
58.63285983948734
 21
166.7946042686252
 31
0.0
  0
LINE
  5
611
330
2
100
AcDbEntity
  8
0
100
AcDbLine
 10
107.6328598394873
 20
176.7946042686252
 30
0.0
 11
107.6328598394873
 21
66.79460326862528
 31
0.0
  0
LINE
  5
612
330
2
100
AcDbEntity
  8
0
100
AcDbLine
 10
63.63285983948734
 20
91.29460126862529
 30
0.0
 11
107.6328408394873
 21
91.29460126862529
 31
0.0
  0
LINE
  5
613
330
2
100
AcDbEntity
  8
0
100
AcDbLine
 10
68.63285983948734
 20
66.79460326862528
 30
0.0
 11
107.6328598394873
 21
66.79460326862528
 31
0.0
  0
LINE
  5
614
330
2
100
AcDbEntity
  8
CENTER
100
AcDbLine
 10
48.94250983948734
 20
121.7946042686252
 30
0.0
 11
257.555548177407
 21
121.7946042686252
 31
0.0
  0
ARC
  5
615
330
2
100
AcDbEntity
  8
0
100
AcDbCircle
 10
68.63285983948734
 20
76.79460326862528
 30
0.0
 40
10.0
100
AcDbArc
 50
180.0
 51
270.0
  0
LINE
  5
616
330
2
100
AcDbEntity
  8
0
100
AcDbLine
 10
107.6328408394873
 20
79.11047326862529
 30
0.0
 11
116.1328598394873
 21
79.11047326862529
 31
0.0
  0
LINE
  5
617
330
2
100
AcDbEntity
  8
0
100
AcDbLine
 10
107.6328408394873
 20
68.79460326862528
 30
0.0
 11
116.1328598394873
 21
68.79460326862528
 31
0.0
  0
LINE
  5
618
330
2
100
AcDbEntity
  8
0
100
AcDbLine
 10
68.63281783948735
 20
299.7404188323637
 30
0.0
 11
107.6328178394873
 21
299.7404188323637
 31
0.0
  0
LINE
  5
619
330
2
100
AcDbEntity
  8
0
100
AcDbLine
 10
63.63285983948734
 20
152.2946042686252
 30
0.0
 11
107.6328598394873
 21
152.2946042686252
 31
0.0
  0
LINE
  5
61A
330
2
100
AcDbEntity
  8
0
100
AcDbLine
 10
68.63285983948734
 20
176.7946042686252
 30
0.0
 11
107.6328598394873
 21
176.7946042686252
 31
0.0
  0
ARC
  5
61B
330
2
100
AcDbEntity
  8
0
100
AcDbCircle
 10
68.63290983948735
 20
166.7946042686252
 30
0.0
 40
10.0
100
AcDbArc
 50
90.0
 51
180.0
  0
ARC
  5
61C
330
2
100
AcDbEntity
  8
0
100
AcDbCircle
 10
68.63281783948735
 20
309.7404188323637
 30
0.0
 40
10.0
100
AcDbArc
 50
180.0
 51
270.0
  0
LINE
  5
61D
330
2
100
AcDbEntity
  8
HOJO
100
AcDbLine
 10
110.6328788394873
 20
151.2077062686253
 30
0.0
 11
112.1328788394873
 21
150.7077062686253
 31
0.0
  0
ARC
  5
61E
330
2
100
AcDbEntity
  8
0
100
AcDbCircle
 10
107.6328788394873
 20
155.2077062686253
 30
0.0
 40
3.0
100
AcDbArc
 50
0.0
 51
90.0
  0
ARC
  5
61F
330
2
100
AcDbEntity
  8
0
100
AcDbCircle
 10
107.6328788394873
 20
155.2077062686253
 30
0.0
 40
4.5
100
AcDbArc
 50
0.0
 51
90.0
  0
LINE
  5
620
330
2
100
AcDbEntity
  8
0
100
AcDbLine
 10
110.6328788394873
 20
155.2077062686253
 30
0.0
 11
110.6328788394873
 21
150.7077062686253
 31
0.0
  0
LINE
  5
621
330
2
100
AcDbEntity
  8
0
100
AcDbLine
 10
109.1328788394873
 20
155.2077062686253
 30
0.0
 11
109.1328788394873
 21
150.1921042686252
 31
0.0
  0
LINE
  5
622
330
2
100
AcDbEntity
  8
HOJO
100
AcDbLine
 10
109.1328788394873
 20
150.2077062686253
 30
0.0
 11
110.6328788394873
 21
150.7077062686253
 31
0.0
  0
ARC
  5
623
330
2
100
AcDbEntity
  8
0
100
AcDbCircle
 10
107.6328788394873
 20
155.2077062686253
 30
0.0
 40
1.5
100
AcDbArc
 50
0.0
 51
90.0
  0
LINE
  5
624
330
2
100
AcDbEntity
  8
0
100
AcDbLine
 10
112.1328788394873
 20
155.2077062686253
 30
0.0
 11
112.1328788394873
 21
150.7077062686253
 31
0.0
  0
LINE
  5
629
330
2
100
AcDbEntity
  8
0
100
AcDbLine
 10
107.6328408394873
 20
164.3572042686253
 30
0.0
 11
116.1328598394873
 21
164.3572042686253
 31
0.0
  0
LINE
  5
62B
330
2
100
AcDbEntity
  8
0
100
AcDbLine
 10
107.6328408394873
 20
174.7946042686252
 30
0.0
 11
116.1328598394873
 21
174.7946042686252
 31
0.0
  0
LINE
  5
631
330
2
100
AcDbEntity
  8
HOJO
100
AcDbLine
 10
110.6328178394873
 20
305.6774458323636
 30
0.0
 11
112.1328178394872
 21
305.1774458323636
 31
0.0
  0
LINE
  5
632
330
2
100
AcDbEntity
  8
0
100
AcDbLine
 10
107.6328178394873
 20
301.7404188323637
 30
0.0
 11
116.1328598394873
 21
301.7404188323637
 31
0.0
  0
LINE
  5
633
330
2
100
AcDbEntity
  8
HOJO
100
AcDbLine
 10
109.1328178394873
 20
304.6774458323636
 30
0.0
 11
110.6328178394873
 21
305.1774458323636
 31
0.0
  0
LINE
  5
634
330
2
100
AcDbEntity
  8
0
100
AcDbLine
 10
110.6328178394873
 20
309.6774458323636
 30
0.0
 11
110.6328178394873
 21
305.1774458323636
 31
0.0
  0
LINE
  5
635
330
2
100
AcDbEntity
  8
0
100
AcDbLine
 10
109.1328178394873
 20
309.6774458323636
 30
0.0
 11
109.1328178394873
 21
304.6618368323636
 31
0.0
  0
ARC
  5
636
330
2
100
AcDbEntity
  8
0
100
AcDbCircle
 10
107.6328178394873
 20
309.6774458323636
 30
0.0
 40
1.5
100
AcDbArc
 50
0.0
 51
90.0
  0
LINE
  5
637
330
2
100
AcDbEntity
  8
0
100
AcDbLine
 10
112.1328178394872
 20
309.6774458323636
 30
0.0
 11
112.1328178394872
 21
305.1774458323636
 31
0.0
  0
LINE
  5
638
330
2
100
AcDbEntity
  8
0
100
AcDbLine
 10
253.1328638394873
 20
146.7946042686252
 30
0.0
 11
253.1328638394873
 21
126.7946042686252
 31
0.0
  0
LINE
  5
639
330
2
100
AcDbEntity
  8
0
100
AcDbLine
 10
283.1328638394873
 20
127.7946042686252
 30
0.0
 11
283.1328638394873
 21
145.7946042686252
 31
0.0
  0
LINE
  5
63A
330
2
100
AcDbEntity
  8
0
100
AcDbLine
 10
251.1328638394873
 20
114.2946042686252
 30
0.0
 11
251.1328638394873
 21
159.2946042686252
 31
0.0
  0
LINE
  5
63B
330
2
100
AcDbEntity
  8
0
100
AcDbLine
 10
236.1328638394873
 20
172.7946042686252
 30
0.0
 11
236.1328638394873
 21
70.79459126862525
 31
0.0
  0
LINE
  5
63C
330
2
100
AcDbEntity
  8
0
100
AcDbLine
 10
246.1328638394873
 20
68.79460326862528
 30
0.0
 11
246.1328638394873
 21
174.7946042686252
 31
0.0
  0
LINE
  5
63D
330
2
100
AcDbEntity
  8
0
100
AcDbLine
 10
253.1328638394873
 20
127.7946042686252
 30
0.0
 11
283.1328638394873
 21
127.7946042686252
 31
0.0
  0
LINE
  5
63E
330
2
100
AcDbEntity
  8
HIDS
100
AcDbLine
 10
236.1328638394873
 20
73.54460326862528
 30
0.0
 11
246.1328638394873
 21
73.54460326862528
 31
0.0
  0
LINE
  5
63F
330
2
100
AcDbEntity
  8
HIDS
100
AcDbLine
 10
236.1328638394873
 20
82.04460126862528
 30
0.0
 11
246.1328638394873
 21
82.04460126862528
 31
0.0
  0
LINE
  5
640
330
2
100
AcDbEntity
  8
CENTER
100
AcDbLine
 10
231.8828638394873
 20
77.79460326862528
 30
0.0
 11
250.6328638394873
 21
77.79460326862528
 31
0.0
  0
ARC
  5
641
330
2
100
AcDbEntity
  8
0
100
AcDbCircle
 10
238.1328638394873
 20
70.79460326862528
 30
0.0
 40
2.0
100
AcDbArc
 50
180.0
 51
270.0
  0
ARC
  5
642
330
2
100
AcDbEntity
  8
0
100
AcDbCircle
 10
250.1328638394873
 20
114.2946042686252
 30
0.0
 40
1.0
100
AcDbArc
 50
270.0
 51
0.0
  0
LINE
  5
643
330
2
100
AcDbEntity
  8
0
100
AcDbLine
 10
250.1328638394873
 20
113.2946012686252
 30
0.0
 11
246.1328638394873
 21
113.2946012686252
 31
0.0
  0
LINE
  5
644
330
2
100
AcDbEntity
  8
0
100
AcDbLine
 10
251.1328638394873
 20
126.7946042686252
 30
0.0
 11
253.1328638394873
 21
126.7946042686252
 31
0.0
  0
LINE
  5
645
330
2
100
AcDbEntity
  8
0
100
AcDbLine
 10
259.1328638394873
 20
133.7946042686252
 30
0.0
 11
283.1328638394873
 21
133.7946042686252
 31
0.0
  0
LINE
  5
646
330
2
100
AcDbEntity
  8
0
100
AcDbLine
 10
259.1328638394873
 20
139.7946042686252
 30
0.0
 11
283.1328638394873
 21
139.7946042686252
 31
0.0
  0
LINE
  5
647
330
2
100
AcDbEntity
  8
0
100
AcDbLine
 10
253.1328638394873
 20
145.7946042686252
 30
0.0
 11
283.1328638394873
 21
145.7946042686252
 31
0.0
  0
LINE
  5
648
330
2
100
AcDbEntity
  8
CENTER
100
AcDbLine
 10
212.8425648394873
 20
136.7946042686252
 30
0.0
 11
292.1328638394873
 21
136.7946042686252
 31
0.0
  0
ARC
  5
649
330
2
100
AcDbEntity
  8
0
100
AcDbCircle
 10
259.1328638394873
 20
136.7946042686252
 30
0.0
 40
3.0
100
AcDbArc
 50
90.0
 51
270.0
  0
ARC
  5
64A
330
2
100
AcDbEntity
  8
0
100
AcDbCircle
 10
250.1328638394873
 20
159.2946042686252
 30
0.0
 40
1.0
100
AcDbArc
 50
0.0
 51
90.0
  0
ARC
  5
64B
330
2
100
AcDbEntity
  8
0
100
AcDbCircle
 10
250.1328638394873
 20
159.2946042686252
 30
0.0
 40
1.0
100
AcDbArc
 50
0.0
 51
90.0
  0
LINE
  5
64C
330
2
100
AcDbEntity
  8
0
100
AcDbLine
 10
250.1328638394873
 20
160.2946042686252
 30
0.0
 11
246.1328638394873
 21
160.2946042686252
 31
0.0
  0
LINE
  5
64D
330
2
100
AcDbEntity
  8
0
100
AcDbLine
 10
251.1328638394873
 20
146.7946042686252
 30
0.0
 11
253.1328638394873
 21
146.7946042686252
 31
0.0
  0
LINE
  5
64E
330
2
100
AcDbEntity
  8
HIDS
100
AcDbLine
 10
236.1328638394873
 20
161.5446042686252
 30
0.0
 11
246.1328638394873
 21
161.5446042686252
 31
0.0
  0
LINE
  5
64F
330
2
100
AcDbEntity
  8
HIDS
100
AcDbLine
 10
236.1328638394873
 20
170.0446042686252
 30
0.0
 11
246.1328638394873
 21
170.0446042686252
 31
0.0
  0
LINE
  5
650
330
2
100
AcDbEntity
  8
CENTER
100
AcDbLine
 10
232.8828638394873
 20
165.7946042686252
 30
0.0
 11
249.8828638394873
 21
165.7946042686252
 31
0.0
  0
ARC
  5
651
330
2
100
AcDbEntity
  8
0
100
AcDbCircle
 10
238.1328638394873
 20
172.7946042686252
 30
0.0
 40
2.0
100
AcDbArc
 50
90.0
 51
180.0
  0
LINE
  5
652
330
2
100
AcDbEntity
  8
HIDS
100
AcDbLine
 10
236.1328638394873
 20
306.4904188323637
 30
0.0
 11
246.1328638394873
 21
306.4904188323637
 31
0.0
  0
LINE
  5
653
330
2
100
AcDbEntity
  8
CENTER
100
AcDbLine
 10
231.8828638394873
 20
310.7404188323637
 30
0.0
 11
250.6328638394873
 21
310.7404188323637
 31
0.0
  0
ARC
  5
654
330
2
100
AcDbEntity
  8
0
100
AcDbCircle
 10
238.1328638394873
 20
303.7404188323637
 30
0.0
 40
2.0
100
AcDbArc
 50
180.0
 51
270.0
  0
LINE
  5
655
330
2
100
AcDbEntity
  8
0
100
AcDbLine
 10
116.1328598394873
 20
323.2404188323636
 30
0.0
 11
236.1328638394873
 21
323.2404188323636
 31
0.0
  0
LINE
  5
656
330
2
100
AcDbEntity
  8
0
100
AcDbLine
 10
116.1328598394873
 20
386.2404188323636
 30
0.0
 11
236.1328638394873
 21
386.2404188323636
 31
0.0
  0
LINE
  5
657
330
2
100
AcDbEntity
  8
0
100
AcDbLine
 10
116.1328598394873
 20
407.7404188323637
 30
0.0
 11
246.1328638394873
 21
407.7404188323637
 31
0.0
  0
LINE
  5
658
330
2
100
AcDbEntity
  8
CENTER
100
AcDbLine
 10
46.19864583948731
 20
354.7404188323636
 30
0.0
 11
289.2339528394873
 21
354.7404188323636
 31
0.0
  0
LINE
  5
659
330
2
100
AcDbEntity
  8
0
100
AcDbLine
 10
63.63281783948735
 20
324.2404188323636
 30
0.0
 11
107.6328178394873
 21
324.2404188323636
 31
0.0
  0
LINE
  5
65A
330
2
100
AcDbEntity
  8
0
100
AcDbLine
 10
63.63281783948735
 20
385.2404188323636
 30
0.0
 11
107.6328178394873
 21
385.2404188323636
 31
0.0
  0
LINE
  5
65B
330
2
100
AcDbEntity
  8
0
100
AcDbLine
 10
68.63281783948735
 20
409.7404188323636
 30
0.0
 11
107.6328178394873
 21
409.7404188323636
 31
0.0
  0
ARC
  5
65C
330
2
100
AcDbEntity
  8
0
100
AcDbCircle
 10
68.63281783948735
 20
399.7404188323636
 30
0.0
 40
10.0
100
AcDbArc
 50
90.0
 51
180.0
  0
LINE
  5
65D
330
2
100
AcDbEntity
  8
0
100
AcDbLine
 10
116.1328598394873
 20
379.7404188323636
 30
0.0
 11
116.1328598394873
 21
407.7403888323637
 31
0.0
  0
LINE
  5
65E
330
2
100
AcDbEntity
  8
0
100
AcDbLine
 10
116.1328598394873
 20
323.2404188323636
 30
0.0
 11
107.6328178394873
 21
323.2404188323636
 31
0.0
  0
LINE
  5
66D
330
2
100
AcDbEntity
  8
0
100
AcDbLine
 10
116.1328598394873
 20
386.2404188323636
 30
0.0
 11
107.6328178394873
 21
386.2404188323636
 31
0.0
  0
LINE
  5
66E
330
2
100
AcDbEntity
  8
0
100
AcDbLine
 10
107.6328178394873
 20
407.7403888323637
 30
0.0
 11
116.1328598394873
 21
407.7403888323637
 31
0.0
  0
LINE
  5
66F
330
2
100
AcDbEntity
  8
0
100
AcDbLine
 10
256.1328638394873
 20
346.2554188323637
 30
0.0
 11
283.1328638394873
 21
346.2554188323637
 31
0.0
  0
LINE
  5
670
330
2
100
AcDbEntity
  8
0
100
AcDbLine
 10
256.1328638394873
 20
343.2404038323636
 30
0.0
 11
283.1328638394873
 21
343.2404038323636
 31
0.0
  0
LINE
  5
671
330
2
100
AcDbEntity
  8
0
100
AcDbLine
 10
253.1328638394873
 20
363.7404188323636
 30
0.0
 11
283.1328638394873
 21
363.7404188323636
 31
0.0
  0
ARC
  5
672
330
2
100
AcDbEntity
  8
0
100
AcDbCircle
 10
250.1328638394873
 20
377.2404188323636
 30
0.0
 40
1.0
100
AcDbArc
 50
0.0
 51
90.0
  0
LINE
  5
673
330
2
100
AcDbEntity
  8
0
100
AcDbLine
 10
256.1328638394873
 20
346.2554188323637
 30
0.0
 11
256.1328638394873
 21
343.2404038323636
 31
0.0
  0
LINE
  5
674
330
2
100
AcDbEntity
  8
0
100
AcDbLine
 10
253.1328638394873
 20
364.7404188323636
 30
0.0
 11
253.1328638394873
 21
344.7404188323636
 31
0.0
  0
LINE
  5
675
330
2
100
AcDbEntity
  8
0
100
AcDbLine
 10
251.1328638394873
 20
332.2404188323636
 30
0.0
 11
251.1328638394873
 21
377.2404188323636
 31
0.0
  0
LINE
  5
676
330
2
100
AcDbEntity
  8
HIDS
100
AcDbLine
 10
236.1328638394873
 20
314.9904188323636
 30
0.0
 11
246.1328638394873
 21
314.9904188323636
 31
0.0
  0
ARC
  5
677
330
2
100
AcDbEntity
  8
0
100
AcDbCircle
 10
250.1328638394873
 20
332.2404188323636
 30
0.0
 40
1.0
100
AcDbArc
 50
270.0
 51
0.0
  0
LINE
  5
678
330
2
100
AcDbEntity
  8
0
100
AcDbLine
 10
250.1328638394873
 20
331.2404188323636
 30
0.0
 11
246.1328638394873
 21
331.2404188323636
 31
0.0
  0
LINE
  5
679
330
2
100
AcDbEntity
  8
0
100
AcDbLine
 10
251.1328638394873
 20
344.7404188323636
 30
0.0
 11
253.1328638394873
 21
344.7404188323636
 31
0.0
  0
LINE
  5
67A
330
2
100
AcDbEntity
  8
0
100
AcDbLine
 10
253.1328638394873
 20
345.7404188323636
 30
0.0
 11
256.1328638394873
 21
345.7404188323636
 31
0.0
  0
LINE
  5
67B
330
2
100
AcDbEntity
  8
0
100
AcDbLine
 10
251.1328638394873
 20
364.7404188323636
 30
0.0
 11
253.1328638394873
 21
364.7404188323636
 31
0.0
  0
LINE
  5
67C
330
2
100
AcDbEntity
  8
HIDS
100
AcDbLine
 10
236.1328638394873
 20
394.4904188323636
 30
0.0
 11
246.1328638394873
 21
394.4904188323636
 31
0.0
  0
LINE
  5
67D
330
2
100
AcDbEntity
  8
HIDS
100
AcDbLine
 10
236.1328638394873
 20
402.9904188323636
 30
0.0
 11
246.1328638394873
 21
402.9904188323636
 31
0.0
  0
LINE
  5
67E
330
2
100
AcDbEntity
  8
CENTER
100
AcDbLine
 10
232.8828638394873
 20
398.7404188323636
 30
0.0
 11
249.8828638394873
 21
398.7404188323636
 31
0.0
  0
LINE
  5
67F
330
2
100
AcDbEntity
  8
0
100
AcDbLine
 10
236.1328638394873
 20
405.7404188323636
 30
0.0
 11
236.1328638394873
 21
386.2404188323636
 31
0.0
  0
ARC
  5
680
330
2
100
AcDbEntity
  8
0
100
AcDbCircle
 10
238.1328638394873
 20
405.7404188323636
 30
0.0
 40
2.0
100
AcDbArc
 50
90.0
 51
180.0
  0
LINE
  5
681
330
2
100
AcDbEntity
  8
0
100
AcDbLine
 10
250.1328638394873
 20
378.2404188323636
 30
0.0
 11
246.1328638394873
 21
378.2404188323636
 31
0.0
  0
LINE
  5
682
330
2
100
AcDbEntity
  8
0
100
AcDbLine
 10
283.1328638394873
 20
343.2404038323636
 30
0.0
 11
283.1328638394873
 21
363.7404188323636
 31
0.0
  0
CIRCLE
  5
683
330
2
100
AcDbEntity
  8
0
100
AcDbCircle
 10
418.6328638394873
 20
136.7946042686252
 30
0.0
 40
23.5
  0
ARC
  5
684
330
2
100
AcDbEntity
  8
0
100
AcDbCircle
 10
418.6328638394873
 20
136.7946042686252
 30
0.0
 40
9.0
100
AcDbArc
 50
199.471207
 51
160.5287929999999
  0
LINE
  5
685
330
2
100
AcDbEntity
  8
0
100
AcDbLine
 10
473.6328638394873
 20
150.2234982686252
 30
0.0
 11
473.6328638394873
 21
93.36567226862531
 31
0.0
  0
LINE
  5
686
330
2
100
AcDbEntity
  8
0
100
AcDbLine
 10
363.6328638394873
 20
93.36567226862531
 30
0.0
 11
363.6328638394873
 21
150.2234982686252
 31
0.0
  0
LINE
  5
687
330
2
100
AcDbEntity
  8
0
100
AcDbLine
 10
370.6328638394873
 20
137.4869032686252
 30
0.0
 11
370.6328638394873
 21
106.1022522686253
 31
0.0
  0
LINE
  5
688
330
2
100
AcDbEntity
  8
0
100
AcDbLine
 10
466.6328638394872
 20
137.4869032686252
 30
0.0
 11
466.6328638394872
 21
106.1022332686252
 31
0.0
  0
LINE
  5
689
330
2
100
AcDbEntity
  8
0
100
AcDbLine
 10
365.6328638394873
 20
74.6330122686253
 30
0.0
 11
365.6328638394873
 21
168.9557982686253
 31
0.0
  0
LINE
  5
68A
330
2
100
AcDbEntity
  8
0
100
AcDbLine
 10
471.6328638394872
 20
74.63320326862526
 30
0.0
 11
471.6328638394872
 21
168.9560042686252
 31
0.0
  0
LINE
  5
68B
330
2
100
AcDbEntity
  8
CENTER
100
AcDbLine
 10
418.6328638394873
 20
59.80171318425016
 30
0.0
 11
418.6328638394873
 21
226.6821192686252
 31
0.0
  0
ARC
  5
68C
330
2
100
AcDbEntity
  8
0
100
AcDbCircle
 10
447.0617578394873
 20
71.79460326862528
 30
0.0
 40
5.0
100
AcDbArc
 50
270.0
 51
315.0
  0
LINE
  5
68D
330
2
100
AcDbEntity
  8
0
100
AcDbLine
 10
466.7201738394874
 20
69.63396226862528
 30
0.0
 11
418.6328638394873
 21
68.79460326862528
 31
0.0
  0
ARC
  5
68E
330
2
100
AcDbEntity
  8
0
100
AcDbCircle
 10
418.6328638394873
 20
121.7946042686252
 30
0.0
 40
50.5
100
AcDbArc
 50
198.103806
 51
341.89621
  0
LINE
  5
68F
330
2
100
AcDbEntity
  8
0
100
AcDbLine
 10
447.0617578394873
 20
66.79460326862528
 30
0.0
 11
390.2039698394874
 21
66.79460326862528
 31
0.0
  0
LINE
  5
690
330
2
100
AcDbEntity
  8
0
100
AcDbLine
 10
370.5456748394873
 20
69.63378326862528
 30
0.0
 11
418.6328638394873
 21
68.79460326862528
 31
0.0
  0
LINE
  5
691
330
2
100
AcDbEntity
  8
CENTER
100
AcDbLine
 10
368.1328638394873
 20
77.79460326862528
 30
0.0
 11
382.8828638394872
 21
77.79460326862528
 31
0.0
  0
CIRCLE
  5
692
330
2
100
AcDbEntity
  8
0
100
AcDbCircle
 10
374.6328638394873
 20
77.6328522686253
 30
0.0
 40
4.25
  0
LINE
  5
693
330
2
100
AcDbEntity
  8
CENTER
100
AcDbLine
 10
374.6328638394873
 20
70.79460326862528
 30
0.0
 11
374.6328638394873
 21
86.79460126862528
 31
0.0
  0
ARC
  5
694
330
2
100
AcDbEntity
  8
0
100
AcDbCircle
 10
370.6328638394873
 20
74.6330522686253
 30
0.0
 40
5.0
100
AcDbArc
 50
180.0
 51
269.0004879999998
  0
LINE
  5
695
330
2
100
AcDbEntity
  8
0
100
AcDbLine
 10
365.0973718394873
 20
89.83013126862529
 30
0.0
 11
365.6328638394873
 21
89.29458226862527
 31
0.0
  0
ARC
  5
696
330
2
100
AcDbEntity
  8
0
100
AcDbCircle
 10
368.6328638394873
 20
93.36570326862528
 30
0.0
 40
5.0
100
AcDbArc
 50
180.0
 51
225.0003969999999
  0
ARC
  5
697
330
2
100
AcDbEntity
  8
0
100
AcDbCircle
 10
390.2039698394874
 20
71.79460326862528
 30
0.0
 40
5.0
100
AcDbArc
 50
225.0
 51
270.0
  0
LINE
  5
698
330
2
100
AcDbEntity
  8
0
100
AcDbLine
 10
386.6684468394873
 20
68.25907226862529
 30
0.0
 11
385.5556538394873
 21
69.3718432686253
 31
0.0
  0
LINE
  5
699
330
2
100
AcDbEntity
  8
0
100
AcDbLine
 10
428.6171468394873
 20
98.26457126862528
 30
0.0
 11
430.1121728394873
 21
94.79069126862532
 31
0.0
  0
LINE
  5
69A
330
2
100
AcDbEntity
  8
0
100
AcDbLine
 10
429.5347498394874
 20
98.3512222686253
 30
0.0
 11
431.1145528394873
 21
94.79069126862532
 31
0.0
  0
ARC
  5
69B
330
2
100
AcDbEntity
  8
0
100
AcDbCircle
 10
409.3442588394873
 20
96.90739426862529
 30
0.0
 40
1.992186999999999
100
AcDbArc
 50
270.0002139999998
 51
0.0001090000001003
  0
LINE
  5
69C
330
2
100
AcDbEntity
  8
0
100
AcDbLine
 10
406.9536638394872
 20
101.1945832686252
 30
0.0
 11
406.9536638394872
 21
95.68552326862528
 31
0.0
  0
LINE
  5
69D
330
2
100
AcDbEntity
  8
0
100
AcDbLine
 10
405.8828638394873
 20
101.8751022686252
 30
0.0
 11
405.8828638394873
 21
95.0354532686253
 31
0.0
  0
LINE
  5
69E
330
2
100
AcDbEntity
  8
0
100
AcDbLine
 10
426.5766498394873
 20
98.26457126862528
 30
0.0
 11
426.5766498394873
 21
94.79069126862532
 31
0.0
  0
LINE
  5
69F
330
2
100
AcDbEntity
  8
0
100
AcDbLine
 10
425.4809468394873
 20
102.1866902686252
 30
0.0
 11
425.4809468394873
 21
94.79069126862532
 31
0.0
  0
LINE
  5
6A0
330
2
100
AcDbEntity
  8
0
100
AcDbLine
 10
419.2056478394873
 20
102.1866902686252
 30
0.0
 11
419.2056478394873
 21
94.84050326862529
 31
0.0
  0
LINE
  5
6A1
330
2
100
AcDbEntity
  8
0
100
AcDbLine
 10
418.0102748394873
 20
102.1866902686252
 30
0.0
 11
418.0102748394873
 21
94.84050326862529
 31
0.0
  0
LINE
  5
6A2
330
2
100
AcDbEntity
  8
0
100
AcDbLine
 10
412.2578638394872
 20
99.3478232686253
 30
0.0
 11
412.2578638394872
 21
93.79460126862529
 31
0.0
  0
LINE
  5
6A3
330
2
100
AcDbEntity
  8
0
100
AcDbLine
 10
405.8828638394873
 20
95.0354532686253
 30
0.0
 11
407.1126608394872
 21
93.79460126862529
 31
0.0
  0
LINE
  5
6A4
330
2
100
AcDbEntity
  8
0
100
AcDbLine
 10
407.1126608394872
 20
93.79460126862529
 30
0.0
 11
410.4278468394872
 21
93.79460126862529
 31
0.0
  0
LINE
  5
6A5
330
2
100
AcDbEntity
  8
0
100
AcDbLine
 10
411.3364458394873
 20
94.55686126862531
 30
0.0
 11
410.4278468394872
 21
93.79460126862529
 31
0.0
  0
LINE
  5
6A6
330
2
100
AcDbEntity
  8
0
100
AcDbLine
 10
411.3364458394873
 20
93.79460126862529
 30
0.0
 11
412.2578638394872
 21
93.79460126862529
 31
0.0
  0
LINE
  5
6A7
330
2
100
AcDbEntity
  8
0
100
AcDbLine
 10
411.3364458394873
 20
94.55686126862531
 30
0.0
 11
411.3364458394873
 21
93.79460126862529
 31
0.0
  0
LINE
  5
6A8
330
2
100
AcDbEntity
  8
0
100
AcDbLine
 10
409.3442588394873
 20
94.91521426862528
 30
0.0
 11
407.6849568394873
 21
94.91521426862528
 31
0.0
  0
LINE
  5
6A9
330
2
100
AcDbEntity
  8
0
100
AcDbLine
 10
406.9536638394872
 20
95.68552326862528
 30
0.0
 11
407.6849568394873
 21
94.91521426862528
 31
0.0
  0
LINE
  5
6AA
330
2
100
AcDbEntity
  8
0
100
AcDbLine
 10
417.5371608394873
 20
93.79460126862529
 30
0.0
 11
419.6040548394874
 21
93.79460126862529
 31
0.0
  0
LINE
  5
6AB
330
2
100
AcDbEntity
  8
0
100
AcDbLine
 10
417.5371608394873
 20
94.84050326862529
 30
0.0
 11
418.0102748394873
 21
94.84050326862529
 31
0.0
  0
LINE
  5
6AC
330
2
100
AcDbEntity
  8
0
100
AcDbLine
 10
417.5371608394873
 20
94.84050326862529
 30
0.0
 11
417.5371608394873
 21
93.79460126862529
 31
0.0
  0
LINE
  5
6AD
330
2
100
AcDbEntity
  8
0
100
AcDbLine
 10
419.6040548394874
 20
94.84050326862529
 30
0.0
 11
419.6040548394874
 21
93.79460126862529
 31
0.0
  0
LINE
  5
6AE
330
2
100
AcDbEntity
  8
0
100
AcDbLine
 10
419.2056478394873
 20
94.84050326862529
 30
0.0
 11
419.6040548394874
 21
94.84050326862529
 31
0.0
  0
LINE
  5
6AF
330
2
100
AcDbEntity
  8
0
100
AcDbLine
 10
429.9136558394873
 20
93.79460126862529
 30
0.0
 11
431.3828638394872
 21
93.79460126862529
 31
0.0
  0
LINE
  5
6B0
330
2
100
AcDbEntity
  8
0
100
AcDbLine
 10
429.9136558394873
 20
94.79069126862532
 30
0.0
 11
430.1121728394873
 21
94.79069126862532
 31
0.0
  0
LINE
  5
6B1
330
2
100
AcDbEntity
  8
0
100
AcDbLine
 10
425.0078638394873
 20
94.79069126862532
 30
0.0
 11
425.0078638394873
 21
93.79460126862529
 31
0.0
  0
LINE
  5
6B2
330
2
100
AcDbEntity
  8
0
100
AcDbLine
 10
427.0124718394874
 20
94.79069126862532
 30
0.0
 11
427.0124718394874
 21
93.79460126862529
 31
0.0
  0
LINE
  5
6B3
330
2
100
AcDbEntity
  8
0
100
AcDbLine
 10
429.9136558394873
 20
94.79069126862532
 30
0.0
 11
429.9136558394873
 21
93.79460126862529
 31
0.0
  0
LINE
  5
6B4
330
2
100
AcDbEntity
  8
0
100
AcDbLine
 10
427.0124718394874
 20
93.79460126862529
 30
0.0
 11
425.0078638394873
 21
93.79460126862529
 31
0.0
  0
LINE
  5
6B5
330
2
100
AcDbEntity
  8
0
100
AcDbLine
 10
426.5766498394873
 20
94.79069126862532
 30
0.0
 11
427.0124718394874
 21
94.79069126862532
 31
0.0
  0
LINE
  5
6B6
330
2
100
AcDbEntity
  8
0
100
AcDbLine
 10
425.0078638394873
 20
94.79069126862532
 30
0.0
 11
425.4809468394873
 21
94.79069126862532
 31
0.0
  0
LINE
  5
6B7
330
2
100
AcDbEntity
  8
0
100
AcDbLine
 10
431.3828638394872
 20
94.79069126862532
 30
0.0
 11
431.3828638394872
 21
93.79460126862529
 31
0.0
  0
LINE
  5
6B8
330
2
100
AcDbEntity
  8
0
100
AcDbLine
 10
431.1145528394873
 20
94.79069126862532
 30
0.0
 11
431.3828638394872
 21
94.79069126862532
 31
0.0
  0
LINE
  5
6B9
330
2
100
AcDbEntity
  8
0
100
AcDbLine
 10
407.0402728394872
 20
103.3571012686252
 30
0.0
 11
405.8828638394873
 21
101.8751022686252
 31
0.0
  0
LINE
  5
6BA
330
2
100
AcDbEntity
  8
0
100
AcDbLine
 10
409.6680498394873
 20
99.3478232686253
 30
0.0
 11
412.2578638394872
 21
99.3478232686253
 31
0.0
  0
LINE
  5
6BB
330
2
100
AcDbEntity
  8
0
100
AcDbLine
 10
411.3364458394873
 20
101.5156432686252
 30
0.0
 11
411.3364458394873
 21
101.3649132686252
 31
0.0
  0
LINE
  5
6BC
330
2
100
AcDbEntity
  8
0
100
AcDbLine
 10
409.6680498394873
 20
99.3478232686253
 30
0.0
 11
409.6680498394873
 21
98.30192126862527
 31
0.0
  0
LINE
  5
6BD
330
2
100
AcDbEntity
  8
0
100
AcDbLine
 10
411.3364458394873
 20
98.30192126862527
 30
0.0
 11
411.3364458394873
 21
96.90739426862529
 31
0.0
  0
LINE
  5
6BE
330
2
100
AcDbEntity
  8
0
100
AcDbLine
 10
412.2578638394872
 20
102.3239622686252
 30
0.0
 11
412.2578638394872
 21
101.3649132686252
 31
0.0
  0
LINE
  5
6BF
330
2
100
AcDbEntity
  8
0
100
AcDbLine
 10
411.3364458394873
 20
97.3058312686253
 30
0.0
 11
411.3364458394873
 21
98.10271426862527
 31
0.0
  0
LINE
  5
6C0
330
2
100
AcDbEntity
  8
0
100
AcDbLine
 10
411.3364458394873
 20
98.30192126862527
 30
0.0
 11
409.6680498394873
 21
98.30192126862527
 31
0.0
  0
LINE
  5
6C1
330
2
100
AcDbEntity
  8
0
100
AcDbLine
 10
407.0402728394872
 20
103.3571012686252
 30
0.0
 11
411.3268638394873
 21
103.3571012686252
 31
0.0
  0
LINE
  5
6C2
330
2
100
AcDbEntity
  8
0
100
AcDbLine
 10
411.3364458394873
 20
101.3649132686252
 30
0.0
 11
412.2578638394872
 21
101.3649132686252
 31
0.0
  0
LINE
  5
6C3
330
2
100
AcDbEntity
  8
0
100
AcDbLine
 10
411.3268638394873
 20
103.3571012686252
 30
0.0
 11
412.2578638394872
 21
102.3239622686252
 31
0.0
  0
LINE
  5
6C4
330
2
100
AcDbEntity
  8
0
100
AcDbLine
 10
411.3364458394873
 20
101.5156432686252
 30
0.0
 11
410.7332658394873
 21
102.0870812686252
 31
0.0
  0
LINE
  5
6C5
330
2
100
AcDbEntity
  8
0
100
AcDbLine
 10
407.6734518394873
 20
102.0870812686252
 30
0.0
 11
406.9536638394872
 21
101.1945832686252
 31
0.0
  0
LINE
  5
6C6
330
2
100
AcDbEntity
  8
0
100
AcDbLine
 10
410.7453508394874
 20
102.0870812686252
 30
0.0
 11
407.6734518394873
 21
102.0870812686252
 31
0.0
  0
LINE
  5
6C7
330
2
100
AcDbEntity
  8
0
100
AcDbLine
 10
415.4453638394873
 20
103.3571012686252
 30
0.0
 11
421.8203638394872
 21
103.3571012686252
 31
0.0
  0
LINE
  5
6C8
330
2
100
AcDbEntity
  8
0
100
AcDbLine
 10
418.0102748394873
 20
102.1866902686252
 30
0.0
 11
416.4953508394874
 21
102.1866902686252
 31
0.0
  0
LINE
  5
6C9
330
2
100
AcDbEntity
  8
0
100
AcDbLine
 10
416.4953508394874
 20
102.1866902686252
 30
0.0
 11
416.1529748394873
 21
101.3649132686252
 31
0.0
  0
LINE
  5
6CA
330
2
100
AcDbEntity
  8
0
100
AcDbLine
 10
415.4453638394873
 20
101.3649132686252
 30
0.0
 11
416.1529748394873
 21
101.3649132686252
 31
0.0
  0
LINE
  5
6CB
330
2
100
AcDbEntity
  8
0
100
AcDbLine
 10
415.4453638394873
 20
101.3649132686252
 30
0.0
 11
415.4453638394873
 21
103.3571012686252
 31
0.0
  0
LINE
  5
6CC
330
2
100
AcDbEntity
  8
0
100
AcDbLine
 10
419.2056478394873
 20
102.1866902686252
 30
0.0
 11
420.8666588394874
 21
102.1866902686252
 31
0.0
  0
LINE
  5
6CD
330
2
100
AcDbEntity
  8
0
100
AcDbLine
 10
420.8666588394874
 20
102.1866902686252
 30
0.0
 11
421.1554468394873
 21
101.3649132686252
 31
0.0
  0
LINE
  5
6CE
330
2
100
AcDbEntity
  8
0
100
AcDbLine
 10
421.1554468394873
 20
101.3649132686252
 30
0.0
 11
421.8203638394872
 21
101.3649132686252
 31
0.0
  0
LINE
  5
6CF
330
2
100
AcDbEntity
  8
0
100
AcDbLine
 10
421.8203638394872
 20
101.3649132686252
 30
0.0
 11
421.8203638394872
 21
103.3571012686252
 31
0.0
  0
ARC
  5
6D0
330
2
100
AcDbEntity
  8
0
100
AcDbCircle
 10
428.8303728394874
 20
100.8046102686253
 30
0.0
 40
1.557193
100
AcDbArc
 50
277.4147259999999
 51
62.41185000000005
  0
ARC
  5
6D1
330
2
100
AcDbEntity
  8
0
100
AcDbCircle
 10
428.8303728394874
 20
100.8046102686253
 30
0.0
 40
2.55249
100
AcDbArc
 50
286.0181269999999
 51
90.00350999999984
  0
LINE
  5
6D2
330
2
100
AcDbEntity
  8
0
100
AcDbLine
 10
426.5766498394873
 20
98.26457126862528
 30
0.0
 11
428.6171468394873
 21
98.26457126862528
 31
0.0
  0
LINE
  5
6D3
330
2
100
AcDbEntity
  8
0
100
AcDbLine
 10
426.5766498394873
 20
99.2604442686253
 30
0.0
 11
429.0313618394873
 21
99.2604442686253
 31
0.0
  0
LINE
  5
6D4
330
2
100
AcDbEntity
  8
0
100
AcDbLine
 10
426.5766498394873
 20
102.1866902686252
 30
0.0
 11
429.5515648394873
 21
102.1847532686252
 31
0.0
  0
LINE
  5
6D5
330
2
100
AcDbEntity
  8
0
100
AcDbLine
 10
425.0078638394873
 20
102.1866902686252
 30
0.0
 11
425.4809468394873
 21
102.1866902686252
 31
0.0
  0
LINE
  5
6D6
330
2
100
AcDbEntity
  8
0
100
AcDbLine
 10
426.5766498394873
 20
102.1866902686252
 30
0.0
 11
426.5766498394873
 21
99.2604442686253
 31
0.0
  0
LINE
  5
6D7
330
2
100
AcDbEntity
  8
0
100
AcDbLine
 10
425.0078638394873
 20
103.3571012686252
 30
0.0
 11
425.0078638394873
 21
102.1866902686252
 31
0.0
  0
LINE
  5
6D8
330
2
100
AcDbEntity
  8
0
100
AcDbLine
 10
425.0078638394873
 20
103.3571012686252
 30
0.0
 11
428.8303728394874
 21
103.3571012686252
 31
0.0
  0
ARC
  5
6D9
330
2
100
AcDbEntity
  8
0
100
AcDbCircle
 10
466.6328638394872
 20
74.63319126862529
 30
0.0
 40
5.0
100
AcDbArc
 50
271.0001829999998
 51
0.0
  0
LINE
  5
6DA
330
2
100
AcDbEntity
  8
CENTER
100
AcDbLine
 10
462.6328638394872
 20
71.29460326862528
 30
0.0
 11
462.6328638394872
 21
86.54460126862529
 31
0.0
  0
CIRCLE
  5
6DB
330
2
100
AcDbEntity
  8
0
100
AcDbCircle
 10
462.6964618394874
 20
77.79460326862528
 30
0.0
 40
4.25
  0
LINE
  5
6DC
330
2
100
AcDbEntity
  8
CENTER
100
AcDbLine
 10
470.1328638394873
 20
77.79460326862528
 30
0.0
 11
453.3828638394872
 21
77.79460326862528
 31
0.0
  0
LINE
  5
6DD
330
2
100
AcDbEntity
  8
0
100
AcDbLine
 10
450.5972498394874
 20
68.25906326862526
 30
0.0
 11
451.7102558394873
 21
69.37196326862528
 31
0.0
  0
LINE
  5
6DE
330
2
100
AcDbEntity
  8
0
100
AcDbLine
 10
472.1683558394873
 20
89.83013126862529
 30
0.0
 11
471.6328638394872
 21
89.29460126862528
 31
0.0
  0
ARC
  5
6DF
330
2
100
AcDbEntity
  8
0
100
AcDbCircle
 10
468.6328638394873
 20
93.36566126862527
 30
0.0
 40
5.0
100
AcDbArc
 50
315.0001179999999
 51
0.0
  0
ARC
  5
6E0
330
2
100
AcDbEntity
  8
0
100
AcDbCircle
 10
447.0618488394872
 20
171.7946042686252
 30
0.0
 40
5.0
100
AcDbArc
 50
45.00015999999997
 51
90.0
  0
ARC
  5
6E1
330
2
100
AcDbEntity
  8
0
100
AcDbCircle
 10
418.6328638394873
 20
121.7946042686252
 30
0.0
 40
50.5
100
AcDbArc
 50
18.10380000000001
 51
161.8961939999999
  0
LINE
  5
6E2
330
2
100
AcDbEntity
  8
0
100
AcDbLine
 10
466.7200518394873
 20
173.9552032686252
 30
0.0
 11
418.6328638394873
 21
174.7946042686252
 31
0.0
  0
LINE
  5
6E3
330
2
100
AcDbEntity
  8
0
100
AcDbLine
 10
447.0617578394873
 20
176.7946042686252
 30
0.0
 11
442.1328488394874
 21
176.7946042686252
 31
0.0
  0
LINE
  5
6E4
330
2
100
AcDbEntity
  8
CENTER
100
AcDbLine
 10
390.3828638394873
 20
136.7946042686252
 30
0.0
 11
446.8828638394873
 21
136.7946042686252
 31
0.0
  0
LINE
  5
6E5
330
2
100
AcDbEntity
  8
0
100
AcDbLine
 10
370.5455528394872
 20
173.9551042686253
 30
0.0
 11
418.6328638394873
 21
174.7946042686252
 31
0.0
  0
LINE
  5
6E6
330
2
100
AcDbEntity
  8
CENTER
100
AcDbLine
 10
374.6328638394873
 20
173.2946042686252
 30
0.0
 11
374.6328638394873
 21
157.2946042686252
 31
0.0
  0
ARC
  5
6E7
330
2
100
AcDbEntity
  8
0
100
AcDbCircle
 10
368.6328638394873
 20
150.2236052686253
 30
0.0
 40
5.0
100
AcDbArc
 50
135.0003049999999
 51
180.0
  0
LINE
  5
6E8
330
2
100
AcDbEntity
  8
0
100
AcDbLine
 10
365.0973718394873
 20
153.7591052686252
 30
0.0
 11
365.6328638394873
 21
154.2946042686252
 31
0.0
  0
LINE
  5
6E9
330
2
100
AcDbEntity
  8
CENTER
100
AcDbLine
 10
366.6328638394872
 20
165.7946042686252
 30
0.0
 11
382.3828638394873
 21
165.7946042686252
 31
0.0
  0
CIRCLE
  5
6EA
330
2
100
AcDbEntity
  8
0
100
AcDbCircle
 10
374.6328638394873
 20
165.9557982686252
 30
0.0
 40
4.25
  0
ARC
  5
6EB
330
2
100
AcDbEntity
  8
0
100
AcDbCircle
 10
370.6328638394873
 20
168.9559052686253
 30
0.0
 40
5.0
100
AcDbArc
 50
91.00061000000012
 51
180.0
  0
ARC
  5
6EC
330
2
100
AcDbEntity
  8
0
100
AcDbCircle
 10
390.2039698394874
 20
171.7946042686252
 30
0.0
 40
5.0
100
AcDbArc
 50
90.0
 51
135.000198
  0
LINE
  5
6ED
330
2
100
AcDbEntity
  8
0
100
AcDbLine
 10
386.6684468394873
 20
175.3301042686253
 30
0.0
 11
385.5553488394873
 21
174.2171052686252
 31
0.0
  0
LINE
  5
6EE
330
2
100
AcDbEntity
  8
0
100
AcDbLine
 10
407.1328638394873
 20
133.7946042686252
 30
0.0
 11
413.1328638394872
 21
133.7946042686252
 31
0.0
  0
LINE
  5
6EF
330
2
100
AcDbEntity
  8
0
100
AcDbLine
 10
407.1328638394873
 20
139.7946042686252
 30
0.0
 11
413.1328638394872
 21
139.7946042686252
 31
0.0
  0
LINE
  5
6F0
330
2
100
AcDbEntity
  8
0
100
AcDbLine
 10
407.1328638394873
 20
139.7946042686252
 30
0.0
 11
407.1328638394873
 21
133.7946042686252
 31
0.0
  0
LINE
  5
6F1
330
2
100
AcDbEntity
  8
0
100
AcDbLine
 10
413.1328638394872
 20
139.7946042686252
 30
0.0
 11
413.1328638394872
 21
133.7946042686252
 31
0.0
  0
LINE
  5
6F2
330
2
100
AcDbEntity
  8
CENTER
100
AcDbLine
 10
462.6328638394872
 20
173.2946042686252
 30
0.0
 11
462.6328638394872
 21
155.5446042686252
 31
0.0
  0
ARC
  5
6F3
330
2
100
AcDbEntity
  8
0
100
AcDbCircle
 10
468.6328638394873
 20
150.2234982686252
 30
0.0
 40
5.0
100
AcDbArc
 50
0.0
 51
45.00015999999997
  0
LINE
  5
6F4
330
2
100
AcDbEntity
  8
0
100
AcDbLine
 10
472.1683558394873
 20
153.7591052686252
 30
0.0
 11
471.6328638394872
 21
154.2946042686252
 31
0.0
  0
ARC
  5
6F5
330
2
100
AcDbEntity
  8
0
100
AcDbCircle
 10
466.6328638394872
 20
168.9560042686252
 30
0.0
 40
5.0
100
AcDbArc
 50
0.0
 51
89.00013699999986
  0
LINE
  5
6F6
330
2
100
AcDbEntity
  8
CENTER
100
AcDbLine
 10
470.3828638394873
 20
165.7946042686252
 30
0.0
 11
453.3828638394872
 21
165.7946042686252
 31
0.0
  0
CIRCLE
  5
6F7
330
2
100
AcDbEntity
  8
0
100
AcDbCircle
 10
462.6328638394872
 20
165.9560042686252
 30
0.0
 40
4.25
  0
LINE
  5
6F8
330
2
100
AcDbEntity
  8
0
100
AcDbLine
 10
450.5973718394873
 20
175.3301042686253
 30
0.0
 11
451.7102558394873
 21
174.2172042686252
 31
0.0
  0
TEXT
  5
6F9
330
2
100
AcDbEntity
  8
TITLE
100
AcDbText
 10
439.9005878692772
 20
342.0586629861981
 30
0.0
 40
5.0
  1
GFMN-18-80~240-S60WK
100
AcDbText
  0
TEXT
  5
6FA
330
2
100
AcDbEntity
  8
TITLE
100
AcDbText
 10
325.1130856029358
 20
342.0772049836267
 30
0.0
 40
5.0
  1
GFMN-18-80~240-T60WK
100
AcDbText
  0
TEXT
  5
6FB
330
2
100
AcDbEntity
  8
TITLE
100
AcDbText
 10
439.9036397274831
 20
358.667270053486
 30
0.0
 40
5.0
  1
GFMN-18-160~240-S40WK
100
AcDbText
  0
TEXT
  5
6FC
330
2
100
AcDbEntity
  8
TITLE
100
AcDbText
 10
325.1130856029358
 20
358.6397134912002
 30
0.0
 40
5.0
  1
GFMN-18-160~240-T40WK
100
AcDbText
  0
TEXT
  5
6FD
330
2
100
AcDbEntity
  8
TITLE
100
AcDbText
 10
439.9451766339222
 20
325.0933515343335
 30
0.0
 40
5.0
  1
GFMN-18-40~240-S90WK
100
AcDbText
  0
TEXT
  5
6FE
330
2
100
AcDbEntity
  8
TITLE
100
AcDbText
 10
325.2717398577794
 20
325.5741569179588
 30
0.0
 40
5.0
  1
GFMN-18-40~240-T90WK
100
AcDbText
  0
LINE
  5
1655
330
2
100
AcDbEntity
  8
0
100
AcDbLine
 10
443.6328488394873
 20
220.2946192686252
 30
0.0
 11
443.6328488394873
 21
178.2946042686252
 31
0.0
  0
LINE
  5
1657
330
2
100
AcDbEntity
  8
0
100
AcDbLine
 10
393.6328638394872
 20
220.2946192686252
 30
0.0
 11
393.6328638394872
 21
178.2946042686252
 31
0.0
  0
LINE
  5
1658
330
2
100
AcDbEntity
  8
0
100
AcDbLine
 10
157.1328598394873
 20
220.2946192686252
 30
0.0
 11
157.1328598394873
 21
178.2946042686252
 31
0.0
  0
LINE
  5
1659
330
2
100
AcDbEntity
  8
0
100
AcDbLine
 10
107.1328528394873
 20
220.2946192686252
 30
0.0
 11
107.1328528394873
 21
178.2946042686252
 31
0.0
  0
LINE
  5
165A
330
2
100
AcDbEntity
  8
CENTER
100
AcDbLine
 10
132.1328598394873
 20
169.9051082686253
 30
0.0
 11
132.1328598394873
 21
226.6821192686252
 31
0.0
  0
LINE
  5
165D
330
2
100
AcDbEntity
  8
CENTER
100
AcDbLine
 10
102.0892528582787
 20
204.2946042686252
 30
0.0
 11
162.1764668206958
 21
204.2946042686252
 31
0.0
  0
LINE
  5
165E
330
2
100
AcDbEntity
  8
0
100
AcDbLine
 10
107.1328528394873
 20
189.2946042686252
 30
0.0
 11
157.1328598394873
 21
189.2946042686252
 31
0.0
  0
LINE
  5
165F
330
2
100
AcDbEntity
  8
0
100
AcDbLine
 10
107.1328528394873
 20
178.2946042686252
 30
0.0
 11
157.1328598394873
 21
178.2946042686252
 31
0.0
  0
LINE
  5
1660
330
2
100
AcDbEntity
  8
0
100
AcDbLine
 10
107.1328528394873
 20
188.2946042686252
 30
0.0
 11
157.1328598394873
 21
188.2946042686252
 31
0.0
  0
LINE
  5
1661
330
2
100
AcDbEntity
  8
0
100
AcDbLine
 10
108.6328528394873
 20
176.2946042686252
 30
0.0
 11
155.1328598394873
 21
176.2946042686252
 31
0.0
  0
LINE
  5
1663
330
2
100
AcDbEntity
  8
0
100
AcDbLine
 10
108.6328528394873
 20
176.2946042686252
 30
0.0
 11
108.6328528394873
 21
174.7946042686252
 31
0.0
  0
LINE
  5
1664
330
2
100
AcDbEntity
  8
0
100
AcDbLine
 10
107.1328528394873
 20
178.2946042686252
 30
0.0
 11
109.1328528394873
 21
176.2946042686252
 31
0.0
  0
LINE
  5
1665
330
2
100
AcDbEntity
  8
0
100
AcDbLine
 10
106.2578528394873
 20
193.7946042686252
 30
0.0
 11
108.2578528394873
 21
193.7946042686252
 31
0.0
  0
LINE
  5
1666
330
2
100
AcDbEntity
  8
0
100
AcDbLine
 10
155.1328598394873
 20
176.2946042686252
 30
0.0
 11
157.1328598394873
 21
178.2946042686252
 31
0.0
  0
LINE
  5
1667
330
2
100
AcDbEntity
  8
0
100
AcDbLine
 10
154.6328598394873
 20
176.2946042686252
 30
0.0
 11
154.6328598394873
 21
174.7946042686252
 31
0.0
  0
LINE
  5
1668
330
2
100
AcDbEntity
  8
CENTER
100
AcDbLine
 10
388.5892568582787
 20
204.2946042686252
 30
0.0
 11
448.6764708206958
 21
204.2946042686252
 31
0.0
  0
LINE
  5
1669
330
2
100
AcDbEntity
  8
0
100
AcDbLine
 10
393.6328638394872
 20
189.2946042686252
 30
0.0
 11
443.6328488394873
 21
189.2946042686252
 31
0.0
  0
LINE
  5
166A
330
2
100
AcDbEntity
  8
0
100
AcDbLine
 10
393.6328638394872
 20
178.2946042686252
 30
0.0
 11
443.6328488394873
 21
178.2946042686252
 31
0.0
  0
LINE
  5
166B
330
2
100
AcDbEntity
  8
0
100
AcDbLine
 10
393.6328638394872
 20
188.2946042686252
 30
0.0
 11
443.6328488394873
 21
188.2946042686252
 31
0.0
  0
LINE
  5
166D
330
2
100
AcDbEntity
  8
0
100
AcDbLine
 10
395.6328638394873
 20
176.2946042686252
 30
0.0
 11
441.6328488394873
 21
176.2946042686252
 31
0.0
  0
LINE
  5
166E
330
2
100
AcDbEntity
  8
0
100
AcDbLine
 10
393.6328638394872
 20
178.2946042686252
 30
0.0
 11
395.6328638394873
 21
176.2946042686252
 31
0.0
  0
LINE
  5
166F
330
2
100
AcDbEntity
  8
0
100
AcDbLine
 10
396.1328638394872
 20
176.2946042686252
 30
0.0
 11
396.1328638394872
 21
174.4018031406936
 31
0.0
  0
LINE
  5
1670
330
2
100
AcDbEntity
  8
0
100
AcDbLine
 10
441.1328488394873
 20
176.2946042686252
 30
0.0
 11
441.1328488394873
 21
174.4018487199126
 31
0.0
  0
LINE
  5
1671
330
2
100
AcDbEntity
  8
0
100
AcDbLine
 10
441.6328488394873
 20
176.2946042686252
 30
0.0
 11
443.6328488394873
 21
178.2946042686252
 31
0.0
  0
LINE
  5
1673
330
2
100
AcDbEntity
  8
0
100
AcDbLine
 10
155.1326618394873
 20
372.2404188323636
 30
0.0
 11
155.1326618394873
 21
337.2404188323636
 31
0.0
  0
LINE
  5
1674
330
2
100
AcDbEntity
  8
0
100
AcDbLine
 10
157.1328598394873
 20
377.7404188323636
 30
0.0
 11
157.1326618394873
 21
331.7404188323636
 31
0.0
  0
LINE
  5
1675
330
2
100
AcDbEntity
  8
CENTER
100
AcDbLine
 10
132.1328598394873
 20
324.6968118511551
 30
0.0
 11
132.1328598394873
 21
384.7840258135721
 31
0.0
  0
LINE
  5
1676
330
2
100
AcDbEntity
  8
0
100
AcDbLine
 10
109.1327528394873
 20
372.2404188323636
 30
0.0
 11
109.1327528394873
 21
337.2404188323636
 31
0.0
  0
LINE
  5
1677
330
2
100
AcDbEntity
  8
0
100
AcDbLine
 10
107.1327528394873
 20
331.7404188323636
 30
0.0
 11
107.1327528394873
 21
377.7404188323636
 31
0.0
  0
LINE
  5
1678
330
2
100
AcDbEntity
  8
0
100
AcDbLine
 10
109.1327528394873
 20
329.7404188323636
 30
0.0
 11
155.1326618394873
 21
329.7404188323636
 31
0.0
  0
LINE
  5
1679
330
2
100
AcDbEntity
  8
0
100
AcDbLine
 10
149.6326618394873
 20
331.7404188323636
 30
0.0
 11
114.6327528394873
 21
331.7404188323636
 31
0.0
  0
LINE
  5
167A
330
2
100
AcDbEntity
  8
0
100
AcDbLine
 10
114.6328598394873
 20
220.2946192686252
 30
0.0
 11
149.6328598394873
 21
220.2946192686252
 31
0.0
  0
LINE
  5
167B
330
2
100
AcDbEntity
  8
0
100
AcDbLine
 10
111.9707686555138
 20
221.2946192686252
 30
0.0
 11
152.2949510234609
 21
221.2946192686252
 31
0.0
  0
LINE
  5
167D
330
2
100
AcDbEntity
  8
0
100
AcDbLine
 10
114.6328598394873
 20
218.7946192686252
 30
0.0
 11
107.1328598394873
 21
218.7946192686253
 31
0.0
  0
LINE
  5
167E
330
2
100
AcDbEntity
  8
0
100
AcDbLine
 10
114.6328598394873
 20
220.7946192686252
 30
0.0
 11
113.5778372291076
 21
220.7946192686252
 31
0.0
  0
ARC
  5
167F
330
2
100
AcDbEntity
  8
0
100
AcDbCircle
 10
112.7398705930802
 20
219.8007319928716
 30
0.0
 40
1.3
100
AcDbArc
 50
5.000000000000026
 51
74.1191499917157
  0
LINE
  5
1680
330
2
100
AcDbEntity
  8
0
100
AcDbLine
 10
114.1328598394873
 20
218.7946192686253
 30
0.0
 11
114.0349237005993
 21
219.9140344584435
 31
0.0
  0
LINE
  5
1681
330
2
100
AcDbEntity
  8
0
100
AcDbLine
 10
107.1328598394873
 20
218.7946192686253
 30
0.0
 11
107.2307959783752
 21
219.9140344584435
 31
0.0
  0
LINE
  5
1682
330
2
100
AcDbEntity
  8
0
100
AcDbLine
 10
106.2578528394873
 20
214.7946042686252
 30
0.0
 11
108.2578528394873
 21
214.7946042686252
 31
0.0
  0
SPLINE
  5
1683
330
2
100
AcDbEntity
  8
0
100
AcDbSpline
210
0.0
220
0.0
230
1.0
 70
     8
 71
     3
 72
    11
 73
     7
 74
     0
 42
0.0000000001
 43
0.0000000001
 40
0.0
 40
0.0
 40
0.0
 40
0.0
 40
0.4601364636755307
 40
1.04988694485363
 40
1.713742833862792
 40
2.320347933405154
 40
2.320347933405154
 40
2.320347933405154
 40
2.320347933405179
 10
110.9203598399423
 20
219.8776192686252
 30
0.0
 10
110.9427774970501
 20
220.0326427083052
 30
0.0
 10
110.9939275522833
 20
220.3863575262227
 30
0.0
 10
111.429812713817
 20
220.8110851978243
 30
0.0
 10
112.0348634288244
 20
221.0302723777902
 30
0.0
 10
112.4600480530002
 20
220.9612810781796
 30
0.0
 10
112.6625996626513
 20
220.9470608060029
 30
0.0
  0
LINE
  5
1684
330
2
100
AcDbEntity
  8
0
100
AcDbLine
 10
112.6625996626513
 20
220.9470608060029
 30
0.0
 11
112.6828598394872
 21
221.1580375514645
 31
0.0
  0
LINE
  5
1685
330
2
100
AcDbEntity
  8
0
100
AcDbLine
 10
110.3453598390321
 20
219.8776192686252
 30
0.0
 11
110.9203598399423
 21
219.8776192686252
 31
0.0
  0
LINE
  5
1686
330
2
100
AcDbEntity
  8
0
100
AcDbLine
 10
109.2949510234608
 20
221.2946192686252
 30
0.0
 11
108.1328598394873
 21
221.2946192686252
 31
0.0
  0
ARC
  5
1687
330
2
100
AcDbEntity
  8
0
100
AcDbCircle
 10
108.5258490858943
 20
219.8007319928716
 30
0.0
 40
1.3
100
AcDbArc
 50
105.8808500082775
 51
174.9999999999999
  0
LINE
  5
1688
330
2
100
AcDbEntity
  8
0
100
AcDbLine
 10
108.6031200163231
 20
220.9470608060029
 30
0.0
 11
108.5828598394872
 21
221.1580375514645
 31
0.0
  0
LINE
  5
1689
330
2
100
AcDbEntity
  8
0
100
AcDbLine
 10
108.1328598394873
 20
221.2946192686252
 30
0.0
 11
107.1328598394873
 21
220.2946192686252
 31
0.0
  0
ARC
  5
168A
330
2
100
AcDbEntity
  8
0
100
AcDbCircle
 10
110.6328598394873
 20
212.3946192686253
 30
0.0
 40
9.0
100
AcDbArc
 50
74.1191499917157
 51
105.8808500082775
  0
SPLINE
  5
168B
330
2
100
AcDbEntity
  8
0
100
AcDbSpline
210
0.0
220
0.0
230
1.0
 70
     8
 71
     3
 72
    11
 73
     7
 74
     0
 42
0.0000000001
 43
0.0000000001
 40
0.0
 40
0.0
 40
0.0
 40
0.0
 40
0.4601364636755307
 40
1.04988694485363
 40
1.713742833862792
 40
2.320347933405154
 40
2.320347933405154
 40
2.320347933405154
 40
2.320347933405179
 10
110.3453598390321
 20
219.8776192686252
 30
0.0
 10
110.3229421819244
 20
220.0326427083052
 30
0.0
 10
110.271792126691
 20
220.3863575262227
 30
0.0
 10
109.8359069651575
 20
220.8110851978243
 30
0.0
 10
109.23085625015
 20
221.0302723777902
 30
0.0
 10
108.8056716259742
 20
220.9612810781796
 30
0.0
 10
108.6031200163231
 20
220.9470608060029
 30
0.0
  0
LINE
  5
168C
330
2
100
AcDbEntity
  8
0
100
AcDbLine
 10
114.6328598394873
 20
218.7946192686252
 30
0.0
 11
114.6328598394873
 21
220.7946192686253
 31
0.0
  0
LINE
  5
168D
330
2
100
AcDbEntity
  8
0
100
AcDbLine
 10
115.1328598394873
 20
221.2946192686252
 30
0.0
 11
114.6328598394873
 21
220.7946192686252
 31
0.0
  0
ARC
  5
168E
330
2
100
AcDbEntity
  8
0
100
AcDbCircle
 10
110.6327528394873
 20
333.2403268323636
 30
0.0
 40
4.0
100
AcDbArc
 50
0.0
 51
90.0
  0
CIRCLE
  5
168F
330
2
100
AcDbEntity
  8
0
100
AcDbCircle
 10
110.6327528394873
 20
333.2403268323636
 30
0.0
 40
3.500000000000028
  0
ARC
  5
1690
330
2
100
AcDbEntity
  8
0
100
AcDbCircle
 10
112.6624528394872
 20
335.2700268323636
 30
0.0
 40
1.742199999999999
100
AcDbArc
 50
179.9986903345002
 51
270.0013096654997
  0
ARC
  5
1691
330
2
100
AcDbEntity
  8
0
100
AcDbCircle
 10
110.6327528394873
 20
333.2403268323636
 30
0.0
 40
2.049999999999998
100
AcDbArc
 50
0.0
 51
8.061960083981649
  0
ARC
  5
1692
330
2
100
AcDbEntity
  8
0
100
AcDbCircle
 10
110.6327528394873
 20
333.2403268323636
 30
0.0
 40
2.049999999999998
100
AcDbArc
 50
90.0
 51
98.06196008398188
  0
ARC
  5
1693
330
2
100
AcDbEntity
  8
0
100
AcDbCircle
 10
110.6327528394873
 20
333.2403268323636
 30
0.0
 40
2.049999999999998
100
AcDbArc
 50
81.93803991601813
 51
90.0
  0
ARC
  5
1694
330
2
100
AcDbEntity
  8
0
100
AcDbCircle
 10
112.6624528394872
 20
331.2106268323637
 30
0.0
 40
1.742199999999999
100
AcDbArc
 50
89.99869033450025
 51
180.0013096654997
  0
ARC
  5
1695
330
2
100
AcDbEntity
  8
0
100
AcDbCircle
 10
110.6327528394873
 20
333.2403268323636
 30
0.0
 40
2.049999999999998
100
AcDbArc
 50
351.9380399160183
 51
0.0
  0
ARC
  5
1696
330
2
100
AcDbEntity
  8
0
100
AcDbCircle
 10
110.6327528394873
 20
333.2403268323636
 30
0.0
 40
2.049999999999998
100
AcDbArc
 50
261.9380399160181
 51
270.0
  0
ARC
  5
1697
330
2
100
AcDbEntity
  8
0
100
AcDbCircle
 10
110.6327528394873
 20
333.2403268323636
 30
0.0
 40
2.049999999999998
100
AcDbArc
 50
270.0
 51
278.0619600839818
  0
ARC
  5
1698
330
2
100
AcDbEntity
  8
0
100
AcDbCircle
 10
110.6327528394873
 20
333.2403268323636
 30
0.0
 40
2.049999999999998
100
AcDbArc
 50
171.9380399160183
 51
180.0
  0
LINE
  5
1699
330
2
100
AcDbEntity
  8
0
100
AcDbLine
 10
107.1327528394873
 20
331.7404188323636
 30
0.0
 11
109.1327528394873
 21
329.7404188323636
 31
0.0
  0
ARC
  5
169A
330
2
100
AcDbEntity
  8
0
100
AcDbCircle
 10
110.6327528394873
 20
333.2403268323636
 30
0.0
 40
2.049999999999998
100
AcDbArc
 50
180.0
 51
188.0619600839816
  0
ARC
  5
169B
330
2
100
AcDbEntity
  8
0
100
AcDbCircle
 10
108.6030528394871
 20
335.2700268323636
 30
0.0
 40
1.742199999999999
100
AcDbArc
 50
269.9986903345067
 51
0.0013096654997424
  0
ARC
  5
169C
330
2
100
AcDbEntity
  8
0
100
AcDbCircle
 10
108.6030528394871
 20
331.2106268323637
 30
0.0
 40
1.742199999999999
100
AcDbArc
 50
359.9986903345002
 51
90.00130966549322
  0
LINE
  5
169D
330
2
100
AcDbEntity
  8
0
100
AcDbLine
 10
110.6327528394873
 20
337.2404188323636
 30
0.0
 11
107.1327528394873
 21
337.2404188323636
 31
0.0
  0
LINE
  5
169E
330
2
100
AcDbEntity
  8
0
100
AcDbLine
 10
114.6327528394873
 20
333.2403268323636
 30
0.0
 11
114.6327528394873
 21
329.7404188323636
 31
0.0
  0
LINE
  5
169F
330
2
100
AcDbEntity
  8
0
100
AcDbLine
 10
157.1328598394873
 20
218.7946192686253
 30
0.0
 11
157.0349237005995
 21
219.9140344584435
 31
0.0
  0
LINE
  5
16A0
330
2
100
AcDbEntity
  8
0
100
AcDbLine
 10
149.6328598394873
 20
218.7946192686252
 30
0.0
 11
149.6328598394873
 21
220.7946192686253
 31
0.0
  0
LINE
  5
16A1
330
2
100
AcDbEntity
  8
0
100
AcDbLine
 10
150.1328598394874
 20
218.7946192686253
 30
0.0
 11
150.2307959783752
 21
219.9140344584435
 31
0.0
  0
LINE
  5
16A2
330
2
100
AcDbEntity
  8
0
100
AcDbLine
 10
149.6328598394873
 20
218.7946192686252
 30
0.0
 11
157.1328598394873
 21
218.7946192686253
 31
0.0
  0
LINE
  5
16A3
330
2
100
AcDbEntity
  8
0
100
AcDbLine
 10
156.1328598394872
 20
221.2946192686252
 30
0.0
 11
157.1328598394873
 21
220.2946192686252
 31
0.0
  0
ARC
  5
16A4
330
2
100
AcDbEntity
  8
0
100
AcDbCircle
 10
155.7398705930802
 20
219.8007319928716
 30
0.0
 40
1.3
100
AcDbArc
 50
5.000000000000026
 51
74.1191499917157
  0
SPLINE
  5
16A5
330
2
100
AcDbEntity
  8
0
100
AcDbSpline
210
0.0
220
0.0
230
1.0
 70
     8
 71
     3
 72
    11
 73
     7
 74
     0
 42
0.0000000001
 43
0.0000000001
 40
0.0
 40
0.0
 40
0.0
 40
0.0
 40
0.4601364636755307
 40
1.04988694485363
 40
1.713742833862792
 40
2.320347933405154
 40
2.320347933405154
 40
2.320347933405154
 40
2.320347933405179
 10
153.9203598399424
 20
219.8776192686252
 30
0.0
 10
153.9427774970503
 20
220.0326427083052
 30
0.0
 10
153.9939275522836
 20
220.3863575262227
 30
0.0
 10
154.4298127138172
 20
220.8110851978243
 30
0.0
 10
155.0348634288245
 20
221.0302723777902
 30
0.0
 10
155.4600480530004
 20
220.9612810781796
 30
0.0
 10
155.6625996626514
 20
220.9470608060029
 30
0.0
  0
LINE
  5
16A6
330
2
100
AcDbEntity
  8
0
100
AcDbLine
 10
153.9203598399424
 20
219.8776192686252
 30
0.0
 11
153.3453598390324
 21
219.8776192686252
 31
0.0
  0
LINE
  5
16A7
330
2
100
AcDbEntity
  8
0
100
AcDbLine
 10
155.6625996626514
 20
220.9470608060029
 30
0.0
 11
155.6828598394874
 21
221.1580375514645
 31
0.0
  0
LINE
  5
16A8
330
2
100
AcDbEntity
  8
0
100
AcDbLine
 10
154.9707686555138
 20
221.2946192686252
 30
0.0
 11
156.1328598394872
 21
221.2946192686252
 31
0.0
  0
LINE
  5
16A9
330
2
100
AcDbEntity
  8
0
100
AcDbLine
 10
149.1328598394873
 20
221.2946192686252
 30
0.0
 11
149.6328598394873
 21
220.7946192686252
 31
0.0
  0
LINE
  5
16AA
330
2
100
AcDbEntity
  8
0
100
AcDbLine
 10
149.6328598394873
 20
220.7946192686252
 30
0.0
 11
150.6878824498669
 21
220.7946192686252
 31
0.0
  0
ARC
  5
16AB
330
2
100
AcDbEntity
  8
0
100
AcDbCircle
 10
151.5258490858943
 20
219.8007319928716
 30
0.0
 40
1.3
100
AcDbArc
 50
105.8808500082775
 51
174.9999999999999
  0
LINE
  5
16AC
330
2
100
AcDbEntity
  8
0
100
AcDbLine
 10
151.6031200163233
 20
220.9470608060029
 30
0.0
 11
151.5828598394873
 21
221.1580375514645
 31
0.0
  0
SPLINE
  5
16AD
330
2
100
AcDbEntity
  8
0
100
AcDbSpline
210
0.0
220
0.0
230
1.0
 70
     8
 71
     3
 72
    11
 73
     7
 74
     0
 42
0.0000000001
 43
0.0000000001
 40
0.0
 40
0.0
 40
0.0
 40
0.0
 40
0.4601364636755307
 40
1.04988694485363
 40
1.713742833862792
 40
2.320347933405154
 40
2.320347933405154
 40
2.320347933405154
 40
2.320347933405179
 10
153.3453598390324
 20
219.8776192686252
 30
0.0
 10
153.3229421819245
 20
220.0326427083052
 30
0.0
 10
153.2717921266912
 20
220.3863575262227
 30
0.0
 10
152.8359069651576
 20
220.8110851978243
 30
0.0
 10
152.2308562501502
 20
221.0302723777902
 30
0.0
 10
151.8056716259743
 20
220.9612810781796
 30
0.0
 10
151.6031200163233
 20
220.9470608060029
 30
0.0
  0
ARC
  5
16AE
330
2
100
AcDbEntity
  8
0
100
AcDbCircle
 10
153.6328598394874
 20
212.3946192686253
 30
0.0
 40
9.0
100
AcDbArc
 50
74.1191499917157
 51
105.8808500082775
  0
CIRCLE
  5
16AF
330
2
100
AcDbEntity
  8
0
100
AcDbCircle
 10
153.6328598394873
 20
333.2403268323636
 30
0.0
 40
3.500000000000028
  0
ARC
  5
16B0
330
2
100
AcDbEntity
  8
0
100
AcDbCircle
 10
153.6328598394873
 20
333.2403268323636
 30
0.0
 40
4.0
100
AcDbArc
 50
90.0
 51
180.0
  0
LINE
  5
16B1
330
2
100
AcDbEntity
  8
0
100
AcDbLine
 10
155.1326618394873
 20
329.7404188323636
 30
0.0
 11
157.1326618394873
 21
331.7404188323636
 31
0.0
  0
LINE
  5
16B2
330
2
100
AcDbEntity
  8
0
100
AcDbLine
 10
157.1326618394873
 20
331.7404188323636
 30
0.0
 11
155.1326618394873
 21
329.7404188323636
 31
0.0
  0
ARC
  5
16B3
330
2
100
AcDbEntity
  8
0
100
AcDbCircle
 10
155.6625598394872
 20
335.2700268323636
 30
0.0
 40
1.742199999999999
100
AcDbArc
 50
179.9986903345002
 51
270.0013096654997
  0
ARC
  5
16B4
330
2
100
AcDbEntity
  8
0
100
AcDbCircle
 10
153.6328598394873
 20
333.2403268323636
 30
0.0
 40
2.049999999999998
100
AcDbArc
 50
0.0
 51
8.061960083981649
  0
ARC
  5
16B5
330
2
100
AcDbEntity
  8
0
100
AcDbCircle
 10
153.6328598394873
 20
333.2403268323636
 30
0.0
 40
2.049999999999998
100
AcDbArc
 50
90.0
 51
98.06196008398188
  0
ARC
  5
16B6
330
2
100
AcDbEntity
  8
0
100
AcDbCircle
 10
153.6328598394873
 20
333.2403268323636
 30
0.0
 40
2.049999999999998
100
AcDbArc
 50
81.93803991601813
 51
90.0
  0
ARC
  5
16B7
330
2
100
AcDbEntity
  8
0
100
AcDbCircle
 10
155.6625598394872
 20
331.2106268323637
 30
0.0
 40
1.742199999999999
100
AcDbArc
 50
89.99869033450025
 51
180.0013096654997
  0
ARC
  5
16B8
330
2
100
AcDbEntity
  8
0
100
AcDbCircle
 10
153.6328598394873
 20
333.2403268323636
 30
0.0
 40
2.049999999999998
100
AcDbArc
 50
351.9380399160183
 51
0.0
  0
ARC
  5
16B9
330
2
100
AcDbEntity
  8
0
100
AcDbCircle
 10
153.6328598394873
 20
333.2403268323636
 30
0.0
 40
2.049999999999998
100
AcDbArc
 50
261.9380399160181
 51
270.0
  0
ARC
  5
16BA
330
2
100
AcDbEntity
  8
0
100
AcDbCircle
 10
153.6328598394873
 20
333.2403268323636
 30
0.0
 40
2.049999999999998
100
AcDbArc
 50
270.0
 51
278.0619600839818
  0
ARC
  5
16BB
330
2
100
AcDbEntity
  8
0
100
AcDbCircle
 10
153.6328598394873
 20
333.2403268323636
 30
0.0
 40
2.049999999999998
100
AcDbArc
 50
171.9380399160183
 51
180.0
  0
ARC
  5
16BC
330
2
100
AcDbEntity
  8
0
100
AcDbCircle
 10
153.6328598394873
 20
333.2403268323636
 30
0.0
 40
2.049999999999998
100
AcDbArc
 50
180.0
 51
188.0619600839816
  0
LINE
  5
16BD
330
2
100
AcDbEntity
  8
0
100
AcDbLine
 10
149.6326618394873
 20
333.2403268323636
 30
0.0
 11
149.6326618394873
 21
329.7404188323636
 31
0.0
  0
ARC
  5
16BE
330
2
100
AcDbEntity
  8
0
100
AcDbCircle
 10
151.6031598394871
 20
335.2700268323636
 30
0.0
 40
1.742199999999999
100
AcDbArc
 50
269.9986903345067
 51
0.0013096654997424
  0
ARC
  5
16BF
330
2
100
AcDbEntity
  8
0
100
AcDbCircle
 10
151.6031598394871
 20
331.2106268323637
 30
0.0
 40
1.742199999999999
100
AcDbArc
 50
359.9986903345002
 51
90.00130966549322
  0
LINE
  5
16C0
330
2
100
AcDbEntity
  8
0
100
AcDbLine
 10
153.6326618394873
 20
337.2404188323636
 30
0.0
 11
157.1326618394873
 21
337.2404188323636
 31
0.0
  0
LINE
  5
16C2
330
2
100
AcDbEntity
  8
0
100
AcDbLine
 10
109.1327528394873
 20
379.7404188323636
 30
0.0
 11
155.1326618394873
 21
379.7404188323636
 31
0.0
  0
LINE
  5
16C3
330
2
100
AcDbEntity
  8
0
100
AcDbLine
 10
149.6326618394873
 20
377.7404188323636
 30
0.0
 11
114.6327528394873
 21
377.7404188323636
 31
0.0
  0
ARC
  5
16C4
330
2
100
AcDbEntity
  8
0
100
AcDbCircle
 10
110.6327528394873
 20
376.2404188323636
 30
0.0
 40
4.0
100
AcDbArc
 50
270.0
 51
0.0
  0
LINE
  5
16C5
330
2
100
AcDbEntity
  8
0
100
AcDbLine
 10
110.6327528394873
 20
372.2404188323636
 30
0.0
 11
107.1327528394873
 21
372.2404188323636
 31
0.0
  0
ARC
  5
16C6
330
2
100
AcDbEntity
  8
0
100
AcDbCircle
 10
110.6327528394873
 20
376.2404188323636
 30
0.0
 40
2.049999999999998
100
AcDbArc
 50
90.0
 51
98.06196008398188
  0
ARC
  5
16C7
330
2
100
AcDbEntity
  8
0
100
AcDbCircle
 10
110.6327528394873
 20
376.2404188323636
 30
0.0
 40
2.049999999999998
100
AcDbArc
 50
81.93803991601813
 51
90.0
  0
LINE
  5
16C8
330
2
100
AcDbEntity
  8
0
100
AcDbLine
 10
107.1327528394873
 20
377.7404188323636
 30
0.0
 11
109.1327528394873
 21
379.7404188323636
 31
0.0
  0
LINE
  5
16C9
330
2
100
AcDbEntity
  8
0
100
AcDbLine
 10
107.1327528394873
 20
377.7404188323636
 30
0.0
 11
109.1327528394873
 21
379.7404188323636
 31
0.0
  0
ARC
  5
16CA
330
2
100
AcDbEntity
  8
0
100
AcDbCircle
 10
112.6624528394872
 20
374.2107188323636
 30
0.0
 40
1.742199999999999
100
AcDbArc
 50
89.99869033450025
 51
180.0013096654997
  0
ARC
  5
16CB
330
2
100
AcDbEntity
  8
0
100
AcDbCircle
 10
110.6327528394873
 20
376.2404188323636
 30
0.0
 40
2.049999999999998
100
AcDbArc
 50
351.9380399160183
 51
0.0
  0
ARC
  5
16CC
330
2
100
AcDbEntity
  8
0
100
AcDbCircle
 10
110.6327528394873
 20
376.2404188323636
 30
0.0
 40
2.049999999999998
100
AcDbArc
 50
0.0
 51
8.061960083981649
  0
ARC
  5
16CD
330
2
100
AcDbEntity
  8
0
100
AcDbCircle
 10
110.6327528394873
 20
376.2404188323636
 30
0.0
 40
2.049999999999998
100
AcDbArc
 50
261.9380399160181
 51
270.0
  0
ARC
  5
16CE
330
2
100
AcDbEntity
  8
0
100
AcDbCircle
 10
110.6327528394873
 20
376.2404188323636
 30
0.0
 40
2.049999999999998
100
AcDbArc
 50
270.0
 51
278.0619600839818
  0
ARC
  5
16CF
330
2
100
AcDbEntity
  8
0
100
AcDbCircle
 10
110.6327528394873
 20
376.2404188323636
 30
0.0
 40
2.049999999999998
100
AcDbArc
 50
180.0
 51
188.0619600839816
  0
ARC
  5
16D0
330
2
100
AcDbEntity
  8
0
100
AcDbCircle
 10
110.6327528394873
 20
376.2404188323636
 30
0.0
 40
2.049999999999998
100
AcDbArc
 50
171.9380399160183
 51
180.0
  0
ARC
  5
16D1
330
2
100
AcDbEntity
  8
0
100
AcDbCircle
 10
108.6030528394871
 20
374.2107188323636
 30
0.0
 40
1.742199999999999
100
AcDbArc
 50
359.9986903345002
 51
90.00130966549322
  0
CIRCLE
  5
16D2
330
2
100
AcDbEntity
  8
0
100
AcDbCircle
 10
110.6327528394873
 20
376.2404188323636
 30
0.0
 40
3.500000000000028
  0
ARC
  5
16D3
330
2
100
AcDbEntity
  8
0
100
AcDbCircle
 10
108.6030528394871
 20
378.2701188323636
 30
0.0
 40
1.742199999999999
100
AcDbArc
 50
269.9986903345067
 51
0.0013096654997424
  0
ARC
  5
16D4
330
2
100
AcDbEntity
  8
0
100
AcDbCircle
 10
112.6624528394872
 20
378.2701188323636
 30
0.0
 40
1.742199999999999
100
AcDbArc
 50
179.9986903345002
 51
270.0013096654997
  0
LINE
  5
16D5
330
2
100
AcDbEntity
  8
0
100
AcDbLine
 10
114.6327528394873
 20
376.2404188323636
 30
0.0
 11
114.6327528394873
 21
379.7402348323636
 31
0.0
  0
ARC
  5
16D6
330
2
100
AcDbEntity
  8
0
100
AcDbCircle
 10
153.6328598394873
 20
376.2404188323636
 30
0.0
 40
4.0
100
AcDbArc
 50
180.0
 51
270.0
  0
LINE
  5
16D7
330
2
100
AcDbEntity
  8
0
100
AcDbLine
 10
153.6326618394873
 20
372.2404188323636
 30
0.0
 11
157.1326618394873
 21
372.2404188323636
 31
0.0
  0
LINE
  5
16D8
330
2
100
AcDbEntity
  8
0
100
AcDbLine
 10
157.1328598394873
 20
377.7404188323636
 30
0.0
 11
155.1326618394873
 21
379.7404188323636
 31
0.0
  0
LINE
  5
16D9
330
2
100
AcDbEntity
  8
0
100
AcDbLine
 10
157.1326618394873
 20
377.7404188323636
 30
0.0
 11
155.1326618394873
 21
379.7404188323636
 31
0.0
  0
LINE
  5
16DA
330
2
100
AcDbEntity
  8
0
100
AcDbLine
 10
157.1326618394873
 20
377.7404188323636
 30
0.0
 11
155.1326618394873
 21
379.7404188323636
 31
0.0
  0
CIRCLE
  5
16DB
330
2
100
AcDbEntity
  8
0
100
AcDbCircle
 10
153.6328598394873
 20
376.2404188323636
 30
0.0
 40
3.500000000000028
  0
ARC
  5
16DC
330
2
100
AcDbEntity
  8
0
100
AcDbCircle
 10
153.6328598394873
 20
376.2404188323636
 30
0.0
 40
2.049999999999998
100
AcDbArc
 50
90.0
 51
98.06196008398188
  0
ARC
  5
16DD
330
2
100
AcDbEntity
  8
0
100
AcDbCircle
 10
153.6328598394873
 20
376.2404188323636
 30
0.0
 40
2.049999999999998
100
AcDbArc
 50
81.93803991601813
 51
90.0
  0
ARC
  5
16DE
330
2
100
AcDbEntity
  8
0
100
AcDbCircle
 10
155.6625598394872
 20
374.2107188323636
 30
0.0
 40
1.742199999999999
100
AcDbArc
 50
89.99869033450025
 51
180.0013096654997
  0
ARC
  5
16DF
330
2
100
AcDbEntity
  8
0
100
AcDbCircle
 10
153.6328598394873
 20
376.2404188323636
 30
0.0
 40
2.049999999999998
100
AcDbArc
 50
351.9380399160183
 51
0.0
  0
ARC
  5
16E0
330
2
100
AcDbEntity
  8
0
100
AcDbCircle
 10
153.6328598394873
 20
376.2404188323636
 30
0.0
 40
2.049999999999998
100
AcDbArc
 50
0.0
 51
8.061960083981649
  0
ARC
  5
16E1
330
2
100
AcDbEntity
  8
0
100
AcDbCircle
 10
153.6328598394873
 20
376.2404188323636
 30
0.0
 40
2.049999999999998
100
AcDbArc
 50
261.9380399160181
 51
270.0
  0
ARC
  5
16E2
330
2
100
AcDbEntity
  8
0
100
AcDbCircle
 10
153.6328598394873
 20
376.2404188323636
 30
0.0
 40
2.049999999999998
100
AcDbArc
 50
270.0
 51
278.0619600839818
  0
ARC
  5
16E3
330
2
100
AcDbEntity
  8
0
100
AcDbCircle
 10
155.6625598394872
 20
378.2701188323636
 30
0.0
 40
1.742199999999999
100
AcDbArc
 50
179.9986903345002
 51
270.0013096654997
  0
ARC
  5
16E4
330
2
100
AcDbEntity
  8
0
100
AcDbCircle
 10
153.6328598394873
 20
376.2404188323636
 30
0.0
 40
2.049999999999998
100
AcDbArc
 50
180.0
 51
188.0619600839816
  0
ARC
  5
16E5
330
2
100
AcDbEntity
  8
0
100
AcDbCircle
 10
153.6328598394873
 20
376.2404188323636
 30
0.0
 40
2.049999999999998
100
AcDbArc
 50
171.9380399160183
 51
180.0
  0
LINE
  5
16E6
330
2
100
AcDbEntity
  8
0
100
AcDbLine
 10
149.6326618394873
 20
376.2404188323636
 30
0.0
 11
149.6326618394873
 21
379.7402348323636
 31
0.0
  0
ARC
  5
16E7
330
2
100
AcDbEntity
  8
0
100
AcDbCircle
 10
151.6031598394871
 20
378.2701188323636
 30
0.0
 40
1.742199999999999
100
AcDbArc
 50
269.9986903345067
 51
0.0013096654997424
  0
ARC
  5
16E8
330
2
100
AcDbEntity
  8
0
100
AcDbCircle
 10
151.6031598394871
 20
374.2107188323636
 30
0.0
 40
1.742199999999999
100
AcDbArc
 50
359.9986903345002
 51
90.00130966549322
  0
LINE
  5
16E9
330
2
100
AcDbEntity
  8
0
100
AcDbLine
 10
401.1328638394872
 20
220.2946192686252
 30
0.0
 11
436.1328638394873
 21
220.2946192686252
 31
0.0
  0
LINE
  5
16EA
330
2
100
AcDbEntity
  8
0
100
AcDbLine
 10
398.4707726555141
 20
221.2946192686252
 30
0.0
 11
438.7949550234605
 21
221.2946192686252
 31
0.0
  0
LINE
  5
16EB
330
2
100
AcDbEntity
  8
0
100
AcDbLine
 10
401.1328638394872
 20
218.7946192686252
 30
0.0
 11
401.1328638394872
 21
220.7946192686253
 31
0.0
  0
LINE
  5
16EC
330
2
100
AcDbEntity
  8
0
100
AcDbLine
 10
400.6328638394871
 20
218.7946192686253
 30
0.0
 11
400.5349277005993
 21
219.9140344584435
 31
0.0
  0
LINE
  5
16ED
330
2
100
AcDbEntity
  8
0
100
AcDbLine
 10
393.6328638394872
 20
218.7946192686253
 30
0.0
 11
393.7307999783751
 21
219.9140344584435
 31
0.0
  0
LINE
  5
16EE
330
2
100
AcDbEntity
  8
0
100
AcDbLine
 10
401.1328638394872
 20
218.7946192686252
 30
0.0
 11
393.6328638394872
 21
218.7946192686253
 31
0.0
  0
ARC
  5
16EF
330
2
100
AcDbEntity
  8
0
100
AcDbCircle
 10
395.0258530858943
 20
219.8007319928716
 30
0.0
 40
1.3
100
AcDbArc
 50
105.8808500082775
 51
174.9999999999999
  0
LINE
  5
16F0
330
2
100
AcDbEntity
  8
0
100
AcDbLine
 10
395.7949550234607
 20
221.2946192686252
 30
0.0
 11
394.6328638394873
 21
221.2946192686252
 31
0.0
  0
LINE
  5
16F1
330
2
100
AcDbEntity
  8
0
100
AcDbLine
 10
394.6328638394873
 20
221.2946192686252
 30
0.0
 11
393.6328638394872
 21
220.2946192686253
 31
0.0
  0
ARC
  5
16F2
330
2
100
AcDbEntity
  8
0
100
AcDbCircle
 10
399.2398745930802
 20
219.8007319928716
 30
0.0
 40
1.3
100
AcDbArc
 50
5.000000000000026
 51
74.1191499917157
  0
LINE
  5
16F3
330
2
100
AcDbEntity
  8
0
100
AcDbLine
 10
401.1328638394872
 20
220.7946192686252
 30
0.0
 11
400.0778412291076
 21
220.7946192686252
 31
0.0
  0
LINE
  5
16F4
330
2
100
AcDbEntity
  8
0
100
AcDbLine
 10
399.1626036626513
 20
220.9470608060029
 30
0.0
 11
399.1828638394872
 21
221.1580375514645
 31
0.0
  0
LINE
  5
16F5
330
2
100
AcDbEntity
  8
0
100
AcDbLine
 10
401.6328638394872
 20
221.2946192686252
 30
0.0
 11
401.1328638394872
 21
220.7946192686252
 31
0.0
  0
SPLINE
  5
16F6
330
2
100
AcDbEntity
  8
0
100
AcDbSpline
210
0.0
220
0.0
230
1.0
 70
     8
 71
     3
 72
    11
 73
     7
 74
     0
 42
0.0000000001
 43
0.0000000001
 40
0.0
 40
0.0
 40
0.0
 40
0.0
 40
0.4601364636755307
 40
1.04988694485363
 40
1.713742833862792
 40
2.320347933405154
 40
2.320347933405154
 40
2.320347933405154
 40
2.320347933405179
 10
396.8453638390322
 20
219.8776192686253
 30
0.0
 10
396.8229461819242
 20
220.0326427083052
 30
0.0
 10
396.771796126691
 20
220.3863575262227
 30
0.0
 10
396.3359109651575
 20
220.8110851978243
 30
0.0
 10
395.73086025015
 20
221.0302723777902
 30
0.0
 10
395.3056756259742
 20
220.9612810781796
 30
0.0
 10
395.1031240163231
 20
220.9470608060029
 30
0.0
  0
LINE
  5
16F7
330
2
100
AcDbEntity
  8
0
100
AcDbLine
 10
396.8453638390322
 20
219.8776192686253
 30
0.0
 11
397.4203638399423
 21
219.8776192686253
 31
0.0
  0
LINE
  5
16F8
330
2
100
AcDbEntity
  8
0
100
AcDbLine
 10
395.1031240163231
 20
220.9470608060029
 30
0.0
 11
395.0828638394872
 21
221.1580375514645
 31
0.0
  0
SPLINE
  5
16F9
330
2
100
AcDbEntity
  8
0
100
AcDbSpline
210
0.0
220
0.0
230
1.0
 70
     8
 71
     3
 72
    11
 73
     7
 74
     0
 42
0.0000000001
 43
0.0000000001
 40
0.0
 40
0.0
 40
0.0
 40
0.0
 40
0.4601364636755307
 40
1.04988694485363
 40
1.713742833862792
 40
2.320347933405154
 40
2.320347933405154
 40
2.320347933405154
 40
2.320347933405179
 10
397.4203638399423
 20
219.8776192686253
 30
0.0
 10
397.44278149705
 20
220.0326427083052
 30
0.0
 10
397.4939315522833
 20
220.3863575262227
 30
0.0
 10
397.9298167138169
 20
220.8110851978243
 30
0.0
 10
398.5348674288244
 20
221.0302723777902
 30
0.0
 10
398.9600520530002
 20
220.9612810781796
 30
0.0
 10
399.1626036626513
 20
220.9470608060029
 30
0.0
  0
ARC
  5
16FA
330
2
100
AcDbEntity
  8
0
100
AcDbCircle
 10
397.1328638394871
 20
212.3946192686253
 30
0.0
 40
9.0
100
AcDbArc
 50
74.1191499917157
 51
105.8808500082775
  0
LINE
  5
16FB
330
2
100
AcDbEntity
  8
0
100
AcDbLine
 10
436.1328638394873
 20
218.7946192686252
 30
0.0
 11
443.6328638394873
 21
218.7946192686253
 31
0.0
  0
ARC
  5
16FC
330
2
100
AcDbEntity
  8
0
100
AcDbCircle
 10
438.0258530858943
 20
219.8007319928716
 30
0.0
 40
1.3
100
AcDbArc
 50
105.8808500082775
 51
174.9999999999999
  0
LINE
  5
16FD
330
2
100
AcDbEntity
  8
0
100
AcDbLine
 10
436.6328638394874
 20
218.7946192686253
 30
0.0
 11
436.7307999783752
 21
219.9140344584435
 31
0.0
  0
LINE
  5
16FE
330
2
100
AcDbEntity
  8
0
100
AcDbLine
 10
436.1328638394873
 20
218.7946192686252
 30
0.0
 11
436.1328638394873
 21
220.7946192686253
 31
0.0
  0
LINE
  5
16FF
330
2
100
AcDbEntity
  8
0
100
AcDbLine
 10
436.1328638394873
 20
220.7946192686252
 30
0.0
 11
437.1878864498669
 21
220.7946192686252
 31
0.0
  0
LINE
  5
1700
330
2
100
AcDbEntity
  8
0
100
AcDbLine
 10
435.6328638394873
 20
221.2946192686252
 30
0.0
 11
436.1328638394873
 21
220.7946192686252
 31
0.0
  0
LINE
  5
1701
330
2
100
AcDbEntity
  8
0
100
AcDbLine
 10
443.6328638394873
 20
218.7946192686253
 30
0.0
 11
443.5349277005995
 21
219.9140344584435
 31
0.0
  0
ARC
  5
1702
330
2
100
AcDbEntity
  8
0
100
AcDbCircle
 10
442.2398745930802
 20
219.8007319928716
 30
0.0
 40
1.3
100
AcDbArc
 50
5.000000000000026
 51
74.1191499917157
  0
LINE
  5
1703
330
2
100
AcDbEntity
  8
0
100
AcDbLine
 10
442.6328638394872
 20
221.2946192686252
 30
0.0
 11
443.6328638394873
 21
220.2946192686253
 31
0.0
  0
SPLINE
  5
1704
330
2
100
AcDbEntity
  8
0
100
AcDbSpline
210
0.0
220
0.0
230
1.0
 70
     8
 71
     3
 72
    11
 73
     7
 74
     0
 42
0.0000000001
 43
0.0000000001
 40
0.0
 40
0.0
 40
0.0
 40
0.0
 40
0.4601364636755307
 40
1.04988694485363
 40
1.713742833862792
 40
2.320347933405154
 40
2.320347933405154
 40
2.320347933405154
 40
2.320347933405179
 10
439.8453638390322
 20
219.8776192686253
 30
0.0
 10
439.8229461819245
 20
220.0326427083052
 30
0.0
 10
439.7717961266912
 20
220.3863575262227
 30
0.0
 10
439.3359109651576
 20
220.8110851978243
 30
0.0
 10
438.7308602501502
 20
221.0302723777902
 30
0.0
 10
438.3056756259743
 20
220.9612810781796
 30
0.0
 10
438.1031240163232
 20
220.9470608060029
 30
0.0
  0
LINE
  5
1705
330
2
100
AcDbEntity
  8
0
100
AcDbLine
 10
438.1031240163232
 20
220.9470608060029
 30
0.0
 11
438.0828638394873
 21
221.1580375514645
 31
0.0
  0
LINE
  5
1706
330
2
100
AcDbEntity
  8
0
100
AcDbLine
 10
442.1626036626514
 20
220.9470608060029
 30
0.0
 11
442.1828638394873
 21
221.1580375514645
 31
0.0
  0
LINE
  5
1707
330
2
100
AcDbEntity
  8
0
100
AcDbLine
 10
440.4203638399423
 20
219.8776192686253
 30
0.0
 11
439.8453638390322
 21
219.8776192686253
 31
0.0
  0
SPLINE
  5
1708
330
2
100
AcDbEntity
  8
0
100
AcDbSpline
210
0.0
220
0.0
230
1.0
 70
     8
 71
     3
 72
    11
 73
     7
 74
     0
 42
0.0000000001
 43
0.0000000001
 40
0.0
 40
0.0
 40
0.0
 40
0.0
 40
0.4601364636755307
 40
1.04988694485363
 40
1.713742833862792
 40
2.320347933405154
 40
2.320347933405154
 40
2.320347933405154
 40
2.320347933405179
 10
440.4203638399423
 20
219.8776192686253
 30
0.0
 10
440.4427814970502
 20
220.0326427083052
 30
0.0
 10
440.4939315522836
 20
220.3863575262227
 30
0.0
 10
440.9298167138171
 20
220.8110851978243
 30
0.0
 10
441.5348674288245
 20
221.0302723777902
 30
0.0
 10
441.9600520530003
 20
220.9612810781796
 30
0.0
 10
442.1626036626514
 20
220.9470608060029
 30
0.0
  0
ARC
  5
1709
330
2
100
AcDbEntity
  8
0
100
AcDbCircle
 10
440.1328638394874
 20
212.3946192686253
 30
0.0
 40
9.0
100
AcDbArc
 50
74.1191499917157
 51
105.8808500082775
  0
LINE
  5
170A
330
2
100
AcDbEntity
  8
0
100
AcDbLine
 10
441.4707726555138
 20
221.2946192686252
 30
0.0
 11
442.6328638394872
 21
221.2946192686252
 31
0.0
  0
LINE
  5
1803
330
2
100
AcDbEntity
  8
0
100
AcDbLine
 10
107.6328178394873
 20
331.2403538323636
 30
0.0
 11
107.6328178394873
 21
299.7404188323637
 31
0.0
  0
LINE
  5
1818
330
2
100
AcDbEntity
  8
0
100
AcDbLine
 10
395.1328638394873
 20
176.7946042686252
 30
0.0
 11
390.2039698394874
 21
176.7946042686252
 31
0.0
  0
ENDSEC
  0
SECTION
  2
OBJECTS
  0
DICTIONARY
  5
7
330
0
100
AcDbDictionary
  3
ACAD_GROUP
350
75
  3
ACAD_LAYOUT
350
61
  3
ACAD_MLINESTYLE
350
76
  3
ACAD_PLOTSETTINGS
350
77
  3
ACAD_PLOTSTYLENAME
350
6
  3
ACADDIM
350
480
  3
ACDBHEADERROUNDTRIPXREC
350
1934
  3
ACDBVARIABLEDICTIONARY
350
102
  3
DWGPROPS
350
3D2
  0
DICTIONARY
  5
1955
330
2
100
AcDbDictionary
280
     1
  3
ACAD_LAYOUTSELFREF
360
1956
  0
DICTIONARY
  5
1957
330
192E
100
AcDbDictionary
280
     1
  3
ACAD_LAYOUTSELFREF
360
1958
  0
DICTIONARY
  5
75
102
{ACAD_REACTORS
330
7
102
}
330
7
100
AcDbDictionary
  0
DICTIONARY
  5
61
102
{ACAD_REACTORS
330
7
102
}
330
7
100
AcDbDictionary
  0
DICTIONARY
  5
76
102
{ACAD_REACTORS
330
7
102
}
330
7
100
AcDbDictionary
  3
STANDARD
350
78
  0
DICTIONARY
  5
77
102
{ACAD_REACTORS
330
7
102
}
330
7
100
AcDbDictionary
  0
ACDBDICTIONARYWDFLT
  5
6
102
{ACAD_REACTORS
330
7
102
}
330
7
100
AcDbDictionary
281
     1
  3
Normal
350
5
100
AcDbDictionaryWithDefault
340
5
  0
XRECORD
  5
480
102
{ACAD_REACTORS
330
7
102
}
330
7
100
AcDbXrecord
 90
   990106
  3

 60
     0
 61
     0
 62
     1
 63
     3
 64
     1
 65
     0
 66
     0
 67
     3
 68
     1
 69
     0
 70
     0
 71
     0
 72
     0
 40
0.0
170
     2
  0
DICTIONARY
  5
1934
102
{ACAD_REACTORS
330
7
102
}
330
7
100
AcDbDictionary
  3
CEPSNTYPE
350
193E
  3
DIMSTYLEDATA
350
1942
  3
FINGERPRINTGUID
350
193F
  3
HYPERLINKBASE
350
1937
  3
INSUNITS
350
193D
  3
LAYOUTDICT
350
1939
  3
LWETCUNION
350
193C
  3
PLOTSETDICT
350
193A
  3
PLOTSTYLNAMDICT
350
193B
  3
PSVPSCALE
350
1941
  3
PUCSBASE
350
1945
  3
PUCSORGBACK
350
194B
  3
PUCSORGBOTTOM
350
1947
  3
PUCSORGFRONT
350
194A
  3
PUCSORGLEFT
350
1948
  3
PUCSORGRIGHT
350
1949
  3
PUCSORGTOP
350
1946
  3
PUCSORTHOREF
350
1943
  3
PUCSORTHOVIEW
350
1944
  3
STYLESHEET
350
1938
  3
TSTACKALIGN
350
1935
  3
TSTACKSIZE
350
1936
  3
UCSBASE
350
194E
  3
UCSORGBACK
350
1954
  3
UCSORGBOTTOM
350
1950
  3
UCSORGFRONT
350
1953
  3
UCSORGLEFT
350
1951
  3
UCSORGRIGHT
350
1952
  3
UCSORGTOP
350
194F
  3
UCSORTHOREF
350
194C
  3
UCSORTHOVIEW
350
194D
  3
VERSIONGUID
350
1940
  0
DICTIONARY
  5
102
102
{ACAD_REACTORS
330
7
102
}
330
7
100
AcDbDictionary
  3
DIMASSOC
350
103
  0
XRECORD
  5
3D2
102
{ACAD_REACTORS
330
7
102
}
330
7
100
AcDbXrecord
  1
DWGPROPS COOKIE
  2

  3

  4

  6

  7

  8

  9

300
=
301
=
302
=
303
=
304
=
305
=
306
=
307
=
308
=
309
=
 40
0.5353330671296296
 41
2452052.431989363
 42
2453406.550756377
  1

 90
        0
  0
XRECORD
  5
1956
102
{ACAD_REACTORS
330
1955
102
}
330
1955
100
AcDbXrecord
340
2
  0
XRECORD
  5
1958
102
{ACAD_REACTORS
330
1957
102
}
330
1957
100
AcDbXrecord
340
192E
  0
MLINESTYLE
  5
78
102
{ACAD_REACTORS
330
76
102
}
330
76
100
AcDbMlineStyle
  2
STANDARD
 70
     0
  3

 62
     0
 51
90.0
 52
90.0
 71
     2
 49
0.5
 62
   256
  6
BYLAYER
 49
-0.5
 62
   256
  6
BYLAYER
  0
ACDBPLACEHOLDER
  5
5
102
{ACAD_REACTORS
330
6
102
}
330
6
100
AcDbPlaceHolder
280
     0
  0
XRECORD
  5
193E
102
{ACAD_REACTORS
330
1934
102
}
330
1934
100
AcDbXrecord
 90
        0
  0
XRECORD
  5
1942
102
{ACAD_REACTORS
330
1934
102
}
330
1934
100
AcDbXrecord
1000
DSTYLE
1002
{
1070
   179
 70
     2
1070
   277
 70
     6
1002
}
  0
XRECORD
  5
193F
102
{ACAD_REACTORS
330
1934
102
}
330
1934
100
AcDbXrecord
  1
{6385560B-F4B1-4644-A7C2-A3E32AC3D232}
  0
XRECORD
  5
1937
102
{ACAD_REACTORS
330
1934
102
}
330
1934
100
AcDbXrecord
  1

  0
XRECORD
  5
193D
102
{ACAD_REACTORS
330
1934
102
}
330
1934
100
AcDbXrecord
 90
        0
  0
XRECORD
  5
1939
102
{ACAD_REACTORS
330
1934
102
}
330
1934
100
AcDbXrecord
340
61
  0
XRECORD
  5
193C
102
{ACAD_REACTORS
330
1934
102
}
330
1934
100
AcDbXrecord
 90
    10781
  0
XRECORD
  5
193A
102
{ACAD_REACTORS
330
1934
102
}
330
1934
100
AcDbXrecord
340
77
  0
XRECORD
  5
193B
102
{ACAD_REACTORS
330
1934
102
}
330
1934
100
AcDbXrecord
340
6
  0
XRECORD
  5
1941
102
{ACAD_REACTORS
330
1934
102
}
330
1934
100
AcDbXrecord
 40
0.0
  0
XRECORD
  5
1945
102
{ACAD_REACTORS
330
1934
102
}
330
1934
100
AcDbXrecord
340
0
  0
XRECORD
  5
194B
102
{ACAD_REACTORS
330
1934
102
}
330
1934
100
AcDbXrecord
 10
0.0
 20
0.0
 30
0.0
  0
XRECORD
  5
1947
102
{ACAD_REACTORS
330
1934
102
}
330
1934
100
AcDbXrecord
 10
0.0
 20
0.0
 30
0.0
  0
XRECORD
  5
194A
102
{ACAD_REACTORS
330
1934
102
}
330
1934
100
AcDbXrecord
 10
0.0
 20
0.0
 30
0.0
  0
XRECORD
  5
1948
102
{ACAD_REACTORS
330
1934
102
}
330
1934
100
AcDbXrecord
 10
0.0
 20
0.0
 30
0.0
  0
XRECORD
  5
1949
102
{ACAD_REACTORS
330
1934
102
}
330
1934
100
AcDbXrecord
 10
0.0
 20
0.0
 30
0.0
  0
XRECORD
  5
1946
102
{ACAD_REACTORS
330
1934
102
}
330
1934
100
AcDbXrecord
 10
0.0
 20
0.0
 30
0.0
  0
XRECORD
  5
1943
102
{ACAD_REACTORS
330
1934
102
}
330
1934
100
AcDbXrecord
340
0
  0
XRECORD
  5
1944
102
{ACAD_REACTORS
330
1934
102
}
330
1934
100
AcDbXrecord
 70
     0
  0
XRECORD
  5
1938
102
{ACAD_REACTORS
330
1934
102
}
330
1934
100
AcDbXrecord
  1
Sekkei.ctb
  0
XRECORD
  5
1935
102
{ACAD_REACTORS
330
1934
102
}
330
1934
100
AcDbXrecord
 90
        1
  0
XRECORD
  5
1936
102
{ACAD_REACTORS
330
1934
102
}
330
1934
100
AcDbXrecord
 90
       70
  0
XRECORD
  5
194E
102
{ACAD_REACTORS
330
1934
102
}
330
1934
100
AcDbXrecord
340
0
  0
XRECORD
  5
1954
102
{ACAD_REACTORS
330
1934
102
}
330
1934
100
AcDbXrecord
 10
0.0
 20
0.0
 30
0.0
  0
XRECORD
  5
1950
102
{ACAD_REACTORS
330
1934
102
}
330
1934
100
AcDbXrecord
 10
0.0
 20
0.0
 30
0.0
  0
XRECORD
  5
1953
102
{ACAD_REACTORS
330
1934
102
}
330
1934
100
AcDbXrecord
 10
0.0
 20
0.0
 30
0.0
  0
XRECORD
  5
1951
102
{ACAD_REACTORS
330
1934
102
}
330
1934
100
AcDbXrecord
 10
0.0
 20
0.0
 30
0.0
  0
XRECORD
  5
1952
102
{ACAD_REACTORS
330
1934
102
}
330
1934
100
AcDbXrecord
 10
0.0
 20
0.0
 30
0.0
  0
XRECORD
  5
194F
102
{ACAD_REACTORS
330
1934
102
}
330
1934
100
AcDbXrecord
 10
0.0
 20
0.0
 30
0.0
  0
XRECORD
  5
194C
102
{ACAD_REACTORS
330
1934
102
}
330
1934
100
AcDbXrecord
340
0
  0
XRECORD
  5
194D
102
{ACAD_REACTORS
330
1934
102
}
330
1934
100
AcDbXrecord
 70
     0
  0
XRECORD
  5
1940
102
{ACAD_REACTORS
330
1934
102
}
330
1934
100
AcDbXrecord
  1
{638E0E5E-911F-4324-B0B3-A9E975DE1766}
  0
DICTIONARYVAR
  5
103
102
{ACAD_REACTORS
330
102
102
}
330
102
100
DictionaryVariables
280
     0
  1
1
  0
ENDSEC
  0
EOF
