  0
SECTION
  2
HEADER
  9
$CLAYER
  8
1
  9
$LTSCALE
 40
3.0
  0
ENDSEC
  0
SECTION
  2
TABLES
  0
TABLE
  2
LTYPE
 70
     4
  0
LTYPE
  2
CONTINUOUS
  3
solid line
 70
    64
 72
    65
 73
     0
 40
0.0
  0
LTYPE
  2
DASHED
  3
__ __ __ __ __ __ __ __ __ __ __ __ __ __ __
 70
    64
 72
    65
 73
     2
 40
0.75
 49
0.5
 49
-0.25
  0
LTYPE
  2
CENTER
  3
____ _ ____ _ ____ _ ____ _ ____ _ ____ _ ____
 70
    64
 72
    65
 73
     4
 40
2.0
 49
1.25
 49
-0.25
 49
0.25
 49
-0.25
  0
LTYPE
  2
PHANTOM
  3
_____ _ _ _____ _ _ _____ _ _ _____ _ _ ____
 70
    64
 72
    65
 73
     6
 40
2.5
 49
1.25
 49
-0.25
 49
0.25
 49
-0.25
 49
0.25
 49
-0.25
  0
ENDTAB
  0
TABLE
  2
LAYER
 70
     1
  0
LAYER
  2
0
 70
    64
 62
     7
  6
CONTINUOUS
  0
ENDTAB
  0
TABLE
  2
STYLE
 70
     1
  0
STYLE
  2
STANDARD
 70
     0
 40
0.000000
 41
1.000000
 50
0.000000
 71
     0
 42
3.000000
  3
txt
  4
BIGFONT
  0
ENDTAB
  0
ENDSEC
  0
SECTION
  2
BLOCKS
  0
ENDSEC
  0
SECTION
  2
ENTITIES
  0
LINE
  8
0
  6
CENTER
 10
-6.167964
 20
278.154388
 11
236.867355
 21
278.154388
  0
LINE
  8
0
  6
CONTINUOUS
 10
63.766251
 20
331.154388
 11
193.766251
 21
331.154388
  0
LINE
  8
0
  6
CONTINUOUS
 10
63.766251
 20
225.154373
 11
193.766251
 21
225.154373
  0
LINE
  8
0
  6
CONTINUOUS
 10
193.766251
 20
225.154373
 11
193.766251
 21
331.154388
  0
LINE
  8
0
  6
CONTINUOUS
 10
63.766251
 20
309.654388
 11
183.766251
 21
309.654388
  0
LINE
  8
0
  6
CONTINUOUS
 10
63.766251
 20
246.654373
 11
183.766251
 21
246.654373
  0
LINE
  8
0
  6
CONTINUOUS
 10
183.766251
 20
329.154388
 11
183.766251
 21
309.654388
  0
ARC
  8
0
  6
CONTINUOUS
 10
185.766251
 20
329.154388
 40
2.000000
 50
90.000000
 51
180.000000
  0
ARC
  8
0
  6
CONTINUOUS
 10
185.766251
 20
227.154373
 40
2.000000
 50
180.000000
 51
270.000000
  0
LINE
  8
0
  6
CENTER
 10
179.516251
 20
234.154373
 11
198.266251
 21
234.154373
  0
LINE
  8
0
  6
CENTER
 10
180.516251
 20
322.154388
 11
197.516251
 21
322.154388
  0
LINE
  8
0
  6
DASHED
 10
183.766251
 20
326.404388
 11
193.766251
 21
326.404388
  0
LINE
  8
0
  6
DASHED
 10
183.766251
 20
317.904388
 11
193.766251
 21
317.904388
  0
LINE
  8
0
  6
DASHED
 10
183.766251
 20
238.404373
 11
193.766251
 21
238.404373
  0
LINE
  8
0
  6
DASHED
 10
183.766251
 20
229.904373
 11
193.766251
 21
229.904373
  0
LINE
  8
0
  6
CONTINUOUS
 10
198.766251
 20
255.654388
 11
198.766251
 21
300.654358
  0
LINE
  8
0
  6
CONTINUOUS
 10
197.766251
 20
301.654358
 11
193.766266
 21
301.654358
  0
LINE
  8
0
  6
CONTINUOUS
 10
197.766251
 20
254.654388
 11
193.766266
 21
254.654388
  0
ARC
  8
0
  6
CONTINUOUS
 10
197.766251
 20
300.654358
 40
1.000000
 50
0.000000
 51
90.000000
  0
ARC
  8
0
  6
CONTINUOUS
 10
197.766251
 20
255.654388
 40
1.000000
 50
-90.000000
 51
0.000000
  0
LINE
  8
0
  6
CONTINUOUS
 10
230.766251
 20
266.654358
 11
230.766251
 21
287.154358
  0
LINE
  8
0
  6
CONTINUOUS
 10
200.766251
 20
287.154358
 11
230.766251
 21
287.154358
  0
LINE
  8
0
  6
CONTINUOUS
 10
200.766251
 20
269.154388
 11
203.766251
 21
269.154388
  0
LINE
  8
0
  6
CONTINUOUS
 10
200.766251
 20
288.154358
 11
200.766251
 21
268.154388
  0
LINE
  8
0
  6
CONTINUOUS
 10
198.766251
 20
288.154358
 11
200.766251
 21
288.154358
  0
LINE
  8
0
  6
CONTINUOUS
 10
198.766251
 20
268.154388
 11
200.766251
 21
268.154388
  0
LINE
  8
0
  6
CONTINUOUS
 10
203.766251
 20
269.669373
 11
203.766251
 21
266.654358
  0
LINE
  8
0
  6
CONTINUOUS
 10
203.766251
 20
266.654358
 11
230.766251
 21
266.654358
  0
LINE
  8
0
  6
CONTINUOUS
 10
203.766251
 20
269.669373
 11
230.766251
 21
269.669373
  0
LINE
  8
0
  6
CONTINUOUS
 10
55.266209
 20
331.154358
 11
63.766251
 21
331.154358
  0
LINE
  8
0
  6
CONTINUOUS
 10
55.266209
 20
225.154388
 11
63.766251
 21
225.154388
  0
LINE
  8
0
  6
CONTINUOUS
 10
63.766251
 20
309.654388
 11
55.266209
 21
309.654388
  0
LINE
  8
0
  6
CONTINUOUS
 10
63.766251
 20
246.654373
 11
55.266209
 21
246.654373
  0
LINE
  8
0
  6
CONTINUOUS
 10
63.766251
 20
225.154388
 11
63.766251
 21
247.154358
  0
LINE
  8
0
  6
CONTINUOUS
 10
63.766251
 20
309.154358
 11
63.766251
 21
331.154358
  0
LINE
  8
0
  6
CONTINUOUS
 10
183.766251
 20
246.654373
 11
183.766251
 21
227.154358
  0
LINE
  8
0
  6
CONTINUOUS
 10
55.266251
 20
114.533752
 11
55.266251
 21
4.533750
  0
LINE
  8
0
  6
CONTINUOUS
 10
55.266232
 20
112.533752
 11
63.766251
 21
112.533752
  0
LINE
  8
0
  6
CONTINUOUS
 10
55.266232
 20
6.533750
 11
63.766251
 21
6.533750
  0
LINE
  8
0
  6
CONTINUOUS
 10
55.266232
 20
102.096352
 11
63.766251
 21
102.096352
  0
LINE
  8
0
  6
CONTINUOUS
 10
55.266232
 20
16.849621
 11
63.766251
 21
16.849621
  0
LINE
  8
0
  6
CONTINUOUS
 10
16.266251
 20
114.533752
 11
55.266251
 21
114.533752
  0
LINE
  8
0
  6
CONTINUOUS
 10
16.266251
 20
4.533750
 11
55.266251
 21
4.533750
  0
LINE
  8
0
  6
CONTINUOUS
 10
6.266250
 20
14.533750
 11
6.266250
 21
104.533752
  0
LINE
  8
0
  6
CONTINUOUS
 10
11.266250
 20
90.033752
 11
55.266251
 21
90.033752
  0
LINE
  8
0
  6
CONTINUOUS
 10
11.266250
 20
29.033751
 11
55.266232
 21
29.033751
  0
ARC
  8
0
  6
CONTINUOUS
 10
16.266300
 20
104.533752
 40
10.000000
 50
90.000000
 51
180.000000
  0
ARC
  8
0
  6
CONTINUOUS
 10
16.266251
 20
14.533750
 40
10.000000
 50
180.000000
 51
270.000000
  0
LINE
  8
0
  6
CONTINUOUS
 10
63.766251
 20
6.533750
 11
63.766251
 21
112.533752
  0
LINE
  8
0
  6
CENTER
 10
-4.557188
 20
59.533749
 11
206.755630
 21
59.533749
  0
LINE
  8
0
  6
CENTER
 10
160.475952
 20
74.533752
 11
239.766251
 21
74.533752
  0
LINE
  8
0
  6
CONTINUOUS
 10
63.766251
 20
112.533752
 11
193.766251
 21
112.533752
  0
LINE
  8
0
  6
CONTINUOUS
 10
63.766251
 20
6.533750
 11
193.766251
 21
6.533750
  0
LINE
  8
0
  6
CONTINUOUS
 10
193.766251
 20
6.533750
 11
193.766251
 21
112.533752
  0
LINE
  8
0
  6
CONTINUOUS
 10
63.766251
 20
102.157150
 11
183.766251
 21
102.157150
  0
LINE
  8
0
  6
CONTINUOUS
 10
63.766251
 20
16.910391
 11
183.766251
 21
16.910391
  0
LINE
  8
0
  6
CONTINUOUS
 10
183.766251
 20
110.533752
 11
183.766251
 21
8.533740
  0
ARC
  8
0
  6
CONTINUOUS
 10
185.766251
 20
110.533752
 40
2.000000
 50
90.000000
 51
180.000000
  0
ARC
  8
0
  6
CONTINUOUS
 10
185.766251
 20
8.533750
 40
2.000000
 50
180.000000
 51
270.000000
  0
LINE
  8
0
  6
CENTER
 10
179.516251
 20
15.533750
 11
198.266251
 21
15.533750
  0
LINE
  8
0
  6
CENTER
 10
180.516251
 20
103.533752
 11
197.516251
 21
103.533752
  0
LINE
  8
0
  6
DASHED
 10
183.766251
 20
107.783752
 11
193.766251
 21
107.783752
  0
LINE
  8
0
  6
DASHED
 10
183.766251
 20
99.283752
 11
193.766251
 21
99.283752
  0
LINE
  8
0
  6
DASHED
 10
183.766251
 20
19.783751
 11
193.766251
 21
19.783751
  0
LINE
  8
0
  6
DASHED
 10
183.766251
 20
11.283750
 11
193.766251
 21
11.283750
  0
LINE
  8
0
  6
CONTINUOUS
 10
197.766251
 20
98.033752
 11
193.766251
 21
98.033752
  0
LINE
  8
0
  6
CONTINUOUS
 10
197.766251
 20
51.033749
 11
193.766251
 21
51.033749
  0
LINE
  8
0
  6
CONTINUOUS
 10
198.766251
 20
52.033749
 11
198.766251
 21
97.033752
  0
ARC
  8
0
  6
CONTINUOUS
 10
197.766251
 20
97.033752
 40
1.000000
 50
0.000000
 51
90.000000
  0
ARC
  8
0
  6
CONTINUOUS
 10
197.766251
 20
97.033752
 40
1.000000
 50
0.000000
 51
90.000000
  0
ARC
  8
0
  6
CONTINUOUS
 10
197.766251
 20
52.033749
 40
1.000000
 50
-90.000000
 51
0.000000
  0
LINE
  8
0
  6
CONTINUOUS
 10
230.766251
 20
65.533752
 11
230.766251
 21
83.533752
  0
LINE
  8
0
  6
CONTINUOUS
 10
200.766251
 20
83.533752
 11
230.766251
 21
83.533752
  0
LINE
  8
0
  6
CONTINUOUS
 10
200.766251
 20
65.533752
 11
230.766251
 21
65.533752
  0
LINE
  8
0
  6
CONTINUOUS
 10
200.766251
 20
84.533752
 11
200.766251
 21
64.533752
  0
LINE
  8
0
  6
CONTINUOUS
 10
198.766251
 20
84.533752
 11
200.766251
 21
84.533752
  0
LINE
  8
0
  6
CONTINUOUS
 10
198.766251
 20
64.533752
 11
200.766251
 21
64.533752
  0
ARC
  8
0
  6
CONTINUOUS
 10
206.766251
 20
74.533752
 40
3.000000
 50
90.000000
 51
270.000000
  0
LINE
  8
0
  6
CONTINUOUS
 10
206.766251
 20
77.533752
 11
230.766251
 21
77.533752
  0
LINE
  8
0
  6
CONTINUOUS
 10
206.766251
 20
71.533752
 11
230.766251
 21
71.533752
  0
LINE
  8
0
  6
CENTER
 10
366.266235
 20
-1.691910
 11
366.266235
 21
178.348755
  0
LINE
  8
0
  6
CONTINUOUS
 10
419.266235
 20
12.372350
 11
419.266235
 21
106.695152
  0
LINE
  8
0
  6
CONTINUOUS
 10
313.266235
 20
12.372160
 11
313.266235
 21
106.694946
  0
LINE
  8
0
  6
CONTINUOUS
 10
414.353455
 20
111.694351
 11
366.266235
 21
112.533752
  0
LINE
  8
0
  6
CONTINUOUS
 10
318.178955
 20
111.694252
 11
366.266235
 21
112.533752
  0
ARC
  8
0
  6
CONTINUOUS
 10
414.266235
 20
106.695152
 40
5.000000
 50
0.000000
 51
89.000137
  0
ARC
  8
0
  6
CONTINUOUS
 10
318.266235
 20
106.695053
 40
5.000000
 50
91.000610
 51
180.000000
  0
CIRCLE
  8
0
  6
CONTINUOUS
 10
410.266235
 20
103.695152
 40
4.250000
  0
CIRCLE
  8
0
  6
CONTINUOUS
 10
322.266235
 20
103.694946
 40
4.250000
  0
CIRCLE
  8
0
  6
CONTINUOUS
 10
322.266235
 20
15.372000
 40
4.250000
  0
CIRCLE
  8
0
  6
CONTINUOUS
 10
410.329865
 20
15.533750
 40
4.250000
  0
LINE
  8
0
  6
CENTER
 10
410.266235
 20
111.033752
 11
410.266235
 21
93.283752
  0
LINE
  8
0
  6
CENTER
 10
410.266235
 20
9.033750
 11
410.266235
 21
24.283751
  0
LINE
  8
0
  6
CENTER
 10
314.266235
 20
103.533752
 11
330.016235
 21
103.533752
  0
LINE
  8
0
  6
CENTER
 10
418.016235
 20
103.533752
 11
401.016235
 21
103.533752
  0
LINE
  8
0
  6
CENTER
 10
322.266235
 20
111.033752
 11
322.266235
 21
95.033752
  0
LINE
  8
0
  6
CENTER
 10
322.266235
 20
8.533750
 11
322.266235
 21
24.533751
  0
LINE
  8
0
  6
CENTER
 10
315.766235
 20
15.533750
 11
330.516235
 21
15.533750
  0
LINE
  8
0
  6
CENTER
 10
417.766235
 20
15.533750
 11
401.016235
 21
15.533750
  0
LINE
  8
0
  6
CENTER
 10
338.266235
 20
74.533752
 11
394.766235
 21
74.533752
  0
LINE
  8
0
  6
CONTINUOUS
 10
414.266235
 20
75.226051
 11
414.266235
 21
43.841381
  0
LINE
  8
0
  6
CONTINUOUS
 10
318.266235
 20
75.226051
 11
318.266235
 21
43.841400
  0
ARC
  8
0
  6
CONTINUOUS
 10
366.266235
 20
59.533749
 40
50.500000
 50
18.103800
 51
161.896194
  0
ARC
  8
0
  6
CONTINUOUS
 10
366.266235
 20
59.533749
 40
50.500000
 50
198.103806
 51
341.896210
  0
LINE
  8
0
  6
CONTINUOUS
 10
359.891235
 20
37.086971
 11
359.891235
 21
31.533751
  0
LINE
  8
0
  6
CONTINUOUS
 10
363.078735
 20
39.104061
 11
363.078735
 21
41.096249
  0
LINE
  8
0
  6
CONTINUOUS
 10
369.453735
 20
39.104061
 11
369.453735
 21
41.096249
  0
LINE
  8
0
  6
CONTINUOUS
 10
365.643646
 20
39.925838
 11
365.643646
 21
32.579651
  0
LINE
  8
0
  6
CONTINUOUS
 10
366.839050
 20
39.925838
 11
366.839050
 21
32.579651
  0
LINE
  8
0
  6
CONTINUOUS
 10
373.114349
 20
39.925838
 11
373.114349
 21
32.529839
  0
LINE
  8
0
  6
CONTINUOUS
 10
374.210052
 20
36.003719
 11
374.210052
 21
32.529839
  0
LINE
  8
0
  6
CONTINUOUS
 10
358.378754
 20
39.826229
 11
355.306854
 21
39.826229
  0
LINE
  8
0
  6
CONTINUOUS
 10
355.306854
 20
39.826229
 11
354.587036
 21
38.933731
  0
LINE
  8
0
  6
CONTINUOUS
 10
354.673645
 20
41.096249
 11
353.516235
 21
39.614250
  0
LINE
  8
0
  6
CONTINUOUS
 10
354.587036
 20
33.424671
 11
355.318359
 21
32.654362
  0
LINE
  8
0
  6
CONTINUOUS
 10
353.516235
 20
32.774601
 11
354.746063
 21
31.533751
  0
LINE
  8
0
  6
CONTINUOUS
 10
353.516235
 20
39.614250
 11
353.516235
 21
32.774601
  0
LINE
  8
0
  6
CONTINUOUS
 10
354.587036
 20
38.933731
 11
354.587036
 21
33.424671
  0
LINE
  8
0
  6
CONTINUOUS
 10
358.969849
 20
39.254791
 11
358.366638
 21
39.826229
  0
LINE
  8
0
  6
CONTINUOUS
 10
358.960236
 20
41.096249
 11
359.891235
 21
40.063110
  0
LINE
  8
0
  6
CONTINUOUS
 10
358.969849
 20
39.104061
 11
359.891235
 21
39.104061
  0
LINE
  8
0
  6
CONTINUOUS
 10
354.673645
 20
41.096249
 11
358.960236
 21
41.096249
  0
LINE
  8
0
  6
CONTINUOUS
 10
358.969849
 20
36.041069
 11
357.301453
 21
36.041069
  0
LINE
  8
0
  6
CONTINUOUS
 10
358.969849
 20
35.044979
 11
358.969849
 21
35.841862
  0
LINE
  8
0
  6
CONTINUOUS
 10
356.977661
 20
32.654362
 11
355.318359
 21
32.654362
  0
ARC
  8
0
  6
CONTINUOUS
 10
356.977661
 20
34.646542
 40
1.992187
 50
-89.999786
 51
0.000109
  0
LINE
  8
0
  6
CONTINUOUS
 10
358.969849
 20
32.296009
 11
358.969849
 21
31.533751
  0
LINE
  8
0
  6
CONTINUOUS
 10
359.891235
 20
40.063110
 11
359.891235
 21
39.104061
  0
LINE
  8
0
  6
CONTINUOUS
 10
358.969849
 20
36.041069
 11
358.969849
 21
34.646542
  0
LINE
  8
0
  6
CONTINUOUS
 10
357.301453
 20
37.086971
 11
357.301453
 21
36.041069
  0
LINE
  8
0
  6
CONTINUOUS
 10
358.969849
 20
31.533751
 11
359.891235
 21
31.533751
  0
LINE
  8
0
  6
CONTINUOUS
 10
358.969849
 20
32.296009
 11
358.061249
 21
31.533751
  0
LINE
  8
0
  6
CONTINUOUS
 10
366.839050
 20
32.579651
 11
367.237457
 21
32.579651
  0
LINE
  8
0
  6
CONTINUOUS
 10
365.170563
 20
32.579651
 11
365.170563
 21
31.533751
  0
LINE
  8
0
  6
CONTINUOUS
 10
367.237457
 20
32.579651
 11
367.237457
 21
31.533751
  0
LINE
  8
0
  6
CONTINUOUS
 10
368.788849
 20
39.104061
 11
369.453735
 21
39.104061
  0
LINE
  8
0
  6
CONTINUOUS
 10
363.078735
 20
39.104061
 11
363.786346
 21
39.104061
  0
LINE
  8
0
  6
CONTINUOUS
 10
363.078735
 20
41.096249
 11
369.453735
 21
41.096249
  0
LINE
  8
0
  6
CONTINUOUS
 10
365.170563
 20
31.533751
 11
367.237457
 21
31.533751
  0
LINE
  8
0
  6
CONTINUOUS
 10
365.170563
 20
32.579651
 11
365.643646
 21
32.579651
  0
ARC
  8
0
  6
CONTINUOUS
 10
376.463745
 20
38.543758
 40
2.552490
 50
-73.981873
 51
90.003510
  0
ARC
  8
0
  6
CONTINUOUS
 10
376.463745
 20
38.543758
 40
1.557193
 50
-82.585274
 51
62.411850
  0
LINE
  8
0
  6
CONTINUOUS
 10
372.641235
 20
41.096249
 11
376.463745
 21
41.096249
  0
LINE
  8
0
  6
CONTINUOUS
 10
372.641235
 20
41.096249
 11
372.641235
 21
39.925838
  0
LINE
  8
0
  6
CONTINUOUS
 10
374.210052
 20
39.925838
 11
374.210052
 21
36.999592
  0
LINE
  8
0
  6
CONTINUOUS
 10
377.168152
 20
36.090370
 11
378.747955
 21
32.529839
  0
LINE
  8
0
  6
CONTINUOUS
 10
376.250549
 20
36.003719
 11
377.745544
 21
32.529839
  0
LINE
  8
0
  6
CONTINUOUS
 10
372.641235
 20
32.529839
 11
373.114349
 21
32.529839
  0
LINE
  8
0
  6
CONTINUOUS
 10
374.210052
 20
32.529839
 11
374.645844
 21
32.529839
  0
LINE
  8
0
  6
CONTINUOUS
 10
374.645844
 20
31.533751
 11
372.641235
 21
31.533751
  0
LINE
  8
0
  6
CONTINUOUS
 10
377.547058
 20
32.529839
 11
377.745544
 21
32.529839
  0
LINE
  8
0
  6
CONTINUOUS
 10
378.747955
 20
32.529839
 11
379.016235
 21
32.529839
  0
LINE
  8
0
  6
CONTINUOUS
 10
377.547058
 20
31.533751
 11
379.016235
 21
31.533751
  0
LINE
  8
0
  6
CONTINUOUS
 10
379.016235
 20
32.529839
 11
379.016235
 21
31.533751
  0
LINE
  8
0
  6
CONTINUOUS
 10
377.547058
 20
32.529839
 11
377.547058
 21
31.533751
  0
LINE
  8
0
  6
CONTINUOUS
 10
374.645844
 20
32.529839
 11
374.645844
 21
31.533751
  0
LINE
  8
0
  6
CONTINUOUS
 10
372.641235
 20
32.529839
 11
372.641235
 21
31.533751
  0
LINE
  8
0
  6
CONTINUOUS
 10
364.128754
 20
39.925838
 11
363.786346
 21
39.104061
  0
LINE
  8
0
  6
CONTINUOUS
 10
368.500061
 20
39.925838
 11
368.788849
 21
39.104061
  0
LINE
  8
0
  6
CONTINUOUS
 10
366.839050
 20
39.925838
 11
368.500061
 21
39.925838
  0
LINE
  8
0
  6
CONTINUOUS
 10
365.643646
 20
39.925838
 11
364.128754
 21
39.925838
  0
LINE
  8
0
  6
CONTINUOUS
 10
372.641235
 20
39.925838
 11
373.114349
 21
39.925838
  0
LINE
  8
0
  6
CONTINUOUS
 10
374.210052
 20
39.925838
 11
377.184937
 21
39.923901
  0
LINE
  8
0
  6
CONTINUOUS
 10
358.969849
 20
39.254791
 11
358.969849
 21
39.104061
  0
LINE
  8
0
  6
CONTINUOUS
 10
354.746063
 20
31.533751
 11
358.061249
 21
31.533751
  0
LINE
  8
0
  6
CONTINUOUS
 10
374.210052
 20
36.999592
 11
376.664764
 21
36.999592
  0
LINE
  8
0
  6
CONTINUOUS
 10
374.210052
 20
36.003719
 11
376.250549
 21
36.003719
  0
LINE
  8
0
  6
CONTINUOUS
 10
357.301453
 20
37.086971
 11
359.891235
 21
37.086971
  0
LINE
  8
0
  6
CONTINUOUS
 10
414.353546
 20
7.373110
 11
366.266235
 21
6.533750
  0
LINE
  8
0
  6
CONTINUOUS
 10
318.179047
 20
7.372930
 11
366.266235
 21
6.533750
  0
ARC
  8
0
  6
CONTINUOUS
 10
414.266235
 20
12.372340
 40
5.000000
 50
-88.999817
 51
0.000000
  0
ARC
  8
0
  6
CONTINUOUS
 10
318.266235
 20
12.372200
 40
5.000000
 50
180.000000
 51
269.000488
  0
LINE
  8
0
  6
CONTINUOUS
 10
394.695160
 20
4.533750
 11
337.837341
 21
4.533750
  0
LINE
  8
0
  6
CONTINUOUS
 10
311.266235
 20
31.104820
 11
311.266235
 21
87.962646
  0
LINE
  8
0
  6
CONTINUOUS
 10
421.266235
 20
87.962646
 11
421.266235
 21
31.104820
  0
ARC
  8
0
  6
CONTINUOUS
 10
337.837341
 20
109.533752
 40
5.000000
 50
101.245857
 51
135.000198
  0
ARC
  8
0
  6
CONTINUOUS
 10
316.266235
 20
87.962753
 40
5.000000
 50
135.000305
 51
180.000000
  0
ARC
  8
0
  6
CONTINUOUS
 10
316.266235
 20
31.104851
 40
5.000000
 50
180.000000
 51
225.000397
  0
ARC
  8
0
  6
CONTINUOUS
 10
337.837341
 20
9.533750
 40
5.000000
 50
225.000000
 51
270.000000
  0
ARC
  8
0
  6
CONTINUOUS
 10
394.695160
 20
9.533750
 40
5.000000
 50
270.000000
 51
315.000000
  0
ARC
  8
0
  6
CONTINUOUS
 10
416.266235
 20
31.104811
 40
5.000000
 50
-44.999882
 51
0.000000
  0
ARC
  8
0
  6
CONTINUOUS
 10
416.266235
 20
87.962646
 40
5.000000
 50
0.000000
 51
45.000160
  0
ARC
  8
0
  6
CONTINUOUS
 10
394.695251
 20
109.533752
 40
5.000000
 50
45.000160
 51
78.755119
  0
LINE
  8
0
  6
CONTINUOUS
 10
398.230743
 20
113.069252
 11
399.343658
 21
111.956352
  0
LINE
  8
0
  6
CONTINUOUS
 10
419.801758
 20
91.498253
 11
419.266235
 21
92.033752
  0
LINE
  8
0
  6
CONTINUOUS
 10
312.730743
 20
91.498253
 11
313.266235
 21
92.033752
  0
LINE
  8
0
  6
CONTINUOUS
 10
334.301849
 20
113.069252
 11
333.188751
 21
111.956253
  0
LINE
  8
0
  6
CONTINUOUS
 10
334.301849
 20
5.998220
 11
333.189056
 21
7.110990
  0
LINE
  8
0
  6
CONTINUOUS
 10
312.730743
 20
27.569281
 11
313.266235
 21
27.033730
  0
LINE
  8
0
  6
CONTINUOUS
 10
419.801758
 20
27.569281
 11
419.266235
 21
27.033751
  0
LINE
  8
0
  6
CONTINUOUS
 10
398.230652
 20
5.998210
 11
399.343658
 21
7.111110
  0
LINE
  8
0
  6
CONTINUOUS
 10
360.766235
 20
77.533752
 11
360.766235
 21
71.533752
  0
LINE
  8
0
  6
CONTINUOUS
 10
354.766235
 20
77.533752
 11
354.766235
 21
71.533752
  0
LINE
  8
0
  6
CONTINUOUS
 10
354.766235
 20
77.533752
 11
360.766235
 21
77.533752
  0
LINE
  8
0
  6
CONTINUOUS
 10
354.766235
 20
71.533752
 11
360.766235
 21
71.533752
  0
ARC
  8
0
  6
CONTINUOUS
 10
366.266235
 20
74.533752
 40
9.000000
 50
-160.528793
 51
160.528793
  0
CIRCLE
  8
0
  6
CONTINUOUS
 10
366.266235
 20
74.533752
 40
23.500000
  0
LINE
  8
0
  6
CONTINUOUS
 10
55.266209
 20
333.154388
 11
55.266209
 21
307.654327
  0
LINE
  8
0
  6
CONTINUOUS
 10
16.266209
 20
333.154388
 11
55.266209
 21
333.154388
  0
LINE
  8
0
  6
CONTINUOUS
 10
16.266209
 20
223.154373
 11
55.266209
 21
223.154373
  0
LINE
  8
0
  6
CONTINUOUS
 10
6.266208
 20
233.154373
 11
6.266208
 21
323.154388
  0
LINE
  8
0
  6
CONTINUOUS
 10
11.266208
 20
308.654388
 11
55.266209
 21
308.654388
  0
LINE
  8
0
  6
CONTINUOUS
 10
11.266208
 20
247.654373
 11
55.266209
 21
247.654373
  0
ARC
  8
0
  6
CONTINUOUS
 10
16.266209
 20
323.154388
 40
10.000000
 50
90.000000
 51
180.000000
  0
ARC
  8
0
  6
CONTINUOUS
 10
16.266209
 20
233.154373
 40
10.000000
 50
180.000000
 51
270.000000
  0
LINE
  8
0
  6
CONTINUOUS
 10
56.266251
 20
114.033760
 11
114.766251
 21
114.033752
  0
LINE
  8
0
  6
CONTINUOUS
 10
56.266251
 20
114.033752
 11
56.266251
 21
112.533752
  0
LINE
  8
0
  6
CONTINUOUS
 10
102.266251
 20
114.033752
 11
102.266251
 21
112.533752
  0
LINE
  8
0
  6
CONTINUOUS
 10
54.766251
 20
163.033752
 11
54.766251
 21
116.033760
  0
LINE
  8
0
  6
CONTINUOUS
 10
116.766251
 20
163.033752
 11
116.766251
 21
116.033752
  0
LINE
  8
0
  6
CONTINUOUS
 10
116.766251
 20
116.033752
 11
114.766251
 21
114.033752
  0
LINE
  8
0
  6
CONTINUOUS
 10
54.766251
 20
116.033760
 11
56.766251
 21
114.033760
  0
LINE
  8
0
  6
CONTINUOUS
 10
54.766251
 20
116.033760
 11
116.766251
 21
116.033752
  0
LINE
  8
0
  6
CONTINUOUS
 10
54.766251
 20
126.033760
 11
116.766251
 21
126.033760
  0
LINE
  8
0
  6
CENTER
 10
85.766251
 20
171.547501
 11
85.766251
 21
109.439743
  0
LINE
  8
0
  6
CONTINUOUS
 10
54.766251
 20
127.033760
 11
116.766251
 21
127.033760
  0
LINE
  8
0
  6
CONTINUOUS
 10
55.766251
 20
164.033752
 11
115.766251
 21
164.033752
  0
LINE
  8
0
  6
CONTINUOUS
 10
115.766251
 20
164.033752
 11
116.766251
 21
163.033752
  0
LINE
  8
0
  6
CONTINUOUS
 10
54.766251
 20
163.033752
 11
55.766251
 21
164.033752
  0
LINE
  8
0
  6
CONTINUOUS
 10
54.766251
 20
163.033752
 11
116.766251
 21
163.033752
  0
LINE
  8
0
  6
CENTER
 10
52.141251
 20
147.033768
 11
57.891251
 21
147.033768
  0
LINE
  8
0
  6
CONTINUOUS
 10
53.641251
 20
157.533768
 11
56.766251
 21
157.533768
  0
LINE
  8
0
  6
CONTINUOUS
 10
53.641251
 20
136.533752
 11
56.766251
 21
136.533752
  0
LINE
  8
0
  6
CONTINUOUS
 10
388.766235
 20
114.033752
 11
388.766235
 21
112.141006
  0
LINE
  8
0
  6
CONTINUOUS
 10
343.766235
 20
114.033752
 11
343.766235
 21
112.141006
  0
LINE
  8
0
  6
CONTINUOUS
 10
337.266235
 20
114.033752
 11
395.266235
 21
114.033752
  0
LINE
  8
0
  6
CONTINUOUS
 10
397.266235
 20
163.033752
 11
397.266235
 21
116.033752
  0
LINE
  8
0
  6
CONTINUOUS
 10
335.266235
 20
163.033752
 11
335.266235
 21
116.033752
  0
LINE
  8
0
  6
CONTINUOUS
 10
397.266235
 20
116.033752
 11
395.266235
 21
114.033752
  0
LINE
  8
0
  6
CONTINUOUS
 10
335.266235
 20
116.033752
 11
337.266235
 21
114.033752
  0
LINE
  8
0
  6
CONTINUOUS
 10
335.266235
 20
116.033752
 11
397.266235
 21
116.033752
  0
LINE
  8
0
  6
CONTINUOUS
 10
335.266235
 20
126.033752
 11
397.266235
 21
126.033752
  0
LINE
  8
0
  6
CONTINUOUS
 10
335.266235
 20
127.033752
 11
397.266235
 21
127.033752
  0
LINE
  8
0
  6
CONTINUOUS
 10
336.266235
 20
164.033752
 11
396.266235
 21
164.033752
  0
LINE
  8
0
  6
CONTINUOUS
 10
396.266235
 20
164.033752
 11
397.266235
 21
163.033752
  0
LINE
  8
0
  6
CONTINUOUS
 10
336.266235
 20
164.033752
 11
335.266235
 21
163.033752
  0
LINE
  8
0
  6
CONTINUOUS
 10
335.266235
 20
163.033752
 11
397.266235
 21
163.033752
  0
LINE
  8
0
  6
CENTER
 10
298.541870
 20
59.533749
 11
431.489990
 21
59.533749
  0
LINE
  8
0
  6
CONTINUOUS
 10
54.766251
 20
307.154358
 11
54.766251
 21
249.154358
  0
LINE
  8
0
  6
CONTINUOUS
 10
116.766251
 20
249.154358
 11
116.766251
 21
307.154358
  0
LINE
  8
0
  6
CONTINUOUS
 10
56.766251
 20
309.154358
 11
114.766251
 21
309.154358
  0
LINE
  8
0
  6
CONTINUOUS
 10
56.766251
 20
247.154358
 11
114.766251
 21
247.154358
  0
LINE
  8
0
  6
CONTINUOUS
 10
114.766251
 20
309.154358
 11
116.766251
 21
307.154358
  0
LINE
  8
0
  6
CONTINUOUS
 10
116.766251
 20
249.154358
 11
114.766251
 21
247.154358
  0
LINE
  8
0
  6
CONTINUOUS
 10
54.766251
 20
249.154358
 11
56.766251
 21
247.154358
  0
LINE
  8
0
  6
CONTINUOUS
 10
54.766251
 20
307.154358
 11
56.766251
 21
309.154358
  0
LINE
  8
0
  6
CONTINUOUS
 10
108.766251
 20
304.154358
 11
108.766251
 21
309.154358
  0
LINE
  8
0
  6
CONTINUOUS
 10
111.766251
 20
301.154358
 11
116.766251
 21
301.154358
  0
CIRCLE
  8
0
  6
CONTINUOUS
 10
112.766251
 20
305.154358
 40
2.250000
  0
ARC
  8
0
  6
CONTINUOUS
 10
111.766251
 20
304.154358
 40
3.000000
 50
180.000000
 51
270.000000
  0
LINE
  8
0
  6
CONTINUOUS
 10
115.766251
 20
300.154358
 11
115.766251
 21
256.154358
  0
LINE
  8
0
  6
CONTINUOUS
 10
111.766251
 20
300.154358
 11
115.766251
 21
300.154358
  0
ARC
  8
0
  6
CONTINUOUS
 10
111.766251
 20
304.154358
 40
4.000000
 50
180.000000
 51
270.000000
  0
LINE
  8
0
  6
CONTINUOUS
 10
107.766251
 20
308.154358
 11
107.766251
 21
304.154358
  0
LINE
  8
0
  6
CONTINUOUS
 10
115.766251
 20
300.154358
 11
116.766251
 21
301.154358
  0
LINE
  8
0
  6
CONTINUOUS
 10
63.766251
 20
308.154358
 11
107.766251
 21
308.154358
  0
LINE
  8
0
  6
CONTINUOUS
 10
107.766251
 20
308.154358
 11
108.766251
 21
309.154358
  0
LINE
  8
0
  6
CONTINUOUS
 10
59.766251
 20
301.154358
 11
54.766251
 21
301.154358
  0
LINE
  8
0
  6
CONTINUOUS
 10
62.766251
 20
304.154358
 11
62.766251
 21
309.154358
  0
CIRCLE
  8
0
  6
CONTINUOUS
 10
58.766251
 20
305.154358
 40
2.250000
  0
ARC
  8
0
  6
CONTINUOUS
 10
59.766251
 20
304.154358
 40
3.000000
 50
-90.000000
 51
0.000000
  0
LINE
  8
0
  6
CONTINUOUS
 10
63.766251
 20
304.154358
 11
63.766251
 21
308.154358
  0
ARC
  8
0
  6
CONTINUOUS
 10
59.766251
 20
304.154358
 40
4.000000
 50
-90.000000
 51
0.000000
  0
LINE
  8
0
  6
CONTINUOUS
 10
55.766251
 20
300.154358
 11
59.766251
 21
300.154358
  0
LINE
  8
0
  6
CONTINUOUS
 10
63.766251
 20
308.154358
 11
62.766251
 21
309.154358
  0
LINE
  8
0
  6
CONTINUOUS
 10
55.766251
 20
300.154358
 11
54.766251
 21
301.154358
  0
LINE
  8
0
  6
CONTINUOUS
 10
62.766251
 20
252.154358
 11
62.766251
 21
247.154358
  0
LINE
  8
0
  6
CONTINUOUS
 10
59.766251
 20
255.154358
 11
54.766251
 21
255.154358
  0
CIRCLE
  8
0
  6
CONTINUOUS
 10
58.766251
 20
251.154358
 40
2.250000
  0
ARC
  8
0
  6
CONTINUOUS
 10
59.766251
 20
252.154358
 40
3.000000
 50
0.000000
 51
90.000000
  0
LINE
  8
0
  6
CONTINUOUS
 10
59.766251
 20
256.154358
 11
55.766251
 21
256.154358
  0
ARC
  8
0
  6
CONTINUOUS
 10
59.766251
 20
252.154358
 40
4.000000
 50
0.000000
 51
90.000000
  0
LINE
  8
0
  6
CONTINUOUS
 10
63.766251
 20
248.154358
 11
63.766251
 21
252.154358
  0
LINE
  8
0
  6
CONTINUOUS
 10
55.766251
 20
256.154358
 11
54.766251
 21
255.154358
  0
LINE
  8
0
  6
CONTINUOUS
 10
63.766251
 20
248.154358
 11
62.766251
 21
247.154358
  0
LINE
  8
0
  6
CONTINUOUS
 10
111.766251
 20
255.154358
 11
116.766251
 21
255.154358
  0
LINE
  8
0
  6
CONTINUOUS
 10
108.766251
 20
252.154358
 11
108.766251
 21
247.154358
  0
CIRCLE
  8
0
  6
CONTINUOUS
 10
112.766251
 20
251.154358
 40
2.250000
  0
ARC
  8
0
  6
CONTINUOUS
 10
111.766251
 20
252.154358
 40
3.000000
 50
90.000000
 51
180.000000
  0
LINE
  8
0
  6
CONTINUOUS
 10
107.766251
 20
252.154358
 11
107.766251
 21
248.154358
  0
ARC
  8
0
  6
CONTINUOUS
 10
111.766251
 20
252.154358
 40
4.000000
 50
90.000000
 51
180.000000
  0
LINE
  8
0
  6
CONTINUOUS
 10
115.766251
 20
256.154358
 11
111.766251
 21
256.154358
  0
LINE
  8
0
  6
CONTINUOUS
 10
107.766251
 20
248.154358
 11
108.766251
 21
247.154358
  0
LINE
  8
0
  6
CONTINUOUS
 10
115.766251
 20
256.154358
 11
116.766251
 21
255.154358
  0
LINE
  8
0
  6
CONTINUOUS
 10
63.766251
 20
248.154358
 11
107.766251
 21
248.154358
  0
LINE
  8
0
  6
CONTINUOUS
 10
55.766251
 20
300.154358
 11
55.766251
 21
256.154358
  0
LINE
  8
0
  6
CENTER
 10
85.766251
 20
314.400604
 11
85.766251
 21
241.707794
  0
LINE
  8
0
  6
CONTINUOUS
 10
55.266209
 20
248.654404
 11
55.266209
 21
223.154373
  0
LINE
  8
0
  6
CONTINUOUS
 10
55.266209
 20
255.654312
 11
55.266209
 21
255.154358
  0
TEXT
  8
0
 10
-6.000000
 20
-1.000000
 40
4.000000
 41
1.000000
  1
GFMN-18-80~240-S60WC
 50
0.000000
  0
ENDSEC
  0
EOF
