  0
SECTION
  2
HEADER
  9
$ACADVER
  1
AC1014
  9
$ACADMAINTVER
 70
     9
  9
$DWGCODEPAGE
  3
ANSI_932
  9
$INSBASE
 10
0.0
 20
0.0
 30
0.0
  9
$EXTMIN
 10
46.19864583948731
 20
59.80171318425016
 30
0.0
  9
$EXTMAX
 10
544.4274492512928
 20
409.6443115041157
 30
0.0
  9
$LIMMIN
 10
-31.71278087975042
 20
-7.401886382482871
  9
$LIMMAX
 10
531.4902435198068
 20
459.7246670731071
  9
$ORTHOMODE
 70
     0
  9
$REGENMODE
 70
     1
  9
$FILLMODE
 70
     1
  9
$QTEXTMODE
 70
     0
  9
$MIRRTEXT
 70
     0
  9
$DRAGMODE
 70
     2
  9
$LTSCALE
 40
2.0
  9
$OSMODE
 70
    37
  9
$ATTMODE
 70
     1
  9
$TEXTSIZE
 40
2.0
  9
$TRACEWID
 40
1.0
  9
$TEXTSTYLE
  7
STANDARD
  9
$CLAYER
  8
0
  9
$CELTYPE
  6
BYLAYER
  9
$CECOLOR
 62
   256
  9
$CELTSCALE
 40
1.0
  9
$DELOBJ
 70
     1
  9
$DISPSILH
 70
     0
  9
$DIMSCALE
 40
2.0
  9
$DIMASZ
 40
1.8
  9
$DIMEXO
 40
0.625
  9
$DIMDLI
 40
3.75
  9
$DIMRND
 40
0.0
  9
$DIMDLE
 40
0.0
  9
$DIMEXE
 40
0.8
  9
$DIMTP
 40
0.0
  9
$DIMTM
 40
0.0
  9
$DIMTXT
 40
1.8
  9
$DIMCEN
 40
2.5
  9
$DIMTSZ
 40
0.0
  9
$DIMTOL
 70
     0
  9
$DIMLIM
 70
     0
  9
$DIMTIH
 70
     0
  9
$DIMTOH
 70
     0
  9
$DIMSE1
 70
     0
  9
$DIMSE2
 70
     0
  9
$DIMTAD
 70
     1
  9
$DIMZIN
 70
     8
  9
$DIMBLK
  1

  9
$DIMASO
 70
     1
  9
$DIMSHO
 70
     1
  9
$DIMPOST
  1

  9
$DIMAPOST
  1

  9
$DIMALT
 70
     0
  9
$DIMALTD
 70
     4
  9
$DIMALTF
 40
0.0394
  9
$DIMLFAC
 40
1.0
  9
$DIMTOFL
 70
     1
  9
$DIMTVP
 40
0.0
  9
$DIMTIX
 70
     0
  9
$DIMSOXD
 70
     0
  9
$DIMSAH
 70
     0
  9
$DIMBLK1
  1

  9
$DIMBLK2
  1

  9
$DIMSTYLE
  2
STANDARD
  9
$DIMCLRD
 70
     0
  9
$DIMCLRE
 70
     0
  9
$DIMCLRT
 70
     0
  9
$DIMTFAC
 40
1.0
  9
$DIMGAP
 40
0.75
  9
$DIMJUST
 70
     0
  9
$DIMSD1
 70
     0
  9
$DIMSD2
 70
     0
  9
$DIMTOLJ
 70
     1
  9
$DIMTZIN
 70
     0
  9
$DIMALTZ
 70
     0
  9
$DIMALTTZ
 70
     0
  9
$DIMFIT
 70
     3
  9
$DIMUPT
 70
     0
  9
$DIMUNIT
 70
     8
  9
$DIMDEC
 70
     2
  9
$DIMTDEC
 70
     2
  9
$DIMALTU
 70
     8
  9
$DIMALTTD
 70
     4
  9
$DIMTXSTY
  7
STANDARD
  9
$DIMAUNIT
 70
     0
  9
$LUNITS
 70
     2
  9
$LUPREC
 70
     3
  9
$SKETCHINC
 40
1.0
  9
$FILLETRAD
 40
10.0
  9
$AUNITS
 70
     0
  9
$AUPREC
 70
     2
  9
$MENU
  1
.
  9
$ELEVATION
 40
0.0
  9
$PELEVATION
 40
0.0
  9
$THICKNESS
 40
0.0
  9
$LIMCHECK
 70
     0
  9
$BLIPMODE
 70
     0
  9
$CHAMFERA
 40
0.0
  9
$CHAMFERB
 40
0.0
  9
$CHAMFERC
 40
20.0
  9
$CHAMFERD
 40
0.0
  9
$SKPOLY
 70
     0
  9
$TDCREATE
 40
2453760.712651180
  9
$TDUPDATE
 40
2453832.512377025
  9
$TDINDWG
 40
0.4884051505
  9
$TDUSRTIMER
 40
0.4884051505
  9
$USRTIMER
 70
     1
  9
$ANGBASE
 50
0.0
  9
$ANGDIR
 70
     0
  9
$PDMODE
 70
     0
  9
$PDSIZE
 40
-10.0
  9
$PLINEWID
 40
0.0
  9
$COORDS
 70
     0
  9
$SPLFRAME
 70
     0
  9
$SPLINETYPE
 70
     6
  9
$SPLINESEGS
 70
     8
  9
$ATTDIA
 70
     0
  9
$ATTREQ
 70
     1
  9
$HANDLING
 70
-16383
  9
$HANDSEED
  5
1772
  9
$SURFTAB1
 70
     6
  9
$SURFTAB2
 70
     6
  9
$SURFTYPE
 70
     6
  9
$SURFU
 70
     6
  9
$SURFV
 70
     6
  9
$UCSNAME
  2

  9
$UCSORG
 10
0.0
 20
0.0
 30
0.0
  9
$UCSXDIR
 10
1.0
 20
0.0
 30
0.0
  9
$UCSYDIR
 10
0.0
 20
1.0
 30
0.0
  9
$PUCSNAME
  2

  9
$PUCSORG
 10
0.0
 20
0.0
 30
0.0
  9
$PUCSXDIR
 10
1.0
 20
0.0
 30
0.0
  9
$PUCSYDIR
 10
0.0
 20
1.0
 30
0.0
  9
$USERI1
 70
     0
  9
$USERI2
 70
     0
  9
$USERI3
 70
     0
  9
$USERI4
 70
     0
  9
$USERI5
 70
     0
  9
$USERR1
 40
0.0
  9
$USERR2
 40
0.0
  9
$USERR3
 40
0.0
  9
$USERR4
 40
0.0
  9
$USERR5
 40
0.0
  9
$WORLDVIEW
 70
     1
  9
$SHADEDGE
 70
     3
  9
$SHADEDIF
 70
    70
  9
$TILEMODE
 70
     1
  9
$MAXACTVP
 70
    48
  9
$PINSBASE
 10
0.0
 20
0.0
 30
0.0
  9
$PLIMCHECK
 70
     0
  9
$PEXTMIN
 10
0.0
 20
0.0
 30
0.0
  9
$PEXTMAX
 10
0.0
 20
0.0
 30
0.0
  9
$PLIMMIN
 10
0.0
 20
0.0
  9
$PLIMMAX
 10
12.0
 20
9.0
  9
$UNITMODE
 70
     0
  9
$VISRETAIN
 70
     1
  9
$PLINEGEN
 70
     0
  9
$PSLTSCALE
 70
     1
  9
$TREEDEPTH
 70
  3020
  9
$PICKSTYLE
 70
     1
  9
$CMLSTYLE
  2
STANDARD
  9
$CMLJUST
 70
     0
  9
$CMLSCALE
 40
1.0
  9
$PROXYGRAPHICS
 70
     1
  9
$MEASUREMENT
 70
     0
  0
ENDSEC
  0
SECTION
  2
CLASSES
  0
CLASS
  1
DICTIONARYVAR
  2
AcDbDictionaryVar
  3
AutoCAD 2000
 90
        0
280
     0
281
     0
  0
CLASS
  1
ACDBDICTIONARYWDFLT
  2
AcDbDictionaryWithDefault
  3
AutoCAD 2000
 90
        0
280
     0
281
     0
  0
CLASS
  1
ACDBPLACEHOLDER
  2
AcDbPlaceHolder
  3
AutoCAD 2000
 90
        0
280
     0
281
     0
  0
CLASS
  1
LAYOUT
  2
AcDbLayout
  3
AutoCAD 2000
 90
        0
280
     0
281
     0
  0
CLASS
  1
LONG_TRANSACTION
  2
AcDbLongTransaction
  3
AutoCAD 2000
 90
        0
280
     0
281
     0
  0
CLASS
  1
LWPOLYLINE
  2
AcDbPolyline
  3
AutoCAD 2000
 90
        0
280
     0
281
     1
  0
CLASS
  1
HATCH
  2
AcDbHatch
  3
AutoCAD 2000
 90
        0
280
     0
281
     1
  0
CLASS
  1
XRECORD
  2
AcDbXrecord
  3
AutoCAD 2000
 90
        0
280
     0
281
     0
  0
ENDSEC
  0
SECTION
  2
TABLES
  0
TABLE
  2
VPORT
  5
6E
330
0
100
AcDbSymbolTable
 70
     2
  0
VPORT
  5
174C
330
6E
100
AcDbSymbolTableRecord
100
AcDbViewportTableRecord
  2
*ACTIVE
 70
     0
 10
0.0
 20
0.0
 11
1.0
 21
1.0
 12
283.9617105991858
 22
215.3449768562949
 13
0.0
 23
0.0
 14
10.0
 24
10.0
 15
10.0
 25
10.0
 16
0.0
 26
0.0
 36
1.0
 17
0.0
 27
0.0
 37
0.0
 40
391.7358338439111
 41
1.566970091027308
 42
50.0
 43
0.0
 44
0.0
 50
0.0
 51
0.0
 71
     0
 72
   100
 73
     1
 74
     3
 75
     0
 76
     0
 77
     0
 78
     0
  0
ENDTAB
  0
TABLE
  2
LTYPE
  5
69
330
0
100
AcDbSymbolTable
 70
     3
  0
LTYPE
  5
6A
330
69
100
AcDbSymbolTableRecord
100
AcDbLinetypeTableRecord
  2
BYBLOCK
 70
     0
  3

 72
    65
 73
     0
 40
0.0
  0
LTYPE
  5
6B
330
69
100
AcDbSymbolTableRecord
100
AcDbLinetypeTableRecord
  2
BYLAYER
 70
     0
  3

 72
    65
 73
     0
 40
0.0
  0
LTYPE
  5
8
330
69
100
AcDbSymbolTableRecord
100
AcDbLinetypeTableRecord
  2
CONTINUOUS
 70
     0
  3
Solid line
 72
    65
 73
     0
 40
0.0
  0
LTYPE
  5
27C
330
69
100
AcDbSymbolTableRecord
100
AcDbLinetypeTableRecord
  2
SEKKEI_A2_
 70
     0
  3
center(A2)  ____ _ ____ _ ____ _ ____ _ ____ _ 
 72
    65
 73
     4
 40
14.28749999999999
 49
9.525
 74
     0
 49
-1.587499999999999
 74
     0
 49
1.587499999999999
 74
     0
 49
-1.587499999999999
 74
     0
  0
LTYPE
  5
2B4
330
69
100
AcDbSymbolTableRecord
100
AcDbLinetypeTableRecord
  2
HIDDEN2
 70
     0
  3
Hidden (.5x) _ _ _ _ _ _ _ _ _ _ _ _ _ _ _ _ _
 72
    65
 73
     2
 40
4.762499999999999
 49
3.174999999999999
 74
     0
 49
-1.587499999999999
 74
     0
  0
ENDTAB
  0
TABLE
  2
LAYER
  5
66
330
0
100
AcDbSymbolTable
 70
     9
  0
LAYER
  5
5E
330
66
100
AcDbSymbolTableRecord
100
AcDbLayerTableRecord
  2
0
 70
     0
 62
     7
  6
CONTINUOUS
  0
LAYER
  5
3E
330
66
100
AcDbSymbolTableRecord
100
AcDbLayerTableRecord
  2
CENTER
 70
     0
 62
     3
  6
SEKKEI_A2_
  0
LAYER
  5
2B5
330
66
100
AcDbSymbolTableRecord
100
AcDbLayerTableRecord
  2
HIDS
 70
     0
 62
     1
  6
HIDDEN2
  0
LAYER
  5
2BA
330
66
100
AcDbSymbolTableRecord
100
AcDbLayerTableRecord
  2
HOJO
 70
     0
 62
     4
  6
CONTINUOUS
  0
LAYER
  5
3FA
330
66
100
AcDbSymbolTableRecord
100
AcDbLayerTableRecord
  2
TITLE
 70
     0
 62
     4
  6
CONTINUOUS
  0
ENDTAB
  0
TABLE
  2
STYLE
  5
67
330
0
100
AcDbSymbolTable
 70
     1
  0
STYLE
  5
16
330
67
100
AcDbSymbolTableRecord
100
AcDbTextStyleTableRecord
  2
STANDARD
 70
     0
 40
0.0
 41
1.0
 50
0.0
 71
     0
 42
2.0
  3
simplex.shx
  4
extfont.shx
  0
ENDTAB
  0
TABLE
  2
VIEW
  5
6C
330
0
100
AcDbSymbolTable
 70
     0
  0
ENDTAB
  0
TABLE
  2
UCS
  5
6D
330
0
100
AcDbSymbolTable
 70
     0
  0
ENDTAB
  0
TABLE
  2
APPID
  5
70
330
0
100
AcDbSymbolTable
 70
     1
  0
APPID
  5
71
330
70
100
AcDbSymbolTableRecord
100
AcDbRegAppTableRecord
  2
ACAD
 70
     0
  0
ENDTAB
  0
TABLE
  2
DIMSTYLE
  5
72
330
0
100
AcDbSymbolTable
 70
     1
  0
DIMSTYLE
105
73
330
72
100
AcDbSymbolTableRecord
100
AcDbDimStyleTableRecord
  2
STANDARD
 70
     0
  3

  4

  5

  6

  7

 40
2.0
 41
1.8
 42
0.625
 43
3.75
 44
0.8
 45
0.0
 46
0.0
 47
0.0
 48
0.0
140
1.8
141
2.5
142
0.0
143
0.0394
144
1.0
145
0.0
146
1.0
147
0.75
 71
     0
 72
     0
 73
     0
 74
     0
 75
     0
 76
     0
 77
     1
 78
     8
170
     0
171
     4
172
     1
173
     0
174
     0
175
     0
176
     0
177
     0
178
     0
270
     8
271
     2
272
     2
273
     8
274
     4
340
16
275
     0
280
     0
281
     0
282
     0
283
     1
284
     0
285
     0
286
     0
287
     3
288
     0
  0
ENDTAB
  0
TABLE
  2
BLOCK_RECORD
  5
1
330
0
100
AcDbSymbolTable
 70
    61
  0
BLOCK_RECORD
  5
2
102
{ACAD_XDICTIONARY
360
176E
102
}
330
1
100
AcDbSymbolTableRecord
100
AcDbBlockTableRecord
  2
*MODEL_SPACE
  0
BLOCK_RECORD
  5
1747
102
{ACAD_XDICTIONARY
360
1770
102
}
330
1
100
AcDbSymbolTableRecord
100
AcDbBlockTableRecord
  2
*PAPER_SPACE
  0
ENDTAB
  0
ENDSEC
  0
SECTION
  2
BLOCKS
  0
BLOCK
  5
5D
330
2
100
AcDbEntity
  8
0
100
AcDbBlockBegin
  2
*MODEL_SPACE
 70
     0
 10
0.0
 20
0.0
 30
0.0
  3
*MODEL_SPACE
  1

  0
ENDBLK
  5
5F
330
2
100
AcDbEntity
  8
0
100
AcDbBlockEnd
  0
BLOCK
  5
1749
330
1747
100
AcDbEntity
 67
     1
  8
0
100
AcDbBlockBegin
  2
*PAPER_SPACE
 70
     0
 10
0.0
 20
0.0
 30
0.0
  3
*PAPER_SPACE
  1

  0
ENDBLK
  5
174A
330
1747
100
AcDbEntity
 67
     1
  8
0
100
AcDbBlockEnd
  0
ENDSEC
  0
SECTION
  2
ENTITIES
  0
TEXT
  5
5FB
330
2
100
AcDbEntity
  8
TITLE
100
AcDbText
 10
439.9451766339222
 20
331.3589930770784
 30
0.0
 40
5.0
  1
GFMN-18-40~240-S90T
100
AcDbText
  0
TEXT
  5
5FC
330
2
100
AcDbEntity
  8
TITLE
100
AcDbText
 10
325.2717398577794
 20
331.8397984607036
 30
0.0
 40
5.0
  1
GFMN-18-40~240-T90T
100
AcDbText
  0
TEXT
  5
5FD
330
2
100
AcDbEntity
  8
TITLE
100
AcDbText
 10
325.1130856029358
 20
364.4969997889582
 30
0.0
 40
5.0
  1
GFMN-18-160~240-T40T
100
AcDbText
  0
TEXT
  5
5FE
330
2
100
AcDbEntity
  8
TITLE
100
AcDbText
 10
439.9005878692772
 20
348.1844034912994
 30
0.0
 40
5.0
  1
GFMN-18-80~240-S60T
100
AcDbText
  0
TEXT
  5
5FF
330
2
100
AcDbEntity
  8
TITLE
100
AcDbText
 10
325.1130856029358
 20
348.202945488728
 30
0.0
 40
5.0
  1
GFMN-18-80~240-T60T
100
AcDbText
  0
TEXT
  5
600
330
2
100
AcDbEntity
  8
TITLE
100
AcDbText
 10
439.9036397274831
 20
364.524556351244
 30
0.0
 40
5.0
  1
GFMN-18-160~240-S40T
100
AcDbText
  0
LINE
  5
601
330
2
100
AcDbEntity
  8
CENTER
100
AcDbLine
 10
353.3416193394872
 20
121.7946042686252
 30
0.0
 11
483.9241083394873
 21
121.7946042686252
 31
0.0
  0
ARC
  5
602
330
2
100
AcDbEntity
  8
0
100
AcDbCircle
 10
107.6328178394873
 20
307.5102706922502
 30
0.0
 40
3.0
100
AcDbArc
 50
0.0
 51
90.0
  0
ARC
  5
603
330
2
100
AcDbEntity
  8
0
100
AcDbCircle
 10
107.6328178394873
 20
307.5102706922502
 30
0.0
 40
4.5
100
AcDbArc
 50
0.0
 51
90.0
  0
LINE
  5
604
330
2
100
AcDbEntity
  8
0
100
AcDbLine
 10
58.63281783948735
 20
307.5732436922503
 30
0.0
 11
58.63281783948735
 21
397.5732436922502
 31
0.0
  0
LINE
  5
605
330
2
100
AcDbEntity
  8
0
100
AcDbLine
 10
107.6328178394873
 20
407.5732436922502
 30
0.0
 11
107.6328178394873
 21
376.0732086922503
 31
0.0
  0
LINE
  5
606
330
2
100
AcDbEntity
  8
0
100
AcDbLine
 10
236.1328638394873
 20
321.0732436922502
 30
0.0
 11
236.1328638394873
 21
301.5732286922502
 31
0.0
  0
LINE
  5
607
330
2
100
AcDbEntity
  8
0
100
AcDbLine
 10
116.1328598394873
 20
299.5732436922503
 30
0.0
 11
116.1328598394873
 21
327.5732436922502
 31
0.0
  0
LINE
  5
608
330
2
100
AcDbEntity
  8
0
100
AcDbLine
 10
246.1328638394873
 20
299.5732436922503
 30
0.0
 11
246.1328638394873
 21
405.5732436922502
 31
0.0
  0
LINE
  5
609
330
2
100
AcDbEntity
  8
0
100
AcDbLine
 10
116.1328598394873
 20
79.17124326862529
 30
0.0
 11
236.1328638394873
 21
79.17124326862529
 31
0.0
  0
LINE
  5
60A
330
2
100
AcDbEntity
  8
0
100
AcDbLine
 10
116.1328598394873
 20
164.4180022686252
 30
0.0
 11
236.1328638394873
 21
164.4180022686252
 31
0.0
  0
LINE
  5
60B
330
2
100
AcDbEntity
  8
0
100
AcDbLine
 10
116.1328598394873
 20
68.79460326862528
 30
0.0
 11
246.1328638394873
 21
68.79460326862528
 31
0.0
  0
LINE
  5
60C
330
2
100
AcDbEntity
  8
0
100
AcDbLine
 10
116.1328598394873
 20
174.7946042686252
 30
0.0
 11
246.1328638394873
 21
174.7946042686252
 31
0.0
  0
LINE
  5
60E
330
2
100
AcDbEntity
  8
0
100
AcDbLine
 10
116.1328598394873
 20
299.5732436922503
 30
0.0
 11
246.1328638394873
 21
299.5732436922503
 31
0.0
  0
LINE
  5
60F
330
2
100
AcDbEntity
  8
0
100
AcDbLine
 10
116.1328598394873
 20
68.79460326862528
 30
0.0
 11
116.1328598394873
 21
174.7946042686252
 31
0.0
  0
LINE
  5
610
330
2
100
AcDbEntity
  8
0
100
AcDbLine
 10
58.63285983948734
 20
76.79460326862528
 30
0.0
 11
58.63285983948734
 21
166.7946042686252
 31
0.0
  0
LINE
  5
611
330
2
100
AcDbEntity
  8
0
100
AcDbLine
 10
107.6328598394873
 20
176.7946042686252
 30
0.0
 11
107.6328598394873
 21
66.79460326862528
 31
0.0
  0
LINE
  5
612
330
2
100
AcDbEntity
  8
0
100
AcDbLine
 10
63.63285983948734
 20
91.29460126862529
 30
0.0
 11
107.6328408394873
 21
91.29460126862529
 31
0.0
  0
LINE
  5
613
330
2
100
AcDbEntity
  8
0
100
AcDbLine
 10
68.63285983948734
 20
66.79460326862528
 30
0.0
 11
107.6328598394873
 21
66.79460326862528
 31
0.0
  0
LINE
  5
614
330
2
100
AcDbEntity
  8
CENTER
100
AcDbLine
 10
48.94250983948734
 20
121.7946042686252
 30
0.0
 11
257.555548177407
 21
121.7946042686252
 31
0.0
  0
ARC
  5
615
330
2
100
AcDbEntity
  8
0
100
AcDbCircle
 10
68.63285983948734
 20
76.79460326862528
 30
0.0
 40
10.0
100
AcDbArc
 50
180.0
 51
270.0
  0
LINE
  5
616
330
2
100
AcDbEntity
  8
0
100
AcDbLine
 10
107.6328408394873
 20
79.11047326862529
 30
0.0
 11
116.1328598394873
 21
79.11047326862529
 31
0.0
  0
LINE
  5
617
330
2
100
AcDbEntity
  8
0
100
AcDbLine
 10
107.6328408394873
 20
68.79460326862528
 30
0.0
 11
116.1328598394873
 21
68.79460326862528
 31
0.0
  0
LINE
  5
618
330
2
100
AcDbEntity
  8
0
100
AcDbLine
 10
68.63281783948735
 20
297.5732436922503
 30
0.0
 11
107.6328178394873
 21
297.5732436922503
 31
0.0
  0
LINE
  5
619
330
2
100
AcDbEntity
  8
0
100
AcDbLine
 10
63.63285983948734
 20
152.2946042686252
 30
0.0
 11
107.6328598394873
 21
152.2946042686252
 31
0.0
  0
LINE
  5
61A
330
2
100
AcDbEntity
  8
0
100
AcDbLine
 10
68.63285983948734
 20
176.7946042686252
 30
0.0
 11
107.6328598394873
 21
176.7946042686252
 31
0.0
  0
ARC
  5
61B
330
2
100
AcDbEntity
  8
0
100
AcDbCircle
 10
68.63290983948735
 20
166.7946042686252
 30
0.0
 40
10.0
100
AcDbArc
 50
90.0
 51
180.0
  0
ARC
  5
61C
330
2
100
AcDbEntity
  8
0
100
AcDbCircle
 10
68.63281783948735
 20
307.5732436922503
 30
0.0
 40
10.0
100
AcDbArc
 50
180.0
 51
270.0
  0
LINE
  5
61D
330
2
100
AcDbEntity
  8
HOJO
100
AcDbLine
 10
110.6328788394873
 20
151.2077062686253
 30
0.0
 11
112.1328788394873
 21
150.7077062686253
 31
0.0
  0
ARC
  5
61E
330
2
100
AcDbEntity
  8
0
100
AcDbCircle
 10
107.6328788394873
 20
155.2077062686253
 30
0.0
 40
3.0
100
AcDbArc
 50
0.0
 51
90.0
  0
ARC
  5
61F
330
2
100
AcDbEntity
  8
0
100
AcDbCircle
 10
107.6328788394873
 20
155.2077062686253
 30
0.0
 40
4.5
100
AcDbArc
 50
0.0
 51
90.0
  0
LINE
  5
620
330
2
100
AcDbEntity
  8
0
100
AcDbLine
 10
110.6328788394873
 20
155.2077062686253
 30
0.0
 11
110.6328788394873
 21
150.7077062686253
 31
0.0
  0
LINE
  5
621
330
2
100
AcDbEntity
  8
0
100
AcDbLine
 10
109.1328788394873
 20
155.2077062686253
 30
0.0
 11
109.1328788394873
 21
150.1921042686252
 31
0.0
  0
LINE
  5
622
330
2
100
AcDbEntity
  8
HOJO
100
AcDbLine
 10
109.1328788394873
 20
150.2077062686253
 30
0.0
 11
110.6328788394873
 21
150.7077062686253
 31
0.0
  0
ARC
  5
623
330
2
100
AcDbEntity
  8
0
100
AcDbCircle
 10
107.6328788394873
 20
155.2077062686253
 30
0.0
 40
1.5
100
AcDbArc
 50
0.0
 51
90.0
  0
LINE
  5
624
330
2
100
AcDbEntity
  8
0
100
AcDbLine
 10
112.1328788394873
 20
155.2077062686253
 30
0.0
 11
112.1328788394873
 21
150.7077062686253
 31
0.0
  0
LINE
  5
629
330
2
100
AcDbEntity
  8
0
100
AcDbLine
 10
107.6328408394873
 20
164.3572042686253
 30
0.0
 11
116.1328598394873
 21
164.3572042686253
 31
0.0
  0
LINE
  5
62B
330
2
100
AcDbEntity
  8
0
100
AcDbLine
 10
107.6328408394873
 20
174.7946042686252
 30
0.0
 11
116.1328598394873
 21
174.7946042686252
 31
0.0
  0
LINE
  5
631
330
2
100
AcDbEntity
  8
HOJO
100
AcDbLine
 10
110.6328178394873
 20
303.5102706922502
 30
0.0
 11
112.1328178394872
 21
303.0102706922503
 31
0.0
  0
LINE
  5
632
330
2
100
AcDbEntity
  8
0
100
AcDbLine
 10
107.6328178394873
 20
299.5732436922503
 30
0.0
 11
116.1328598394873
 21
299.5732436922503
 31
0.0
  0
LINE
  5
633
330
2
100
AcDbEntity
  8
HOJO
100
AcDbLine
 10
109.1328178394873
 20
302.5102706922503
 30
0.0
 11
110.6328178394873
 21
303.0102706922503
 31
0.0
  0
LINE
  5
634
330
2
100
AcDbEntity
  8
0
100
AcDbLine
 10
110.6328178394873
 20
307.5102706922502
 30
0.0
 11
110.6328178394873
 21
303.0102706922503
 31
0.0
  0
LINE
  5
635
330
2
100
AcDbEntity
  8
0
100
AcDbLine
 10
109.1328178394873
 20
307.5102706922502
 30
0.0
 11
109.1328178394873
 21
302.4946616922503
 31
0.0
  0
ARC
  5
636
330
2
100
AcDbEntity
  8
0
100
AcDbCircle
 10
107.6328178394873
 20
307.5102706922502
 30
0.0
 40
1.5
100
AcDbArc
 50
0.0
 51
90.0
  0
LINE
  5
637
330
2
100
AcDbEntity
  8
0
100
AcDbLine
 10
112.1328178394872
 20
307.5102706922502
 30
0.0
 11
112.1328178394872
 21
303.0102706922503
 31
0.0
  0
LINE
  5
638
330
2
100
AcDbEntity
  8
0
100
AcDbLine
 10
253.1328638394873
 20
146.7946042686252
 30
0.0
 11
253.1328638394873
 21
126.7946042686252
 31
0.0
  0
LINE
  5
639
330
2
100
AcDbEntity
  8
0
100
AcDbLine
 10
283.1328638394873
 20
127.7946042686252
 30
0.0
 11
283.1328638394873
 21
145.7946042686252
 31
0.0
  0
LINE
  5
63A
330
2
100
AcDbEntity
  8
0
100
AcDbLine
 10
251.1328638394873
 20
114.2946042686252
 30
0.0
 11
251.1328638394873
 21
159.2946042686252
 31
0.0
  0
LINE
  5
63B
330
2
100
AcDbEntity
  8
0
100
AcDbLine
 10
236.1328638394873
 20
172.7946042686252
 30
0.0
 11
236.1328638394873
 21
70.79459126862525
 31
0.0
  0
LINE
  5
63C
330
2
100
AcDbEntity
  8
0
100
AcDbLine
 10
246.1328638394873
 20
68.79460326862528
 30
0.0
 11
246.1328638394873
 21
174.7946042686252
 31
0.0
  0
LINE
  5
63D
330
2
100
AcDbEntity
  8
0
100
AcDbLine
 10
253.1328638394873
 20
127.7946042686252
 30
0.0
 11
283.1328638394873
 21
127.7946042686252
 31
0.0
  0
LINE
  5
63E
330
2
100
AcDbEntity
  8
HIDS
100
AcDbLine
 10
236.1328638394873
 20
73.54460326862528
 30
0.0
 11
246.1328638394873
 21
73.54460326862528
 31
0.0
  0
LINE
  5
63F
330
2
100
AcDbEntity
  8
HIDS
100
AcDbLine
 10
236.1328638394873
 20
82.04460126862528
 30
0.0
 11
246.1328638394873
 21
82.04460126862528
 31
0.0
  0
LINE
  5
640
330
2
100
AcDbEntity
  8
CENTER
100
AcDbLine
 10
231.8828638394873
 20
77.79460326862528
 30
0.0
 11
250.6328638394873
 21
77.79460326862528
 31
0.0
  0
ARC
  5
641
330
2
100
AcDbEntity
  8
0
100
AcDbCircle
 10
238.1328638394873
 20
70.79460326862528
 30
0.0
 40
2.0
100
AcDbArc
 50
180.0
 51
270.0
  0
ARC
  5
642
330
2
100
AcDbEntity
  8
0
100
AcDbCircle
 10
250.1328638394873
 20
114.2946042686252
 30
0.0
 40
1.0
100
AcDbArc
 50
270.0
 51
0.0
  0
LINE
  5
643
330
2
100
AcDbEntity
  8
0
100
AcDbLine
 10
250.1328638394873
 20
113.2946012686252
 30
0.0
 11
246.1328638394873
 21
113.2946012686252
 31
0.0
  0
LINE
  5
644
330
2
100
AcDbEntity
  8
0
100
AcDbLine
 10
251.1328638394873
 20
126.7946042686252
 30
0.0
 11
253.1328638394873
 21
126.7946042686252
 31
0.0
  0
LINE
  5
645
330
2
100
AcDbEntity
  8
0
100
AcDbLine
 10
259.1328638394873
 20
133.7946042686252
 30
0.0
 11
283.1328638394873
 21
133.7946042686252
 31
0.0
  0
LINE
  5
646
330
2
100
AcDbEntity
  8
0
100
AcDbLine
 10
259.1328638394873
 20
139.7946042686252
 30
0.0
 11
283.1328638394873
 21
139.7946042686252
 31
0.0
  0
LINE
  5
647
330
2
100
AcDbEntity
  8
0
100
AcDbLine
 10
253.1328638394873
 20
145.7946042686252
 30
0.0
 11
283.1328638394873
 21
145.7946042686252
 31
0.0
  0
LINE
  5
648
330
2
100
AcDbEntity
  8
CENTER
100
AcDbLine
 10
212.8425648394873
 20
136.7946042686252
 30
0.0
 11
292.1328638394873
 21
136.7946042686252
 31
0.0
  0
ARC
  5
649
330
2
100
AcDbEntity
  8
0
100
AcDbCircle
 10
259.1328638394873
 20
136.7946042686252
 30
0.0
 40
3.0
100
AcDbArc
 50
90.0
 51
270.0
  0
ARC
  5
64A
330
2
100
AcDbEntity
  8
0
100
AcDbCircle
 10
250.1328638394873
 20
159.2946042686252
 30
0.0
 40
1.0
100
AcDbArc
 50
0.0
 51
90.0
  0
ARC
  5
64B
330
2
100
AcDbEntity
  8
0
100
AcDbCircle
 10
250.1328638394873
 20
159.2946042686252
 30
0.0
 40
1.0
100
AcDbArc
 50
0.0
 51
90.0
  0
LINE
  5
64C
330
2
100
AcDbEntity
  8
0
100
AcDbLine
 10
250.1328638394873
 20
160.2946042686252
 30
0.0
 11
246.1328638394873
 21
160.2946042686252
 31
0.0
  0
LINE
  5
64D
330
2
100
AcDbEntity
  8
0
100
AcDbLine
 10
251.1328638394873
 20
146.7946042686252
 30
0.0
 11
253.1328638394873
 21
146.7946042686252
 31
0.0
  0
LINE
  5
64E
330
2
100
AcDbEntity
  8
HIDS
100
AcDbLine
 10
236.1328638394873
 20
161.5446042686252
 30
0.0
 11
246.1328638394873
 21
161.5446042686252
 31
0.0
  0
LINE
  5
64F
330
2
100
AcDbEntity
  8
HIDS
100
AcDbLine
 10
236.1328638394873
 20
170.0446042686252
 30
0.0
 11
246.1328638394873
 21
170.0446042686252
 31
0.0
  0
LINE
  5
650
330
2
100
AcDbEntity
  8
CENTER
100
AcDbLine
 10
232.8828638394873
 20
165.7946042686252
 30
0.0
 11
249.8828638394873
 21
165.7946042686252
 31
0.0
  0
ARC
  5
651
330
2
100
AcDbEntity
  8
0
100
AcDbCircle
 10
238.1328638394873
 20
172.7946042686252
 30
0.0
 40
2.0
100
AcDbArc
 50
90.0
 51
180.0
  0
LINE
  5
652
330
2
100
AcDbEntity
  8
HIDS
100
AcDbLine
 10
236.1328638394873
 20
304.3232436922503
 30
0.0
 11
246.1328638394873
 21
304.3232436922503
 31
0.0
  0
LINE
  5
653
330
2
100
AcDbEntity
  8
CENTER
100
AcDbLine
 10
231.8828638394873
 20
308.5732436922503
 30
0.0
 11
250.6328638394873
 21
308.5732436922503
 31
0.0
  0
ARC
  5
654
330
2
100
AcDbEntity
  8
0
100
AcDbCircle
 10
238.1328638394873
 20
301.5732436922503
 30
0.0
 40
2.0
100
AcDbArc
 50
180.0
 51
270.0
  0
LINE
  5
655
330
2
100
AcDbEntity
  8
0
100
AcDbLine
 10
116.1328598394873
 20
321.0732436922502
 30
0.0
 11
236.1328638394873
 21
321.0732436922502
 31
0.0
  0
LINE
  5
656
330
2
100
AcDbEntity
  8
0
100
AcDbLine
 10
116.1328598394873
 20
384.0732436922503
 30
0.0
 11
236.1328638394873
 21
384.0732436922503
 31
0.0
  0
LINE
  5
657
330
2
100
AcDbEntity
  8
0
100
AcDbLine
 10
116.1328598394873
 20
405.5732436922502
 30
0.0
 11
246.1328638394873
 21
405.5732436922502
 31
0.0
  0
LINE
  5
658
330
2
100
AcDbEntity
  8
CENTER
100
AcDbLine
 10
46.19864583948731
 20
352.5732436922503
 30
0.0
 11
289.2339528394873
 21
352.5732436922503
 31
0.0
  0
LINE
  5
659
330
2
100
AcDbEntity
  8
0
100
AcDbLine
 10
63.63281783948735
 20
322.0732436922502
 30
0.0
 11
107.6328178394873
 21
322.0732436922502
 31
0.0
  0
LINE
  5
65A
330
2
100
AcDbEntity
  8
0
100
AcDbLine
 10
63.63281783948735
 20
383.0732436922502
 30
0.0
 11
107.6328178394873
 21
383.0732436922502
 31
0.0
  0
LINE
  5
65B
330
2
100
AcDbEntity
  8
0
100
AcDbLine
 10
68.63281783948735
 20
407.5732436922502
 30
0.0
 11
107.6328178394873
 21
407.5732436922502
 31
0.0
  0
ARC
  5
65C
330
2
100
AcDbEntity
  8
0
100
AcDbCircle
 10
68.63281783948735
 20
397.5732436922502
 30
0.0
 40
10.0
100
AcDbArc
 50
90.0
 51
180.0
  0
LINE
  5
65D
330
2
100
AcDbEntity
  8
0
100
AcDbLine
 10
116.1328598394873
 20
377.5732436922503
 30
0.0
 11
116.1328598394873
 21
405.5732136922503
 31
0.0
  0
LINE
  5
65E
330
2
100
AcDbEntity
  8
0
100
AcDbLine
 10
116.1328598394873
 20
321.0732436922502
 30
0.0
 11
107.6328178394873
 21
321.0732436922502
 31
0.0
  0
LINE
  5
66D
330
2
100
AcDbEntity
  8
0
100
AcDbLine
 10
116.1328598394873
 20
384.0732436922503
 30
0.0
 11
107.6328178394873
 21
384.0732436922503
 31
0.0
  0
LINE
  5
66E
330
2
100
AcDbEntity
  8
0
100
AcDbLine
 10
107.6328178394873
 20
405.5732136922503
 30
0.0
 11
116.1328598394873
 21
405.5732136922503
 31
0.0
  0
LINE
  5
66F
330
2
100
AcDbEntity
  8
0
100
AcDbLine
 10
256.1328638394873
 20
344.0882436922503
 30
0.0
 11
283.1328638394873
 21
344.0882436922503
 31
0.0
  0
LINE
  5
670
330
2
100
AcDbEntity
  8
0
100
AcDbLine
 10
256.1328638394873
 20
341.0732286922502
 30
0.0
 11
283.1328638394873
 21
341.0732286922502
 31
0.0
  0
LINE
  5
671
330
2
100
AcDbEntity
  8
0
100
AcDbLine
 10
253.1328638394873
 20
361.5732436922503
 30
0.0
 11
283.1328638394873
 21
361.5732436922503
 31
0.0
  0
ARC
  5
672
330
2
100
AcDbEntity
  8
0
100
AcDbCircle
 10
250.1328638394873
 20
375.0732436922502
 30
0.0
 40
1.0
100
AcDbArc
 50
0.0
 51
90.0
  0
LINE
  5
673
330
2
100
AcDbEntity
  8
0
100
AcDbLine
 10
256.1328638394873
 20
344.0882436922503
 30
0.0
 11
256.1328638394873
 21
341.0732286922502
 31
0.0
  0
LINE
  5
674
330
2
100
AcDbEntity
  8
0
100
AcDbLine
 10
253.1328638394873
 20
362.5732436922502
 30
0.0
 11
253.1328638394873
 21
342.5732436922503
 31
0.0
  0
LINE
  5
675
330
2
100
AcDbEntity
  8
0
100
AcDbLine
 10
251.1328638394873
 20
330.0732436922503
 30
0.0
 11
251.1328638394873
 21
375.0732436922502
 31
0.0
  0
LINE
  5
676
330
2
100
AcDbEntity
  8
HIDS
100
AcDbLine
 10
236.1328638394873
 20
312.8232436922502
 30
0.0
 11
246.1328638394873
 21
312.8232436922502
 31
0.0
  0
ARC
  5
677
330
2
100
AcDbEntity
  8
0
100
AcDbCircle
 10
250.1328638394873
 20
330.0732436922503
 30
0.0
 40
1.0
100
AcDbArc
 50
270.0
 51
0.0
  0
LINE
  5
678
330
2
100
AcDbEntity
  8
0
100
AcDbLine
 10
250.1328638394873
 20
329.0732436922502
 30
0.0
 11
246.1328638394873
 21
329.0732436922502
 31
0.0
  0
LINE
  5
679
330
2
100
AcDbEntity
  8
0
100
AcDbLine
 10
251.1328638394873
 20
342.5732436922503
 30
0.0
 11
253.1328638394873
 21
342.5732436922503
 31
0.0
  0
LINE
  5
67A
330
2
100
AcDbEntity
  8
0
100
AcDbLine
 10
253.1328638394873
 20
343.5732436922502
 30
0.0
 11
256.1328638394873
 21
343.5732436922502
 31
0.0
  0
LINE
  5
67B
330
2
100
AcDbEntity
  8
0
100
AcDbLine
 10
251.1328638394873
 20
362.5732436922502
 30
0.0
 11
253.1328638394873
 21
362.5732436922502
 31
0.0
  0
LINE
  5
67C
330
2
100
AcDbEntity
  8
HIDS
100
AcDbLine
 10
236.1328638394873
 20
392.3232436922503
 30
0.0
 11
246.1328638394873
 21
392.3232436922503
 31
0.0
  0
LINE
  5
67D
330
2
100
AcDbEntity
  8
HIDS
100
AcDbLine
 10
236.1328638394873
 20
400.8232436922503
 30
0.0
 11
246.1328638394873
 21
400.8232436922503
 31
0.0
  0
LINE
  5
67E
330
2
100
AcDbEntity
  8
CENTER
100
AcDbLine
 10
232.8828638394873
 20
396.5732436922503
 30
0.0
 11
249.8828638394873
 21
396.5732436922503
 31
0.0
  0
LINE
  5
67F
330
2
100
AcDbEntity
  8
0
100
AcDbLine
 10
236.1328638394873
 20
403.5732436922502
 30
0.0
 11
236.1328638394873
 21
384.0732436922503
 31
0.0
  0
ARC
  5
680
330
2
100
AcDbEntity
  8
0
100
AcDbCircle
 10
238.1328638394873
 20
403.5732436922502
 30
0.0
 40
2.0
100
AcDbArc
 50
90.0
 51
180.0
  0
LINE
  5
681
330
2
100
AcDbEntity
  8
0
100
AcDbLine
 10
250.1328638394873
 20
376.0732436922503
 30
0.0
 11
246.1328638394873
 21
376.0732436922503
 31
0.0
  0
LINE
  5
682
330
2
100
AcDbEntity
  8
0
100
AcDbLine
 10
283.1328638394873
 20
341.0732286922502
 30
0.0
 11
283.1328638394873
 21
361.5732436922503
 31
0.0
  0
CIRCLE
  5
683
330
2
100
AcDbEntity
  8
0
100
AcDbCircle
 10
418.6328638394873
 20
136.7946042686252
 30
0.0
 40
23.5
  0
ARC
  5
684
330
2
100
AcDbEntity
  8
0
100
AcDbCircle
 10
418.6328638394873
 20
136.7946042686252
 30
0.0
 40
9.0
100
AcDbArc
 50
199.471207
 51
160.5287929999999
  0
LINE
  5
685
330
2
100
AcDbEntity
  8
0
100
AcDbLine
 10
473.6328638394873
 20
150.2234982686252
 30
0.0
 11
473.6328638394873
 21
93.36567226862531
 31
0.0
  0
LINE
  5
686
330
2
100
AcDbEntity
  8
0
100
AcDbLine
 10
363.6328638394873
 20
93.36567226862531
 30
0.0
 11
363.6328638394873
 21
150.2234982686252
 31
0.0
  0
LINE
  5
687
330
2
100
AcDbEntity
  8
0
100
AcDbLine
 10
370.6328638394873
 20
137.4869032686252
 30
0.0
 11
370.6328638394873
 21
106.1022522686253
 31
0.0
  0
LINE
  5
688
330
2
100
AcDbEntity
  8
0
100
AcDbLine
 10
466.6328638394872
 20
137.4869032686252
 30
0.0
 11
466.6328638394872
 21
106.1022332686252
 31
0.0
  0
LINE
  5
689
330
2
100
AcDbEntity
  8
0
100
AcDbLine
 10
365.6328638394873
 20
74.6330122686253
 30
0.0
 11
365.6328638394873
 21
168.9557982686253
 31
0.0
  0
LINE
  5
68A
330
2
100
AcDbEntity
  8
0
100
AcDbLine
 10
471.6328638394872
 20
74.63320326862526
 30
0.0
 11
471.6328638394872
 21
168.9560042686252
 31
0.0
  0
LINE
  5
68B
330
2
100
AcDbEntity
  8
CENTER
100
AcDbLine
 10
418.6328638394873
 20
59.80171318425016
 30
0.0
 11
418.6328638394873
 21
212.6821022686252
 31
0.0
  0
ARC
  5
68C
330
2
100
AcDbEntity
  8
0
100
AcDbCircle
 10
447.0617578394873
 20
71.79460326862528
 30
0.0
 40
5.0
100
AcDbArc
 50
270.0
 51
315.0
  0
LINE
  5
68D
330
2
100
AcDbEntity
  8
0
100
AcDbLine
 10
466.7201738394874
 20
69.63396226862528
 30
0.0
 11
418.6328638394873
 21
68.79460326862528
 31
0.0
  0
ARC
  5
68E
330
2
100
AcDbEntity
  8
0
100
AcDbCircle
 10
418.6328638394873
 20
121.7946042686252
 30
0.0
 40
50.5
100
AcDbArc
 50
198.103806
 51
341.89621
  0
LINE
  5
68F
330
2
100
AcDbEntity
  8
0
100
AcDbLine
 10
447.0617578394873
 20
66.79460326862528
 30
0.0
 11
390.2039698394874
 21
66.79460326862528
 31
0.0
  0
LINE
  5
690
330
2
100
AcDbEntity
  8
0
100
AcDbLine
 10
370.5456748394873
 20
69.63378326862528
 30
0.0
 11
418.6328638394873
 21
68.79460326862528
 31
0.0
  0
LINE
  5
691
330
2
100
AcDbEntity
  8
CENTER
100
AcDbLine
 10
368.1328638394873
 20
77.79460326862528
 30
0.0
 11
382.8828638394872
 21
77.79460326862528
 31
0.0
  0
CIRCLE
  5
692
330
2
100
AcDbEntity
  8
0
100
AcDbCircle
 10
374.6328638394873
 20
77.6328522686253
 30
0.0
 40
4.25
  0
LINE
  5
693
330
2
100
AcDbEntity
  8
CENTER
100
AcDbLine
 10
374.6328638394873
 20
70.79460326862528
 30
0.0
 11
374.6328638394873
 21
86.79460126862528
 31
0.0
  0
ARC
  5
694
330
2
100
AcDbEntity
  8
0
100
AcDbCircle
 10
370.6328638394873
 20
74.6330522686253
 30
0.0
 40
5.0
100
AcDbArc
 50
180.0
 51
269.0004879999998
  0
LINE
  5
695
330
2
100
AcDbEntity
  8
0
100
AcDbLine
 10
365.0973718394873
 20
89.83013126862529
 30
0.0
 11
365.6328638394873
 21
89.29458226862527
 31
0.0
  0
ARC
  5
696
330
2
100
AcDbEntity
  8
0
100
AcDbCircle
 10
368.6328638394873
 20
93.36570326862528
 30
0.0
 40
5.0
100
AcDbArc
 50
180.0
 51
225.0003969999999
  0
ARC
  5
697
330
2
100
AcDbEntity
  8
0
100
AcDbCircle
 10
390.2039698394874
 20
71.79460326862528
 30
0.0
 40
5.0
100
AcDbArc
 50
225.0
 51
270.0
  0
LINE
  5
698
330
2
100
AcDbEntity
  8
0
100
AcDbLine
 10
386.6684468394873
 20
68.25907226862529
 30
0.0
 11
385.5556538394873
 21
69.3718432686253
 31
0.0
  0
LINE
  5
699
330
2
100
AcDbEntity
  8
0
100
AcDbLine
 10
428.6171468394873
 20
98.26457126862528
 30
0.0
 11
430.1121728394873
 21
94.79069126862532
 31
0.0
  0
LINE
  5
69A
330
2
100
AcDbEntity
  8
0
100
AcDbLine
 10
429.5347498394874
 20
98.3512222686253
 30
0.0
 11
431.1145528394873
 21
94.79069126862532
 31
0.0
  0
ARC
  5
69B
330
2
100
AcDbEntity
  8
0
100
AcDbCircle
 10
409.3442588394873
 20
96.90739426862529
 30
0.0
 40
1.992186999999999
100
AcDbArc
 50
270.0002139999998
 51
0.0001090000001003
  0
LINE
  5
69C
330
2
100
AcDbEntity
  8
0
100
AcDbLine
 10
406.9536638394872
 20
101.1945832686252
 30
0.0
 11
406.9536638394872
 21
95.68552326862528
 31
0.0
  0
LINE
  5
69D
330
2
100
AcDbEntity
  8
0
100
AcDbLine
 10
405.8828638394873
 20
101.8751022686252
 30
0.0
 11
405.8828638394873
 21
95.0354532686253
 31
0.0
  0
LINE
  5
69E
330
2
100
AcDbEntity
  8
0
100
AcDbLine
 10
426.5766498394873
 20
98.26457126862528
 30
0.0
 11
426.5766498394873
 21
94.79069126862532
 31
0.0
  0
LINE
  5
69F
330
2
100
AcDbEntity
  8
0
100
AcDbLine
 10
425.4809468394873
 20
102.1866902686252
 30
0.0
 11
425.4809468394873
 21
94.79069126862532
 31
0.0
  0
LINE
  5
6A0
330
2
100
AcDbEntity
  8
0
100
AcDbLine
 10
419.2056478394873
 20
102.1866902686252
 30
0.0
 11
419.2056478394873
 21
94.84050326862529
 31
0.0
  0
LINE
  5
6A1
330
2
100
AcDbEntity
  8
0
100
AcDbLine
 10
418.0102748394873
 20
102.1866902686252
 30
0.0
 11
418.0102748394873
 21
94.84050326862529
 31
0.0
  0
LINE
  5
6A2
330
2
100
AcDbEntity
  8
0
100
AcDbLine
 10
412.2578638394872
 20
99.3478232686253
 30
0.0
 11
412.2578638394872
 21
93.79460126862529
 31
0.0
  0
LINE
  5
6A3
330
2
100
AcDbEntity
  8
0
100
AcDbLine
 10
405.8828638394873
 20
95.0354532686253
 30
0.0
 11
407.1126608394872
 21
93.79460126862529
 31
0.0
  0
LINE
  5
6A4
330
2
100
AcDbEntity
  8
0
100
AcDbLine
 10
407.1126608394872
 20
93.79460126862529
 30
0.0
 11
410.4278468394872
 21
93.79460126862529
 31
0.0
  0
LINE
  5
6A5
330
2
100
AcDbEntity
  8
0
100
AcDbLine
 10
411.3364458394873
 20
94.55686126862531
 30
0.0
 11
410.4278468394872
 21
93.79460126862529
 31
0.0
  0
LINE
  5
6A6
330
2
100
AcDbEntity
  8
0
100
AcDbLine
 10
411.3364458394873
 20
93.79460126862529
 30
0.0
 11
412.2578638394872
 21
93.79460126862529
 31
0.0
  0
LINE
  5
6A7
330
2
100
AcDbEntity
  8
0
100
AcDbLine
 10
411.3364458394873
 20
94.55686126862531
 30
0.0
 11
411.3364458394873
 21
93.79460126862529
 31
0.0
  0
LINE
  5
6A8
330
2
100
AcDbEntity
  8
0
100
AcDbLine
 10
409.3442588394873
 20
94.91521426862528
 30
0.0
 11
407.6849568394873
 21
94.91521426862528
 31
0.0
  0
LINE
  5
6A9
330
2
100
AcDbEntity
  8
0
100
AcDbLine
 10
406.9536638394872
 20
95.68552326862528
 30
0.0
 11
407.6849568394873
 21
94.91521426862528
 31
0.0
  0
LINE
  5
6AA
330
2
100
AcDbEntity
  8
0
100
AcDbLine
 10
417.5371608394873
 20
93.79460126862529
 30
0.0
 11
419.6040548394874
 21
93.79460126862529
 31
0.0
  0
LINE
  5
6AB
330
2
100
AcDbEntity
  8
0
100
AcDbLine
 10
417.5371608394873
 20
94.84050326862529
 30
0.0
 11
418.0102748394873
 21
94.84050326862529
 31
0.0
  0
LINE
  5
6AC
330
2
100
AcDbEntity
  8
0
100
AcDbLine
 10
417.5371608394873
 20
94.84050326862529
 30
0.0
 11
417.5371608394873
 21
93.79460126862529
 31
0.0
  0
LINE
  5
6AD
330
2
100
AcDbEntity
  8
0
100
AcDbLine
 10
419.6040548394874
 20
94.84050326862529
 30
0.0
 11
419.6040548394874
 21
93.79460126862529
 31
0.0
  0
LINE
  5
6AE
330
2
100
AcDbEntity
  8
0
100
AcDbLine
 10
419.2056478394873
 20
94.84050326862529
 30
0.0
 11
419.6040548394874
 21
94.84050326862529
 31
0.0
  0
LINE
  5
6AF
330
2
100
AcDbEntity
  8
0
100
AcDbLine
 10
429.9136558394873
 20
93.79460126862529
 30
0.0
 11
431.3828638394872
 21
93.79460126862529
 31
0.0
  0
LINE
  5
6B0
330
2
100
AcDbEntity
  8
0
100
AcDbLine
 10
429.9136558394873
 20
94.79069126862532
 30
0.0
 11
430.1121728394873
 21
94.79069126862532
 31
0.0
  0
LINE
  5
6B1
330
2
100
AcDbEntity
  8
0
100
AcDbLine
 10
425.0078638394873
 20
94.79069126862532
 30
0.0
 11
425.0078638394873
 21
93.79460126862529
 31
0.0
  0
LINE
  5
6B2
330
2
100
AcDbEntity
  8
0
100
AcDbLine
 10
427.0124718394874
 20
94.79069126862532
 30
0.0
 11
427.0124718394874
 21
93.79460126862529
 31
0.0
  0
LINE
  5
6B3
330
2
100
AcDbEntity
  8
0
100
AcDbLine
 10
429.9136558394873
 20
94.79069126862532
 30
0.0
 11
429.9136558394873
 21
93.79460126862529
 31
0.0
  0
LINE
  5
6B4
330
2
100
AcDbEntity
  8
0
100
AcDbLine
 10
427.0124718394874
 20
93.79460126862529
 30
0.0
 11
425.0078638394873
 21
93.79460126862529
 31
0.0
  0
LINE
  5
6B5
330
2
100
AcDbEntity
  8
0
100
AcDbLine
 10
426.5766498394873
 20
94.79069126862532
 30
0.0
 11
427.0124718394874
 21
94.79069126862532
 31
0.0
  0
LINE
  5
6B6
330
2
100
AcDbEntity
  8
0
100
AcDbLine
 10
425.0078638394873
 20
94.79069126862532
 30
0.0
 11
425.4809468394873
 21
94.79069126862532
 31
0.0
  0
LINE
  5
6B7
330
2
100
AcDbEntity
  8
0
100
AcDbLine
 10
431.3828638394872
 20
94.79069126862532
 30
0.0
 11
431.3828638394872
 21
93.79460126862529
 31
0.0
  0
LINE
  5
6B8
330
2
100
AcDbEntity
  8
0
100
AcDbLine
 10
431.1145528394873
 20
94.79069126862532
 30
0.0
 11
431.3828638394872
 21
94.79069126862532
 31
0.0
  0
LINE
  5
6B9
330
2
100
AcDbEntity
  8
0
100
AcDbLine
 10
407.0402728394872
 20
103.3571012686252
 30
0.0
 11
405.8828638394873
 21
101.8751022686252
 31
0.0
  0
LINE
  5
6BA
330
2
100
AcDbEntity
  8
0
100
AcDbLine
 10
409.6680498394873
 20
99.3478232686253
 30
0.0
 11
412.2578638394872
 21
99.3478232686253
 31
0.0
  0
LINE
  5
6BB
330
2
100
AcDbEntity
  8
0
100
AcDbLine
 10
411.3364458394873
 20
101.5156432686252
 30
0.0
 11
411.3364458394873
 21
101.3649132686252
 31
0.0
  0
LINE
  5
6BC
330
2
100
AcDbEntity
  8
0
100
AcDbLine
 10
409.6680498394873
 20
99.3478232686253
 30
0.0
 11
409.6680498394873
 21
98.30192126862527
 31
0.0
  0
LINE
  5
6BD
330
2
100
AcDbEntity
  8
0
100
AcDbLine
 10
411.3364458394873
 20
98.30192126862527
 30
0.0
 11
411.3364458394873
 21
96.90739426862529
 31
0.0
  0
LINE
  5
6BE
330
2
100
AcDbEntity
  8
0
100
AcDbLine
 10
412.2578638394872
 20
102.3239622686252
 30
0.0
 11
412.2578638394872
 21
101.3649132686252
 31
0.0
  0
LINE
  5
6BF
330
2
100
AcDbEntity
  8
0
100
AcDbLine
 10
411.3364458394873
 20
97.3058312686253
 30
0.0
 11
411.3364458394873
 21
98.10271426862527
 31
0.0
  0
LINE
  5
6C0
330
2
100
AcDbEntity
  8
0
100
AcDbLine
 10
411.3364458394873
 20
98.30192126862527
 30
0.0
 11
409.6680498394873
 21
98.30192126862527
 31
0.0
  0
LINE
  5
6C1
330
2
100
AcDbEntity
  8
0
100
AcDbLine
 10
407.0402728394872
 20
103.3571012686252
 30
0.0
 11
411.3268638394873
 21
103.3571012686252
 31
0.0
  0
LINE
  5
6C2
330
2
100
AcDbEntity
  8
0
100
AcDbLine
 10
411.3364458394873
 20
101.3649132686252
 30
0.0
 11
412.2578638394872
 21
101.3649132686252
 31
0.0
  0
LINE
  5
6C3
330
2
100
AcDbEntity
  8
0
100
AcDbLine
 10
411.3268638394873
 20
103.3571012686252
 30
0.0
 11
412.2578638394872
 21
102.3239622686252
 31
0.0
  0
LINE
  5
6C4
330
2
100
AcDbEntity
  8
0
100
AcDbLine
 10
411.3364458394873
 20
101.5156432686252
 30
0.0
 11
410.7332658394873
 21
102.0870812686252
 31
0.0
  0
LINE
  5
6C5
330
2
100
AcDbEntity
  8
0
100
AcDbLine
 10
407.6734518394873
 20
102.0870812686252
 30
0.0
 11
406.9536638394872
 21
101.1945832686252
 31
0.0
  0
LINE
  5
6C6
330
2
100
AcDbEntity
  8
0
100
AcDbLine
 10
410.7453508394874
 20
102.0870812686252
 30
0.0
 11
407.6734518394873
 21
102.0870812686252
 31
0.0
  0
LINE
  5
6C7
330
2
100
AcDbEntity
  8
0
100
AcDbLine
 10
415.4453638394873
 20
103.3571012686252
 30
0.0
 11
421.8203638394872
 21
103.3571012686252
 31
0.0
  0
LINE
  5
6C8
330
2
100
AcDbEntity
  8
0
100
AcDbLine
 10
418.0102748394873
 20
102.1866902686252
 30
0.0
 11
416.4953508394874
 21
102.1866902686252
 31
0.0
  0
LINE
  5
6C9
330
2
100
AcDbEntity
  8
0
100
AcDbLine
 10
416.4953508394874
 20
102.1866902686252
 30
0.0
 11
416.1529748394873
 21
101.3649132686252
 31
0.0
  0
LINE
  5
6CA
330
2
100
AcDbEntity
  8
0
100
AcDbLine
 10
415.4453638394873
 20
101.3649132686252
 30
0.0
 11
416.1529748394873
 21
101.3649132686252
 31
0.0
  0
LINE
  5
6CB
330
2
100
AcDbEntity
  8
0
100
AcDbLine
 10
415.4453638394873
 20
101.3649132686252
 30
0.0
 11
415.4453638394873
 21
103.3571012686252
 31
0.0
  0
LINE
  5
6CC
330
2
100
AcDbEntity
  8
0
100
AcDbLine
 10
419.2056478394873
 20
102.1866902686252
 30
0.0
 11
420.8666588394874
 21
102.1866902686252
 31
0.0
  0
LINE
  5
6CD
330
2
100
AcDbEntity
  8
0
100
AcDbLine
 10
420.8666588394874
 20
102.1866902686252
 30
0.0
 11
421.1554468394873
 21
101.3649132686252
 31
0.0
  0
LINE
  5
6CE
330
2
100
AcDbEntity
  8
0
100
AcDbLine
 10
421.1554468394873
 20
101.3649132686252
 30
0.0
 11
421.8203638394872
 21
101.3649132686252
 31
0.0
  0
LINE
  5
6CF
330
2
100
AcDbEntity
  8
0
100
AcDbLine
 10
421.8203638394872
 20
101.3649132686252
 30
0.0
 11
421.8203638394872
 21
103.3571012686252
 31
0.0
  0
ARC
  5
6D0
330
2
100
AcDbEntity
  8
0
100
AcDbCircle
 10
428.8303728394874
 20
100.8046102686253
 30
0.0
 40
1.557193
100
AcDbArc
 50
277.4147259999999
 51
62.41185000000005
  0
ARC
  5
6D1
330
2
100
AcDbEntity
  8
0
100
AcDbCircle
 10
428.8303728394874
 20
100.8046102686253
 30
0.0
 40
2.55249
100
AcDbArc
 50
286.0181269999999
 51
90.00350999999984
  0
LINE
  5
6D2
330
2
100
AcDbEntity
  8
0
100
AcDbLine
 10
426.5766498394873
 20
98.26457126862528
 30
0.0
 11
428.6171468394873
 21
98.26457126862528
 31
0.0
  0
LINE
  5
6D3
330
2
100
AcDbEntity
  8
0
100
AcDbLine
 10
426.5766498394873
 20
99.2604442686253
 30
0.0
 11
429.0313618394873
 21
99.2604442686253
 31
0.0
  0
LINE
  5
6D4
330
2
100
AcDbEntity
  8
0
100
AcDbLine
 10
426.5766498394873
 20
102.1866902686252
 30
0.0
 11
429.5515648394873
 21
102.1847532686252
 31
0.0
  0
LINE
  5
6D5
330
2
100
AcDbEntity
  8
0
100
AcDbLine
 10
425.0078638394873
 20
102.1866902686252
 30
0.0
 11
425.4809468394873
 21
102.1866902686252
 31
0.0
  0
LINE
  5
6D6
330
2
100
AcDbEntity
  8
0
100
AcDbLine
 10
426.5766498394873
 20
102.1866902686252
 30
0.0
 11
426.5766498394873
 21
99.2604442686253
 31
0.0
  0
LINE
  5
6D7
330
2
100
AcDbEntity
  8
0
100
AcDbLine
 10
425.0078638394873
 20
103.3571012686252
 30
0.0
 11
425.0078638394873
 21
102.1866902686252
 31
0.0
  0
LINE
  5
6D8
330
2
100
AcDbEntity
  8
0
100
AcDbLine
 10
425.0078638394873
 20
103.3571012686252
 30
0.0
 11
428.8303728394874
 21
103.3571012686252
 31
0.0
  0
ARC
  5
6D9
330
2
100
AcDbEntity
  8
0
100
AcDbCircle
 10
466.6328638394872
 20
74.63319126862529
 30
0.0
 40
5.0
100
AcDbArc
 50
271.0001829999998
 51
0.0
  0
LINE
  5
6DA
330
2
100
AcDbEntity
  8
CENTER
100
AcDbLine
 10
462.6328638394872
 20
71.29460326862528
 30
0.0
 11
462.6328638394872
 21
86.54460126862529
 31
0.0
  0
CIRCLE
  5
6DB
330
2
100
AcDbEntity
  8
0
100
AcDbCircle
 10
462.6964618394874
 20
77.79460326862528
 30
0.0
 40
4.25
  0
LINE
  5
6DC
330
2
100
AcDbEntity
  8
CENTER
100
AcDbLine
 10
470.1328638394873
 20
77.79460326862528
 30
0.0
 11
453.3828638394872
 21
77.79460326862528
 31
0.0
  0
LINE
  5
6DD
330
2
100
AcDbEntity
  8
0
100
AcDbLine
 10
450.5972498394874
 20
68.25906326862526
 30
0.0
 11
451.7102558394873
 21
69.37196326862528
 31
0.0
  0
LINE
  5
6DE
330
2
100
AcDbEntity
  8
0
100
AcDbLine
 10
472.1683558394873
 20
89.83013126862529
 30
0.0
 11
471.6328638394872
 21
89.29460126862528
 31
0.0
  0
ARC
  5
6DF
330
2
100
AcDbEntity
  8
0
100
AcDbCircle
 10
468.6328638394873
 20
93.36566126862527
 30
0.0
 40
5.0
100
AcDbArc
 50
315.0001179999999
 51
0.0
  0
ARC
  5
6E0
330
2
100
AcDbEntity
  8
0
100
AcDbCircle
 10
447.0618488394872
 20
171.7946042686252
 30
0.0
 40
5.0
100
AcDbArc
 50
45.00015999999997
 51
90.0
  0
ARC
  5
6E1
330
2
100
AcDbEntity
  8
0
100
AcDbCircle
 10
418.6328638394873
 20
121.7946042686252
 30
0.0
 40
50.5
100
AcDbArc
 50
18.10380000000001
 51
161.8961939999999
  0
LINE
  5
6E2
330
2
100
AcDbEntity
  8
0
100
AcDbLine
 10
466.7200518394873
 20
173.9552032686252
 30
0.0
 11
418.6328638394873
 21
174.7946042686252
 31
0.0
  0
LINE
  5
6E3
330
2
100
AcDbEntity
  8
0
100
AcDbLine
 10
447.0617578394873
 20
176.7946042686252
 30
0.0
 11
442.1328488394872
 21
176.7946042686252
 31
0.0
  0
LINE
  5
6E4
330
2
100
AcDbEntity
  8
CENTER
100
AcDbLine
 10
390.3828638394873
 20
136.7946042686252
 30
0.0
 11
446.8828638394873
 21
136.7946042686252
 31
0.0
  0
LINE
  5
6E5
330
2
100
AcDbEntity
  8
0
100
AcDbLine
 10
370.5455528394872
 20
173.9551042686253
 30
0.0
 11
418.6328638394873
 21
174.7946042686252
 31
0.0
  0
LINE
  5
6E6
330
2
100
AcDbEntity
  8
CENTER
100
AcDbLine
 10
374.6328638394873
 20
173.2946042686252
 30
0.0
 11
374.6328638394873
 21
157.2946042686252
 31
0.0
  0
ARC
  5
6E7
330
2
100
AcDbEntity
  8
0
100
AcDbCircle
 10
368.6328638394873
 20
150.2236052686253
 30
0.0
 40
5.0
100
AcDbArc
 50
135.0003049999999
 51
180.0
  0
LINE
  5
6E8
330
2
100
AcDbEntity
  8
0
100
AcDbLine
 10
365.0973718394873
 20
153.7591052686252
 30
0.0
 11
365.6328638394873
 21
154.2946042686252
 31
0.0
  0
LINE
  5
6E9
330
2
100
AcDbEntity
  8
CENTER
100
AcDbLine
 10
366.6328638394872
 20
165.7946042686252
 30
0.0
 11
382.3828638394873
 21
165.7946042686252
 31
0.0
  0
CIRCLE
  5
6EA
330
2
100
AcDbEntity
  8
0
100
AcDbCircle
 10
374.6328638394873
 20
165.9557982686252
 30
0.0
 40
4.25
  0
ARC
  5
6EB
330
2
100
AcDbEntity
  8
0
100
AcDbCircle
 10
370.6328638394873
 20
168.9559052686253
 30
0.0
 40
5.0
100
AcDbArc
 50
91.00061000000012
 51
180.0
  0
ARC
  5
6EC
330
2
100
AcDbEntity
  8
0
100
AcDbCircle
 10
390.2039698394874
 20
171.7946042686252
 30
0.0
 40
5.0
100
AcDbArc
 50
90.0
 51
135.000198
  0
LINE
  5
6ED
330
2
100
AcDbEntity
  8
0
100
AcDbLine
 10
386.6684468394873
 20
175.3301042686253
 30
0.0
 11
385.5553488394873
 21
174.2171052686252
 31
0.0
  0
LINE
  5
6EE
330
2
100
AcDbEntity
  8
0
100
AcDbLine
 10
407.1328638394873
 20
133.7946042686252
 30
0.0
 11
413.1328638394872
 21
133.7946042686252
 31
0.0
  0
LINE
  5
6EF
330
2
100
AcDbEntity
  8
0
100
AcDbLine
 10
407.1328638394873
 20
139.7946042686252
 30
0.0
 11
413.1328638394872
 21
139.7946042686252
 31
0.0
  0
LINE
  5
6F0
330
2
100
AcDbEntity
  8
0
100
AcDbLine
 10
407.1328638394873
 20
139.7946042686252
 30
0.0
 11
407.1328638394873
 21
133.7946042686252
 31
0.0
  0
LINE
  5
6F1
330
2
100
AcDbEntity
  8
0
100
AcDbLine
 10
413.1328638394872
 20
139.7946042686252
 30
0.0
 11
413.1328638394872
 21
133.7946042686252
 31
0.0
  0
LINE
  5
6F2
330
2
100
AcDbEntity
  8
CENTER
100
AcDbLine
 10
462.6328638394872
 20
173.2946042686252
 30
0.0
 11
462.6328638394872
 21
155.5446042686252
 31
0.0
  0
ARC
  5
6F3
330
2
100
AcDbEntity
  8
0
100
AcDbCircle
 10
468.6328638394873
 20
150.2234982686252
 30
0.0
 40
5.0
100
AcDbArc
 50
0.0
 51
45.00015999999997
  0
LINE
  5
6F4
330
2
100
AcDbEntity
  8
0
100
AcDbLine
 10
472.1683558394873
 20
153.7591052686252
 30
0.0
 11
471.6328638394872
 21
154.2946042686252
 31
0.0
  0
ARC
  5
6F5
330
2
100
AcDbEntity
  8
0
100
AcDbCircle
 10
466.6328638394872
 20
168.9560042686252
 30
0.0
 40
5.0
100
AcDbArc
 50
0.0
 51
89.00013699999986
  0
LINE
  5
6F6
330
2
100
AcDbEntity
  8
CENTER
100
AcDbLine
 10
470.3828638394873
 20
165.7946042686252
 30
0.0
 11
453.3828638394872
 21
165.7946042686252
 31
0.0
  0
CIRCLE
  5
6F7
330
2
100
AcDbEntity
  8
0
100
AcDbCircle
 10
462.6328638394872
 20
165.9560042686252
 30
0.0
 40
4.25
  0
LINE
  5
6F8
330
2
100
AcDbEntity
  8
0
100
AcDbLine
 10
450.5973718394873
 20
175.3301042686253
 30
0.0
 11
451.7102558394873
 21
174.2172042686252
 31
0.0
  0
TEXT
  5
6F9
330
2
100
AcDbEntity
  8
TITLE
100
AcDbText
 10
439.9005878692772
 20
339.8914878460847
 30
0.0
 40
5.0
  1
GFMN-18-80~240-S60WT
100
AcDbText
  0
TEXT
  5
6FA
330
2
100
AcDbEntity
  8
TITLE
100
AcDbText
 10
325.1130856029358
 20
339.9100298435133
 30
0.0
 40
5.0
  1
GFMN-18-80~240-T60WT
100
AcDbText
  0
TEXT
  5
6FB
330
2
100
AcDbEntity
  8
TITLE
100
AcDbText
 10
439.9036397274831
 20
356.5000949133726
 30
0.0
 40
5.0
  1
GFMN-18-160~240-S40WT
100
AcDbText
  0
TEXT
  5
6FC
330
2
100
AcDbEntity
  8
TITLE
100
AcDbText
 10
325.1130856029358
 20
356.4725383510868
 30
0.0
 40
5.0
  1
GFMN-18-160~240-T40WT
100
AcDbText
  0
TEXT
  5
6FD
330
2
100
AcDbEntity
  8
TITLE
100
AcDbText
 10
439.9451766339222
 20
322.9261763942202
 30
0.0
 40
5.0
  1
GFMN-18-40~240-S90WT
100
AcDbText
  0
TEXT
  5
6FE
330
2
100
AcDbEntity
  8
TITLE
100
AcDbText
 10
325.2717398577794
 20
323.4069817778455
 30
0.0
 40
5.0
  1
GFMN-18-40~240-T90WT
100
AcDbText
  0
LINE
  5
15A5
330
2
100
AcDbEntity
  8
0
100
AcDbLine
 10
395.6328638394873
 20
176.2946042686252
 30
0.0
 11
441.6328488394873
 21
176.2946042686252
 31
0.0
  0
LINE
  5
15A6
330
2
100
AcDbEntity
  8
0
100
AcDbLine
 10
393.6328638394872
 20
188.2946042686252
 30
0.0
 11
443.6328488394873
 21
188.2946042686252
 31
0.0
  0
LINE
  5
15A7
330
2
100
AcDbEntity
  8
0
100
AcDbLine
 10
393.6328638394872
 20
178.2946042686252
 30
0.0
 11
443.6328488394873
 21
178.2946042686252
 31
0.0
  0
LINE
  5
15A8
330
2
100
AcDbEntity
  8
0
100
AcDbLine
 10
394.6328638394873
 20
207.2946022686252
 30
0.0
 11
438.7949550234611
 21
207.2946022686252
 31
0.0
  0
LINE
  5
15A9
330
2
100
AcDbEntity
  8
0
100
AcDbLine
 10
393.6328638394872
 20
206.2946022686253
 30
0.0
 11
436.1328488394873
 21
206.2946022686253
 31
0.0
  0
LINE
  5
15AB
330
2
100
AcDbEntity
  8
CENTER
100
AcDbLine
 10
388.5892568582787
 20
197.7946022686252
 30
0.0
 11
448.6764708206958
 21
197.7946022686252
 31
0.0
  0
LINE
  5
15AD
330
2
100
AcDbEntity
  8
0
100
AcDbLine
 10
111.9707686555128
 20
207.2946022686252
 30
0.0
 11
156.1328598394872
 21
207.2946022686252
 31
0.0
  0
LINE
  5
15AE
330
2
100
AcDbEntity
  8
0
100
AcDbLine
 10
108.6328528394873
 20
176.2946042686252
 30
0.0
 11
155.1328598394873
 21
176.2946042686252
 31
0.0
  0
LINE
  5
15AF
330
2
100
AcDbEntity
  8
0
100
AcDbLine
 10
105.1328528394873
 20
188.2946042686252
 30
0.0
 11
157.1328598394873
 21
188.2946042686252
 31
0.0
  0
LINE
  5
15B0
330
2
100
AcDbEntity
  8
0
100
AcDbLine
 10
107.1328528394873
 20
178.2946042686252
 30
0.0
 11
157.1328598394873
 21
178.2946042686252
 31
0.0
  0
LINE
  5
15B1
330
2
100
AcDbEntity
  8
0
100
AcDbLine
 10
114.6328532680582
 20
206.2946022686253
 30
0.0
 11
157.1328668394874
 21
206.2946022686253
 31
0.0
  0
LINE
  5
15B2
330
2
100
AcDbEntity
  8
CENTER
100
AcDbLine
 10
99.1891038394873
 20
197.7946022686252
 30
0.0
 11
161.0851628032254
 21
197.7946022686252
 31
0.0
  0
LINE
  5
15B6
330
2
100
AcDbEntity
  8
CENTER
100
AcDbLine
 10
132.1328598394873
 20
171.6009032686252
 30
0.0
 11
132.1328598394873
 21
212.6821022686252
 31
0.0
  0
LINE
  5
15B7
330
2
100
AcDbEntity
  8
0
100
AcDbLine
 10
101.6328678394872
 20
201.7946022686252
 30
0.0
 11
105.1328678394872
 21
203.2946022686252
 31
0.0
  0
LINE
  5
15B8
330
2
100
AcDbEntity
  8
0
100
AcDbLine
 10
107.1328528394873
 20
206.2946022686253
 30
0.0
 11
107.1328528394873
 21
178.2946042686252
 31
0.0
  0
LINE
  5
15B9
330
2
100
AcDbEntity
  8
0
100
AcDbLine
 10
105.1328678394872
 20
204.2946022686253
 30
0.0
 11
105.1328528394873
 21
188.2946042686252
 31
0.0
  0
LINE
  5
15BA
330
2
100
AcDbEntity
  8
0
100
AcDbLine
 10
107.1328528394873
 20
178.2946042686252
 30
0.0
 11
109.1328528394873
 21
176.2946042686252
 31
0.0
  0
LINE
  5
15BB
330
2
100
AcDbEntity
  8
0
100
AcDbLine
 10
108.6328528394873
 20
176.2946042686252
 30
0.0
 11
108.6328528394873
 21
174.7946042686252
 31
0.0
  0
LINE
  5
15BC
330
2
100
AcDbEntity
  8
0
100
AcDbLine
 10
101.6328528394873
 20
193.7946022686252
 30
0.0
 11
105.1328528394873
 21
192.2946022686252
 31
0.0
  0
LINE
  5
15BD
330
2
100
AcDbEntity
  8
0
100
AcDbLine
 10
101.6328678394872
 20
201.7946022686252
 30
0.0
 11
101.6328678394872
 21
193.7946022686252
 31
0.0
  0
ARC
  5
15BE
330
2
100
AcDbEntity
  8
0
100
AcDbCircle
 10
112.7398705930802
 20
205.8007149928715
 30
0.0
 40
1.3
100
AcDbArc
 50
5.000000000000026
 51
74.11914999172198
  0
LINE
  5
15BF
330
2
100
AcDbEntity
  8
0
100
AcDbLine
 10
114.6328532680582
 20
206.7946022686251
 30
0.0
 11
113.5778372291075
 21
206.7946022686251
 31
0.0
  0
LINE
  5
15C0
330
2
100
AcDbEntity
  8
0
100
AcDbLine
 10
114.6328532680582
 20
204.7946022686251
 30
0.0
 11
107.1328532680582
 21
204.7946022686252
 31
0.0
  0
ARC
  5
15C1
330
2
100
AcDbEntity
  8
0
100
AcDbCircle
 10
110.6328598394874
 20
198.3946022686252
 30
0.0
 40
9.0
100
AcDbArc
 50
74.11914999172198
 51
105.880850008278
  0
SPLINE
  5
15C2
330
2
100
AcDbEntity
  8
0
100
AcDbSpline
210
0.0
220
0.0
230
1.0
 70
     8
 71
     3
 72
    11
 73
     7
 74
     0
 42
0.0000000001
 43
0.0000000001
 40
0.0
 40
0.0
 40
0.0
 40
0.0
 40
0.4601364636755307
 40
1.04988694485363
 40
1.713742833862792
 40
2.320347933405154
 40
2.320347933405154
 40
2.320347933405154
 40
2.320347933405179
 10
110.3453598390324
 20
205.8776022686251
 30
0.0
 10
110.3229421819245
 20
206.032625708305
 30
0.0
 10
110.2717921266912
 20
206.3863405262226
 30
0.0
 10
109.8359069651576
 20
206.8110681978242
 30
0.0
 10
109.2308562501502
 20
207.0302553777901
 30
0.0
 10
108.8056716259743
 20
206.9612640781794
 30
0.0
 10
108.6031200163233
 20
206.9470438060028
 30
0.0
  0
LINE
  5
15C3
330
2
100
AcDbEntity
  8
0
100
AcDbLine
 10
108.6031200163233
 20
206.9470438060028
 30
0.0
 11
108.5828598394873
 21
207.1580205514643
 31
0.0
  0
LINE
  5
15C4
330
2
100
AcDbEntity
  8
0
100
AcDbLine
 10
107.1328598394874
 20
204.7946022686252
 30
0.0
 11
107.2307959783752
 21
205.9140174584434
 31
0.0
  0
ARC
  5
15C5
330
2
100
AcDbEntity
  8
0
100
AcDbCircle
 10
108.5258490858943
 20
205.8007149928715
 30
0.0
 40
1.3
100
AcDbArc
 50
105.880850008278
 51
174.9999999999999
  0
LINE
  5
15C6
330
2
100
AcDbEntity
  8
0
100
AcDbLine
 10
108.1328532680582
 20
207.2946022686251
 30
0.0
 11
107.1328528394873
 21
206.2946022686253
 31
0.0
  0
LINE
  5
15C7
330
2
100
AcDbEntity
  8
0
100
AcDbLine
 10
107.1328528394873
 20
206.2946022686253
 30
0.0
 11
108.1328528394873
 21
207.2946022686252
 31
0.0
  0
LINE
  5
15C8
330
2
100
AcDbEntity
  8
0
100
AcDbLine
 10
106.1328528394873
 20
205.2946022686252
 30
0.0
 11
107.1328528394873
 21
205.2946022686252
 31
0.0
  0
ARC
  5
15C9
330
2
100
AcDbEntity
  8
0
100
AcDbCircle
 10
106.1328678394872
 20
204.2946022686253
 30
0.0
 40
1.0
100
AcDbArc
 50
90.0
 51
180.0
  0
LINE
  5
15CA
330
2
100
AcDbEntity
  8
0
100
AcDbLine
 10
108.1328528394873
 20
207.2946022686252
 30
0.0
 11
109.2949510234619
 21
207.2946022686252
 31
0.0
  0
LINE
  5
15CB
330
2
100
AcDbEntity
  8
0
100
AcDbLine
 10
114.1328598394873
 20
204.7946022686252
 30
0.0
 11
114.0349237005995
 21
205.9140174584434
 31
0.0
  0
LINE
  5
15CC
330
2
100
AcDbEntity
  8
0
100
AcDbLine
 10
112.6625996626514
 20
206.9470438060028
 30
0.0
 11
112.6828598394874
 21
207.1580205514643
 31
0.0
  0
LINE
  5
15CD
330
2
100
AcDbEntity
  8
0
100
AcDbLine
 10
110.9203598399424
 20
205.8776022686251
 30
0.0
 11
110.3453598390324
 21
205.8776022686251
 31
0.0
  0
SPLINE
  5
15CE
330
2
100
AcDbEntity
  8
0
100
AcDbSpline
210
0.0
220
0.0
230
1.0
 70
     8
 71
     3
 72
    11
 73
     7
 74
     0
 42
0.0000000001
 43
0.0000000001
 40
0.0
 40
0.0
 40
0.0
 40
0.0
 40
0.4601364636755307
 40
1.04988694485363
 40
1.713742833862792
 40
2.320347933405154
 40
2.320347933405154
 40
2.320347933405154
 40
2.320347933405179
 10
110.9203598399424
 20
205.8776022686251
 30
0.0
 10
110.9427774970503
 20
206.032625708305
 30
0.0
 10
110.9939275522835
 20
206.3863405262226
 30
0.0
 10
111.4298127138172
 20
206.8110681978242
 30
0.0
 10
112.0348634288245
 20
207.0302553777901
 30
0.0
 10
112.4600480530004
 20
206.9612640781794
 30
0.0
 10
112.6625996626514
 20
206.9470438060028
 30
0.0
  0
LINE
  5
15CF
330
2
100
AcDbEntity
  8
0
100
AcDbLine
 10
115.1328532680582
 20
207.2946022686251
 30
0.0
 11
114.6328532680582
 21
206.7946022686251
 31
0.0
  0
LINE
  5
15D0
330
2
100
AcDbEntity
  8
0
100
AcDbLine
 10
114.6328532680582
 20
204.7946022686251
 30
0.0
 11
114.6328532680582
 21
206.7946022686252
 31
0.0
  0
LINE
  5
15D2
330
2
100
AcDbEntity
  8
0
100
AcDbLine
 10
157.1328598394873
 20
206.2946022686253
 30
0.0
 11
157.1328598394873
 21
178.2946042686252
 31
0.0
  0
LINE
  5
15D3
330
2
100
AcDbEntity
  8
0
100
AcDbLine
 10
155.1328598394873
 20
176.2946042686252
 30
0.0
 11
157.1328598394873
 21
178.2946042686252
 31
0.0
  0
LINE
  5
15D4
330
2
100
AcDbEntity
  8
0
100
AcDbLine
 10
154.6328598394873
 20
176.2946042686252
 30
0.0
 11
154.6328598394873
 21
174.7946042686252
 31
0.0
  0
LINE
  5
15D5
330
2
100
AcDbEntity
  8
0
100
AcDbLine
 10
156.1328668394874
 20
207.2946022686252
 30
0.0
 11
157.1328668394874
 21
206.2946022686253
 31
0.0
  0
LINE
  5
15D6
330
2
100
AcDbEntity
  8
0
100
AcDbLine
 10
393.6328638394872
 20
206.2946022686253
 30
0.0
 11
393.6328638394872
 21
178.2946042686252
 31
0.0
  0
LINE
  5
15D7
330
2
100
AcDbEntity
  8
0
100
AcDbLine
 10
393.6328638394872
 20
178.2946042686252
 30
0.0
 11
395.6328638394873
 21
176.2946042686252
 31
0.0
  0
LINE
  5
15D8
330
2
100
AcDbEntity
  8
0
100
AcDbLine
 10
396.1328638394872
 20
176.2946042686252
 30
0.0
 11
396.1328638394872
 21
174.4018031406936
 31
0.0
  0
LINE
  5
15D9
330
2
100
AcDbEntity
  8
0
100
AcDbLine
 10
394.6328638394873
 20
207.2946022686252
 30
0.0
 11
393.6328638394872
 21
206.2946022686253
 31
0.0
  0
LINE
  5
15DA
330
2
100
AcDbEntity
  8
0
100
AcDbLine
 10
154.7329578394873
 20
328.9732376922502
 30
0.0
 11
114.6328528394873
 21
328.9732376922502
 31
0.0
  0
LINE
  5
15DB
330
2
100
AcDbEntity
  8
0
100
AcDbLine
 10
109.1328528394873
 20
327.5732436922503
 30
0.0
 11
155.1327528394872
 21
327.5732436922502
 31
0.0
  0
LINE
  5
15DD
330
2
100
AcDbEntity
  8
0
100
AcDbLine
 10
109.1328528394873
 20
377.5732436922503
 30
0.0
 11
155.1327528394873
 21
377.5732436922502
 31
0.0
  0
LINE
  5
15DE
330
2
100
AcDbEntity
  8
0
100
AcDbLine
 10
109.5328538394872
 20
376.1732346922503
 30
0.0
 11
149.6327528394873
 21
376.1732346922502
 31
0.0
  0
LINE
  5
15DF
330
2
100
AcDbEntity
  8
0
100
AcDbLine
 10
107.1328528394873
 20
375.5732436922503
 30
0.0
 11
107.1328528394873
 21
329.5732436922502
 31
0.0
  0
LINE
  5
15E0
330
2
100
AcDbEntity
  8
CENTER
100
AcDbLine
 10
132.1328598394873
 20
382.962469636358
 30
0.0
 11
132.1328598394873
 21
321.8232436922503
 31
0.0
  0
LINE
  5
15E1
330
2
100
AcDbEntity
  8
0
100
AcDbLine
 10
108.5328468394873
 20
375.1732346922502
 30
0.0
 11
108.5328538394872
 21
335.0732436922502
 31
0.0
  0
ARC
  5
15E2
330
2
100
AcDbEntity
  8
0
100
AcDbCircle
 10
110.6328828394872
 20
331.0732436922502
 30
0.0
 40
4.0
100
AcDbArc
 50
0.0
 51
90.0
  0
ARC
  5
15E3
330
2
100
AcDbEntity
  8
0
100
AcDbCircle
 10
108.6031828394873
 20
333.1029436922502
 30
0.0
 40
1.742199999999999
100
AcDbArc
 50
269.9986903345002
 51
0.0013096654997424
  0
ARC
  5
15E4
330
2
100
AcDbEntity
  8
0
100
AcDbCircle
 10
108.6031828394873
 20
329.0435436922503
 30
0.0
 40
1.742199999999999
100
AcDbArc
 50
359.9986903345002
 51
90.00130966549322
  0
CIRCLE
  5
15E5
330
2
100
AcDbEntity
  8
0
100
AcDbCircle
 10
110.6328828394872
 20
331.0732436922502
 30
0.0
 40
3.500000000000028
  0
LINE
  5
15E6
330
2
100
AcDbEntity
  8
0
100
AcDbLine
 10
110.6328828394873
 20
335.0732436922502
 30
0.0
 11
107.1328828394873
 21
335.0732436922502
 31
0.0
  0
ARC
  5
15E7
330
2
100
AcDbEntity
  8
0
100
AcDbCircle
 10
110.6328828394872
 20
331.0732436922502
 30
0.0
 40
2.049999999999998
100
AcDbArc
 50
180.0
 51
188.0619600839816
  0
ARC
  5
15E8
330
2
100
AcDbEntity
  8
0
100
AcDbCircle
 10
110.6328828394872
 20
331.0732436922502
 30
0.0
 40
2.049999999999998
100
AcDbArc
 50
171.9380399160183
 51
180.0
  0
LINE
  5
15E9
330
2
100
AcDbEntity
  8
0
100
AcDbLine
 10
107.1328528394873
 20
329.5732436922502
 30
0.0
 11
109.1328528394873
 21
327.5732436922503
 31
0.0
  0
LINE
  5
15EA
330
2
100
AcDbEntity
  8
0
100
AcDbLine
 10
107.1328528394873
 20
329.5732436922502
 30
0.0
 11
109.1328528394873
 21
327.5732436922503
 31
0.0
  0
ARC
  5
15EB
330
2
100
AcDbEntity
  8
0
100
AcDbCircle
 10
112.6625828394874
 20
333.1029436922502
 30
0.0
 40
1.742199999999999
100
AcDbArc
 50
179.9986903345002
 51
270.0013096654932
  0
ARC
  5
15EC
330
2
100
AcDbEntity
  8
0
100
AcDbCircle
 10
110.6328828394872
 20
331.0732436922502
 30
0.0
 40
2.049999999999998
100
AcDbArc
 50
351.9380399160183
 51
0.0
  0
ARC
  5
15ED
330
2
100
AcDbEntity
  8
0
100
AcDbCircle
 10
112.6625828394874
 20
329.0435436922503
 30
0.0
 40
1.742199999999999
100
AcDbArc
 50
89.99869033450025
 51
180.0013096654997
  0
ARC
  5
15EE
330
2
100
AcDbEntity
  8
0
100
AcDbCircle
 10
110.6328828394872
 20
331.0732436922502
 30
0.0
 40
2.049999999999998
100
AcDbArc
 50
81.93803991601813
 51
90.0
  0
ARC
  5
15EF
330
2
100
AcDbEntity
  8
0
100
AcDbCircle
 10
110.6328828394872
 20
331.0732436922502
 30
0.0
 40
2.049999999999998
100
AcDbArc
 50
0.0
 51
8.061960083982455
  0
ARC
  5
15F0
330
2
100
AcDbEntity
  8
0
100
AcDbCircle
 10
110.6328828394872
 20
331.0732436922502
 30
0.0
 40
2.049999999999998
100
AcDbArc
 50
90.0
 51
98.06196008398188
  0
ARC
  5
15F1
330
2
100
AcDbEntity
  8
0
100
AcDbCircle
 10
110.6328828394872
 20
331.0732436922502
 30
0.0
 40
2.049999999999998
100
AcDbArc
 50
270.0
 51
278.0619600839818
  0
ARC
  5
15F2
330
2
100
AcDbEntity
  8
0
100
AcDbCircle
 10
110.6328828394872
 20
331.0732436922502
 30
0.0
 40
2.049999999999998
100
AcDbArc
 50
261.9380399160181
 51
270.0
  0
LINE
  5
15F3
330
2
100
AcDbEntity
  8
0
100
AcDbLine
 10
105.1328528394873
 20
347.0732436922502
 30
0.0
 11
101.6328528394873
 21
350.5732436922503
 31
0.0
  0
LINE
  5
15F4
330
2
100
AcDbEntity
  8
0
100
AcDbLine
 10
101.6328528394873
 20
354.5732436922502
 30
0.0
 11
105.1328528394873
 21
358.0732436922502
 31
0.0
  0
LINE
  5
15F5
330
2
100
AcDbEntity
  8
0
100
AcDbLine
 10
101.6328528394873
 20
354.5732436922502
 30
0.0
 11
101.6328528394873
 21
350.5732436922503
 31
0.0
  0
LINE
  5
15F6
330
2
100
AcDbEntity
  8
0
100
AcDbLine
 10
105.1328528394873
 20
346.0732436922502
 30
0.0
 11
105.1328528394873
 21
359.0732436922503
 31
0.0
  0
ARC
  5
15F7
330
2
100
AcDbEntity
  8
0
100
AcDbCircle
 10
106.1328528394872
 20
346.0732436922502
 30
0.0
 40
1.0
100
AcDbArc
 50
180.0
 51
270.0
  0
LINE
  5
15F8
330
2
100
AcDbEntity
  8
0
100
AcDbLine
 10
106.1328528394873
 20
345.0732436922502
 30
0.0
 11
107.1328528394873
 21
345.0732436922502
 31
0.0
  0
ARC
  5
15F9
330
2
100
AcDbEntity
  8
0
100
AcDbCircle
 10
106.1328678394872
 20
359.0732436922502
 30
0.0
 40
1.0
100
AcDbArc
 50
90.0
 51
180.0
  0
LINE
  5
15FA
330
2
100
AcDbEntity
  8
0
100
AcDbLine
 10
106.1328528394873
 20
360.0732436922502
 30
0.0
 11
107.1328528394873
 21
360.0732436922502
 31
0.0
  0
LINE
  5
15FB
330
2
100
AcDbEntity
  8
0
100
AcDbLine
 10
114.6328528394873
 20
331.0732436922502
 30
0.0
 11
114.6328528394873
 21
327.5734426922503
 31
0.0
  0
LINE
  5
15FC
330
2
100
AcDbEntity
  8
0
100
AcDbLine
 10
108.5328468394873
 20
375.1732346922502
 30
0.0
 11
109.5328538394872
 21
376.1732346922503
 31
0.0
  0
LINE
  5
15FD
330
2
100
AcDbEntity
  8
0
100
AcDbLine
 10
107.1328528394873
 20
375.5732436922503
 30
0.0
 11
109.1328528394873
 21
377.5732436922503
 31
0.0
  0
LINE
  5
15FE
330
2
100
AcDbEntity
  8
0
100
AcDbLine
 10
157.1327528394873
 20
375.5732436922502
 30
0.0
 11
157.1327528394872
 21
329.5732436922502
 31
0.0
  0
LINE
  5
15FF
330
2
100
AcDbEntity
  8
0
100
AcDbLine
 10
155.7329578394873
 20
329.9732376922502
 30
0.0
 11
155.7329578394873
 21
370.0732436922502
 31
0.0
  0
LINE
  5
1600
330
2
100
AcDbEntity
  8
0
100
AcDbLine
 10
157.1329518394873
 20
329.5732436922502
 30
0.0
 11
155.1327528394872
 21
327.5732436922502
 31
0.0
  0
LINE
  5
1601
330
2
100
AcDbEntity
  8
0
100
AcDbLine
 10
157.1327528394872
 20
329.5732436922502
 30
0.0
 11
155.1327528394872
 21
327.5732436922502
 31
0.0
  0
LINE
  5
1602
330
2
100
AcDbEntity
  8
0
100
AcDbLine
 10
157.1327528394872
 20
329.5732436922502
 30
0.0
 11
155.1327528394872
 21
327.5732436922502
 31
0.0
  0
LINE
  5
1603
330
2
100
AcDbEntity
  8
0
100
AcDbLine
 10
154.7329578394873
 20
328.9732376922502
 30
0.0
 11
155.7329578394873
 21
329.9732376922502
 31
0.0
  0
ARC
  5
1604
330
2
100
AcDbEntity
  8
0
100
AcDbCircle
 10
151.6032518394873
 20
376.1029436922501
 30
0.0
 40
1.742199999999999
100
AcDbArc
 50
269.9986903345002
 51
0.0013096654997424
  0
ARC
  5
1605
330
2
100
AcDbEntity
  8
0
100
AcDbCircle
 10
151.6032518394873
 20
372.0435436922503
 30
0.0
 40
1.742199999999999
100
AcDbArc
 50
359.9986903345002
 51
90.00130966549322
  0
CIRCLE
  5
1606
330
2
100
AcDbEntity
  8
0
100
AcDbCircle
 10
153.6329518394873
 20
374.0732436922502
 30
0.0
 40
3.500000000000028
  0
ARC
  5
1607
330
2
100
AcDbEntity
  8
0
100
AcDbCircle
 10
153.6329518394873
 20
374.0732436922502
 30
0.0
 40
4.0
100
AcDbArc
 50
180.0
 51
270.0
  0
LINE
  5
1608
330
2
100
AcDbEntity
  8
0
100
AcDbLine
 10
149.6327528394873
 20
374.0732436922502
 30
0.0
 11
149.6327528394873
 21
377.5732436922502
 31
0.0
  0
ARC
  5
1609
330
2
100
AcDbEntity
  8
0
100
AcDbCircle
 10
153.6329518394873
 20
374.0732436922502
 30
0.0
 40
2.049999999999998
100
AcDbArc
 50
180.0
 51
188.0619600839816
  0
ARC
  5
160A
330
2
100
AcDbEntity
  8
0
100
AcDbCircle
 10
153.6329518394873
 20
374.0732436922502
 30
0.0
 40
2.049999999999998
100
AcDbArc
 50
171.9380399160183
 51
180.0
  0
ARC
  5
160B
330
2
100
AcDbEntity
  8
0
100
AcDbCircle
 10
155.6626518394874
 20
376.1029436922501
 30
0.0
 40
1.742199999999999
100
AcDbArc
 50
179.9986903345002
 51
270.0013096654932
  0
ARC
  5
160C
330
2
100
AcDbEntity
  8
0
100
AcDbCircle
 10
153.6329518394873
 20
374.0732436922502
 30
0.0
 40
2.049999999999998
100
AcDbArc
 50
351.9380399160183
 51
0.0
  0
ARC
  5
160D
330
2
100
AcDbEntity
  8
0
100
AcDbCircle
 10
155.6626518394874
 20
372.0435436922503
 30
0.0
 40
1.742199999999999
100
AcDbArc
 50
89.99869033450025
 51
180.0013096654997
  0
ARC
  5
160E
330
2
100
AcDbEntity
  8
0
100
AcDbCircle
 10
153.6329518394873
 20
374.0732436922502
 30
0.0
 40
2.049999999999998
100
AcDbArc
 50
0.0
 51
8.061960083982455
  0
ARC
  5
160F
330
2
100
AcDbEntity
  8
0
100
AcDbCircle
 10
153.6329518394873
 20
374.0732436922502
 30
0.0
 40
2.049999999999998
100
AcDbArc
 50
270.0
 51
278.0619600839818
  0
ARC
  5
1610
330
2
100
AcDbEntity
  8
0
100
AcDbCircle
 10
153.6329518394873
 20
374.0732436922502
 30
0.0
 40
2.049999999999998
100
AcDbArc
 50
261.9380399160181
 51
270.0
  0
LINE
  5
1611
330
2
100
AcDbEntity
  8
0
100
AcDbLine
 10
153.6327528394873
 20
370.0732436922502
 30
0.0
 11
157.1327528394873
 21
370.0732436922502
 31
0.0
  0
ARC
  5
1612
330
2
100
AcDbEntity
  8
0
100
AcDbCircle
 10
153.6329518394873
 20
374.0732436922502
 30
0.0
 40
2.049999999999998
100
AcDbArc
 50
81.93803991601813
 51
90.0
  0
ARC
  5
1613
330
2
100
AcDbEntity
  8
0
100
AcDbCircle
 10
153.6329518394873
 20
374.0732436922502
 30
0.0
 40
2.049999999999998
100
AcDbArc
 50
90.0
 51
98.06196008398188
  0
LINE
  5
1614
330
2
100
AcDbEntity
  8
0
100
AcDbLine
 10
155.1327528394873
 20
377.5732436922502
 30
0.0
 11
157.1327528394873
 21
375.5732436922502
 31
0.0
  0
LINE
  5
1615
330
2
100
AcDbEntity
  8
0
100
AcDbLine
 10
157.1327528394873
 20
375.5732436922502
 30
0.0
 11
155.1327528394873
 21
377.5732436922502
 31
0.0
  0
ARC
  5
1616
330
2
100
AcDbEntity
  8
0
100
AcDbCircle
 10
438.0258530858943
 20
205.8007149928716
 30
0.0
 40
1.3
100
AcDbArc
 50
105.880850008278
 51
174.9999999999999
  0
LINE
  5
1617
330
2
100
AcDbEntity
  8
0
100
AcDbLine
 10
436.1328488394873
 20
204.7946022686252
 30
0.0
 11
443.6328488394873
 21
204.7946022686253
 31
0.0
  0
LINE
  5
1619
330
2
100
AcDbEntity
  8
0
100
AcDbLine
 10
436.6328638394873
 20
204.7946022686253
 30
0.0
 11
436.7307999783752
 21
205.9140174584435
 31
0.0
  0
LINE
  5
161A
330
2
100
AcDbEntity
  8
0
100
AcDbLine
 10
435.6328488394873
 20
207.2946022686252
 30
0.0
 11
436.1328488394873
 21
206.7946022686252
 31
0.0
  0
LINE
  5
161B
330
2
100
AcDbEntity
  8
0
100
AcDbLine
 10
436.1328488394873
 20
204.7946022686252
 30
0.0
 11
436.1328488394873
 21
206.7946022686253
 31
0.0
  0
LINE
  5
161C
330
2
100
AcDbEntity
  8
0
100
AcDbLine
 10
436.1328488394873
 20
206.7946022686252
 30
0.0
 11
437.1878864498669
 21
206.7946022686252
 31
0.0
  0
LINE
  5
161D
330
2
100
AcDbEntity
  8
0
100
AcDbLine
 10
443.6328488394873
 20
206.2946022686253
 30
0.0
 11
443.6328488394873
 21
178.2946042686252
 31
0.0
  0
LINE
  5
161E
330
2
100
AcDbEntity
  8
0
100
AcDbLine
 10
441.6328488394873
 20
176.2946042686252
 30
0.0
 11
443.6328488394873
 21
178.2946042686252
 31
0.0
  0
LINE
  5
161F
330
2
100
AcDbEntity
  8
0
100
AcDbLine
 10
441.1328488394873
 20
176.2946042686252
 30
0.0
 11
441.1328488394873
 21
174.4018487199126
 31
0.0
  0
LINE
  5
1620
330
2
100
AcDbEntity
  8
0
100
AcDbLine
 10
441.4707726555135
 20
207.2946022686252
 30
0.0
 11
442.6328488394873
 21
207.2946022686252
 31
0.0
  0
ARC
  5
1621
330
2
100
AcDbEntity
  8
0
100
AcDbCircle
 10
440.1328638394873
 20
198.3946022686253
 30
0.0
 40
9.0
100
AcDbArc
 50
74.11914999172198
 51
105.880850008278
  0
LINE
  5
1622
330
2
100
AcDbEntity
  8
0
100
AcDbLine
 10
442.1626036626514
 20
206.9470438060029
 30
0.0
 11
442.1828638394873
 21
207.1580205514644
 31
0.0
  0
LINE
  5
1623
330
2
100
AcDbEntity
  8
0
100
AcDbLine
 10
438.1031240163232
 20
206.9470438060029
 30
0.0
 11
438.0828638394873
 21
207.1580205514644
 31
0.0
  0
LINE
  5
1624
330
2
100
AcDbEntity
  8
0
100
AcDbLine
 10
440.4203638399423
 20
205.8776022686253
 30
0.0
 11
439.8453638390322
 21
205.8776022686253
 31
0.0
  0
SPLINE
  5
1625
330
2
100
AcDbEntity
  8
0
100
AcDbSpline
210
0.0
220
0.0
230
1.0
 70
     8
 71
     3
 72
    11
 73
     7
 74
     0
 42
0.0000000001
 43
0.0000000001
 40
0.0
 40
0.0
 40
0.0
 40
0.0
 40
0.4601364636755307
 40
1.04988694485363
 40
1.713742833862792
 40
2.320347933405154
 40
2.320347933405154
 40
2.320347933405154
 40
2.320347933405179
 10
440.4203638399423
 20
205.8776022686253
 30
0.0
 10
440.4427814970501
 20
206.0326257083051
 30
0.0
 10
440.4939315522836
 20
206.3863405262226
 30
0.0
 10
440.9298167138171
 20
206.8110681978243
 30
0.0
 10
441.5348674288245
 20
207.0302553777902
 30
0.0
 10
441.9600520530003
 20
206.9612640781795
 30
0.0
 10
442.1626036626514
 20
206.9470438060029
 30
0.0
  0
SPLINE
  5
1626
330
2
100
AcDbEntity
  8
0
100
AcDbSpline
210
0.0
220
0.0
230
1.0
 70
     8
 71
     3
 72
    11
 73
     7
 74
     0
 42
0.0000000001
 43
0.0000000001
 40
0.0
 40
0.0
 40
0.0
 40
0.0
 40
0.4601364636755307
 40
1.04988694485363
 40
1.713742833862792
 40
2.320347933405154
 40
2.320347933405154
 40
2.320347933405154
 40
2.320347933405179
 10
439.8453638390322
 20
205.8776022686253
 30
0.0
 10
439.8229461819243
 20
206.0326257083051
 30
0.0
 10
439.7717961266912
 20
206.3863405262226
 30
0.0
 10
439.3359109651576
 20
206.8110681978243
 30
0.0
 10
438.7308602501502
 20
207.0302553777902
 30
0.0
 10
438.3056756259743
 20
206.9612640781795
 30
0.0
 10
438.1031240163232
 20
206.9470438060029
 30
0.0
  0
LINE
  5
1627
330
2
100
AcDbEntity
  8
0
100
AcDbLine
 10
443.6328638394873
 20
204.7946022686253
 30
0.0
 11
443.5349277005993
 21
205.9140174584435
 31
0.0
  0
ARC
  5
1628
330
2
100
AcDbEntity
  8
0
100
AcDbCircle
 10
442.2398745930802
 20
205.8007149928716
 30
0.0
 40
1.3
100
AcDbArc
 50
5.000000000000026
 51
74.11914999172198
  0
LINE
  5
1629
330
2
100
AcDbEntity
  8
0
100
AcDbLine
 10
442.6328488394873
 20
207.2946022686252
 30
0.0
 11
443.6328488394873
 21
206.2946022686253
 31
0.0
  0
LINE
  5
16A7
330
2
100
AcDbEntity
  8
0
100
AcDbLine
 10
395.1328638394873
 20
176.7946042686252
 30
0.0
 11
390.2039698394874
 21
176.7946042686252
 31
0.0
  0
LINE
  5
16A8
330
2
100
AcDbEntity
  8
0
100
AcDbLine
 10
107.6328178394873
 20
329.0732786922503
 30
0.0
 11
107.6328178394873
 21
297.5732436922503
 31
0.0
  0
ENDSEC
  0
SECTION
  2
OBJECTS
  0
DICTIONARY
  5
7
330
0
100
AcDbDictionary
  3
ACAD_GROUP
350
75
  3
ACAD_LAYOUT
350
61
  3
ACAD_MLINESTYLE
350
76
  3
ACAD_PLOTSETTINGS
350
77
  3
ACAD_PLOTSTYLENAME
350
6
  3
ACADDIM
350
480
  3
ACDBHEADERROUNDTRIPXREC
350
174D
  3
ACDBVARIABLEDICTIONARY
350
102
  3
DWGPROPS
350
3D2
  0
DICTIONARY
  5
176E
330
2
100
AcDbDictionary
280
     1
  3
ACAD_LAYOUTSELFREF
360
176F
  0
DICTIONARY
  5
1770
330
1747
100
AcDbDictionary
280
     1
  3
ACAD_LAYOUTSELFREF
360
1771
  0
DICTIONARY
  5
75
102
{ACAD_REACTORS
330
7
102
}
330
7
100
AcDbDictionary
  0
DICTIONARY
  5
61
102
{ACAD_REACTORS
330
7
102
}
330
7
100
AcDbDictionary
  0
DICTIONARY
  5
76
102
{ACAD_REACTORS
330
7
102
}
330
7
100
AcDbDictionary
  3
STANDARD
350
78
  0
DICTIONARY
  5
77
102
{ACAD_REACTORS
330
7
102
}
330
7
100
AcDbDictionary
  0
ACDBDICTIONARYWDFLT
  5
6
102
{ACAD_REACTORS
330
7
102
}
330
7
100
AcDbDictionary
281
     1
  3
Normal
350
5
100
AcDbDictionaryWithDefault
340
5
  0
XRECORD
  5
480
102
{ACAD_REACTORS
330
7
102
}
330
7
100
AcDbXrecord
 90
   990106
  3

 60
     0
 61
     0
 62
     1
 63
     3
 64
     1
 65
     0
 66
     0
 67
     3
 68
     1
 69
     0
 70
     0
 71
     0
 72
     0
 40
0.0
170
     2
  0
DICTIONARY
  5
174D
102
{ACAD_REACTORS
330
7
102
}
330
7
100
AcDbDictionary
  3
CEPSNTYPE
350
1757
  3
DIMSTYLEDATA
350
175B
  3
FINGERPRINTGUID
350
1758
  3
HYPERLINKBASE
350
1750
  3
INSUNITS
350
1756
  3
LAYOUTDICT
350
1752
  3
LWETCUNION
350
1755
  3
PLOTSETDICT
350
1753
  3
PLOTSTYLNAMDICT
350
1754
  3
PSVPSCALE
350
175A
  3
PUCSBASE
350
175E
  3
PUCSORGBACK
350
1764
  3
PUCSORGBOTTOM
350
1760
  3
PUCSORGFRONT
350
1763
  3
PUCSORGLEFT
350
1761
  3
PUCSORGRIGHT
350
1762
  3
PUCSORGTOP
350
175F
  3
PUCSORTHOREF
350
175C
  3
PUCSORTHOVIEW
350
175D
  3
STYLESHEET
350
1751
  3
TSTACKALIGN
350
174E
  3
TSTACKSIZE
350
174F
  3
UCSBASE
350
1767
  3
UCSORGBACK
350
176D
  3
UCSORGBOTTOM
350
1769
  3
UCSORGFRONT
350
176C
  3
UCSORGLEFT
350
176A
  3
UCSORGRIGHT
350
176B
  3
UCSORGTOP
350
1768
  3
UCSORTHOREF
350
1765
  3
UCSORTHOVIEW
350
1766
  3
VERSIONGUID
350
1759
  0
DICTIONARY
  5
102
102
{ACAD_REACTORS
330
7
102
}
330
7
100
AcDbDictionary
  3
DIMASSOC
350
103
  0
XRECORD
  5
3D2
102
{ACAD_REACTORS
330
7
102
}
330
7
100
AcDbXrecord
  1
DWGPROPS COOKIE
  2

  3

  4

  6

  7

  8

  9

300
=
301
=
302
=
303
=
304
=
305
=
306
=
307
=
308
=
309
=
 40
0.5353330671296296
 41
2452052.431989363
 42
2453406.550756377
  1

 90
        0
  0
XRECORD
  5
176F
102
{ACAD_REACTORS
330
176E
102
}
330
176E
100
AcDbXrecord
340
2
  0
XRECORD
  5
1771
102
{ACAD_REACTORS
330
1770
102
}
330
1770
100
AcDbXrecord
340
1747
  0
MLINESTYLE
  5
78
102
{ACAD_REACTORS
330
76
102
}
330
76
100
AcDbMlineStyle
  2
STANDARD
 70
     0
  3

 62
     0
 51
90.0
 52
90.0
 71
     2
 49
0.5
 62
   256
  6
BYLAYER
 49
-0.5
 62
   256
  6
BYLAYER
  0
ACDBPLACEHOLDER
  5
5
102
{ACAD_REACTORS
330
6
102
}
330
6
100
AcDbPlaceHolder
280
     0
  0
XRECORD
  5
1757
102
{ACAD_REACTORS
330
174D
102
}
330
174D
100
AcDbXrecord
 90
        0
  0
XRECORD
  5
175B
102
{ACAD_REACTORS
330
174D
102
}
330
174D
100
AcDbXrecord
1000
DSTYLE
1002
{
1070
   179
 70
     2
1070
   277
 70
     6
1002
}
  0
XRECORD
  5
1758
102
{ACAD_REACTORS
330
174D
102
}
330
174D
100
AcDbXrecord
  1
{6385560B-F4B1-4644-A7C2-A3E32AC3D232}
  0
XRECORD
  5
1750
102
{ACAD_REACTORS
330
174D
102
}
330
174D
100
AcDbXrecord
  1

  0
XRECORD
  5
1756
102
{ACAD_REACTORS
330
174D
102
}
330
174D
100
AcDbXrecord
 90
        0
  0
XRECORD
  5
1752
102
{ACAD_REACTORS
330
174D
102
}
330
174D
100
AcDbXrecord
340
61
  0
XRECORD
  5
1755
102
{ACAD_REACTORS
330
174D
102
}
330
174D
100
AcDbXrecord
 90
    10781
  0
XRECORD
  5
1753
102
{ACAD_REACTORS
330
174D
102
}
330
174D
100
AcDbXrecord
340
77
  0
XRECORD
  5
1754
102
{ACAD_REACTORS
330
174D
102
}
330
174D
100
AcDbXrecord
340
6
  0
XRECORD
  5
175A
102
{ACAD_REACTORS
330
174D
102
}
330
174D
100
AcDbXrecord
 40
0.0
  0
XRECORD
  5
175E
102
{ACAD_REACTORS
330
174D
102
}
330
174D
100
AcDbXrecord
340
0
  0
XRECORD
  5
1764
102
{ACAD_REACTORS
330
174D
102
}
330
174D
100
AcDbXrecord
 10
0.0
 20
0.0
 30
0.0
  0
XRECORD
  5
1760
102
{ACAD_REACTORS
330
174D
102
}
330
174D
100
AcDbXrecord
 10
0.0
 20
0.0
 30
0.0
  0
XRECORD
  5
1763
102
{ACAD_REACTORS
330
174D
102
}
330
174D
100
AcDbXrecord
 10
0.0
 20
0.0
 30
0.0
  0
XRECORD
  5
1761
102
{ACAD_REACTORS
330
174D
102
}
330
174D
100
AcDbXrecord
 10
0.0
 20
0.0
 30
0.0
  0
XRECORD
  5
1762
102
{ACAD_REACTORS
330
174D
102
}
330
174D
100
AcDbXrecord
 10
0.0
 20
0.0
 30
0.0
  0
XRECORD
  5
175F
102
{ACAD_REACTORS
330
174D
102
}
330
174D
100
AcDbXrecord
 10
0.0
 20
0.0
 30
0.0
  0
XRECORD
  5
175C
102
{ACAD_REACTORS
330
174D
102
}
330
174D
100
AcDbXrecord
340
0
  0
XRECORD
  5
175D
102
{ACAD_REACTORS
330
174D
102
}
330
174D
100
AcDbXrecord
 70
     0
  0
XRECORD
  5
1751
102
{ACAD_REACTORS
330
174D
102
}
330
174D
100
AcDbXrecord
  1
Sekkei.ctb
  0
XRECORD
  5
174E
102
{ACAD_REACTORS
330
174D
102
}
330
174D
100
AcDbXrecord
 90
        1
  0
XRECORD
  5
174F
102
{ACAD_REACTORS
330
174D
102
}
330
174D
100
AcDbXrecord
 90
       70
  0
XRECORD
  5
1767
102
{ACAD_REACTORS
330
174D
102
}
330
174D
100
AcDbXrecord
340
0
  0
XRECORD
  5
176D
102
{ACAD_REACTORS
330
174D
102
}
330
174D
100
AcDbXrecord
 10
0.0
 20
0.0
 30
0.0
  0
XRECORD
  5
1769
102
{ACAD_REACTORS
330
174D
102
}
330
174D
100
AcDbXrecord
 10
0.0
 20
0.0
 30
0.0
  0
XRECORD
  5
176C
102
{ACAD_REACTORS
330
174D
102
}
330
174D
100
AcDbXrecord
 10
0.0
 20
0.0
 30
0.0
  0
XRECORD
  5
176A
102
{ACAD_REACTORS
330
174D
102
}
330
174D
100
AcDbXrecord
 10
0.0
 20
0.0
 30
0.0
  0
XRECORD
  5
176B
102
{ACAD_REACTORS
330
174D
102
}
330
174D
100
AcDbXrecord
 10
0.0
 20
0.0
 30
0.0
  0
XRECORD
  5
1768
102
{ACAD_REACTORS
330
174D
102
}
330
174D
100
AcDbXrecord
 10
0.0
 20
0.0
 30
0.0
  0
XRECORD
  5
1765
102
{ACAD_REACTORS
330
174D
102
}
330
174D
100
AcDbXrecord
340
0
  0
XRECORD
  5
1766
102
{ACAD_REACTORS
330
174D
102
}
330
174D
100
AcDbXrecord
 70
     0
  0
XRECORD
  5
1759
102
{ACAD_REACTORS
330
174D
102
}
330
174D
100
AcDbXrecord
  1
{F86D0171-D4C2-4F17-8DCF-CB1488F9DC57}
  0
DICTIONARYVAR
  5
103
102
{ACAD_REACTORS
330
102
102
}
330
102
100
DictionaryVariables
280
     0
  1
1
  0
ENDSEC
  0
EOF
