  0
SECTION
  2
HEADER
  9
$CLAYER
  8
1
  9
$LTSCALE
 40
3.0
  0
ENDSEC
  0
SECTION
  2
TABLES
  0
TABLE
  2
LTYPE
 70
     4
  0
LTYPE
  2
CONTINUOUS
  3
solid line
 70
    64
 72
    65
 73
     0
 40
0.0
  0
LTYPE
  2
DASHED
  3
__ __ __ __ __ __ __ __ __ __ __ __ __ __ __
 70
    64
 72
    65
 73
     2
 40
0.75
 49
0.5
 49
-0.25
  0
LTYPE
  2
CENTER
  3
____ _ ____ _ ____ _ ____ _ ____ _ ____ _ ____
 70
    64
 72
    65
 73
     4
 40
2.0
 49
1.25
 49
-0.25
 49
0.25
 49
-0.25
  0
LTYPE
  2
PHANTOM
  3
_____ _ _ _____ _ _ _____ _ _ _____ _ _ ____
 70
    64
 72
    65
 73
     6
 40
2.5
 49
1.25
 49
-0.25
 49
0.25
 49
-0.25
 49
0.25
 49
-0.25
  0
ENDTAB
  0
TABLE
  2
LAYER
 70
     1
  0
LAYER
  2
0
 70
    64
 62
     7
  6
CONTINUOUS
  0
ENDTAB
  0
TABLE
  2
STYLE
 70
     1
  0
STYLE
  2
STANDARD
 70
     0
 40
0.000000
 41
1.000000
 50
0.000000
 71
     0
 42
3.000000
  3
txt
  4
BIGFONT
  0
ENDTAB
  0
ENDSEC
  0
SECTION
  2
BLOCKS
  0
ENDSEC
  0
SECTION
  2
ENTITIES
  0
LINE
  8
0
  6
CENTER
 10
-13.767344
 20
40.286423
 11
175.342499
 21
40.286423
  0
LINE
  8
0
  6
CONTINUOUS
 10
167.592499
 20
78.286423
 11
167.592499
 21
2.286431
  0
LINE
  8
0
  6
CENTER
 10
139.976196
 20
51.286423
 11
198.318695
 21
51.286423
  0
LINE
  8
0
  6
CONTINUOUS
 10
53.592499
 20
78.286423
 11
167.592499
 21
78.286423
  0
LINE
  8
0
  6
CONTINUOUS
 10
53.592499
 20
2.286431
 11
167.592499
 21
2.286431
  0
LINE
  8
0
  6
CONTINUOUS
 10
53.592499
 20
70.535423
 11
159.592499
 21
70.535423
  0
LINE
  8
0
  6
CONTINUOUS
 10
53.592499
 20
10.037451
 11
159.592499
 21
10.037451
  0
LINE
  8
0
  6
CONTINUOUS
 10
195.092499
 20
45.286423
 11
195.092499
 21
57.286423
  0
LINE
  8
0
  6
CONTINUOUS
 10
173.092499
 20
57.286423
 11
195.092499
 21
57.286423
  0
LINE
  8
0
  6
CONTINUOUS
 10
173.092499
 20
45.286423
 11
195.092499
 21
45.286423
  0
LINE
  8
0
  6
CONTINUOUS
 10
173.092499
 20
58.786423
 11
173.092499
 21
43.786423
  0
LINE
  8
0
  6
CONTINUOUS
 10
159.592499
 20
76.286423
 11
159.592499
 21
4.286421
  0
LINE
  8
0
  6
CONTINUOUS
 10
177.092499
 20
53.286423
 11
195.092499
 21
53.286423
  0
LINE
  8
0
  6
CONTINUOUS
 10
177.092499
 20
49.286423
 11
195.092499
 21
49.286423
  0
ARC
  8
0
  6
CONTINUOUS
 10
177.092499
 20
51.286423
 40
2.000000
 50
90.000000
 51
180.000000
  0
ARC
  8
0
  6
CONTINUOUS
 10
177.092499
 20
51.286423
 40
2.000000
 50
180.000000
 51
270.000000
  0
LINE
  8
0
  6
CENTER
 10
154.592499
 20
72.286423
 11
171.342499
 21
72.286423
  0
LINE
  8
0
  6
CENTER
 10
156.342499
 20
8.286421
 11
172.092499
 21
8.286421
  0
LINE
  8
0
  6
DASHED
 10
159.592499
 20
11.536421
 11
167.592499
 21
11.536421
  0
LINE
  8
0
  6
DASHED
 10
159.592499
 20
5.036421
 11
167.592499
 21
5.036421
  0
LINE
  8
0
  6
DASHED
 10
159.592499
 20
75.536423
 11
167.592499
 21
75.536423
  0
LINE
  8
0
  6
DASHED
 10
159.592499
 20
69.036423
 11
167.592499
 21
69.036423
  0
ARC
  8
0
  6
CONTINUOUS
 10
161.592499
 20
76.286423
 40
2.000000
 50
90.000000
 51
180.000000
  0
ARC
  8
0
  6
CONTINUOUS
 10
161.592499
 20
4.286441
 40
2.000000
 50
180.000000
 51
270.000000
  0
LINE
  8
0
  6
CONTINUOUS
 10
173.092499
 20
58.786423
 11
171.092499
 21
58.786423
  0
LINE
  8
0
  6
CONTINUOUS
 10
173.092499
 20
43.786423
 11
171.092499
 21
43.786423
  0
LINE
  8
0
  6
CONTINUOUS
 10
170.092499
 20
68.786423
 11
167.592499
 21
68.786423
  0
LINE
  8
0
  6
CONTINUOUS
 10
170.092499
 20
33.786423
 11
167.592499
 21
33.786423
  0
ARC
  8
0
  6
CONTINUOUS
 10
170.092499
 20
67.786423
 40
1.000000
 50
0.000000
 51
90.000000
  0
ARC
  8
0
  6
CONTINUOUS
 10
170.092499
 20
34.786423
 40
1.000000
 50
-90.000000
 51
0.000000
  0
LINE
  8
0
  6
CONTINUOUS
 10
171.092499
 20
67.786423
 11
171.092499
 21
34.786423
  0
LINE
  8
0
  6
CENTER
 10
293.092499
 20
-1.476329
 11
293.092499
 21
102.995621
  0
LINE
  8
0
  6
CENTER
 10
247.623795
 20
40.286423
 11
335.475006
 21
40.286423
  0
LINE
  8
0
  6
CONTINUOUS
 10
331.092499
 20
6.880491
 11
331.092499
 21
73.692322
  0
LINE
  8
0
  6
CONTINUOUS
 10
255.092499
 20
6.880361
 11
255.092499
 21
73.692223
  0
LINE
  8
0
  6
CONTINUOUS
 10
327.162292
 20
77.691719
 11
293.092499
 21
78.286423
  0
LINE
  8
0
  6
CONTINUOUS
 10
259.022705
 20
77.691620
 11
293.092499
 21
78.286423
  0
LINE
  8
0
  6
CONTINUOUS
 10
327.162292
 20
2.881111
 11
293.092499
 21
2.286421
  0
LINE
  8
0
  6
CONTINUOUS
 10
259.022705
 20
2.880971
 11
293.092499
 21
2.286421
  0
ARC
  8
0
  6
CONTINUOUS
 10
327.092499
 20
73.692322
 40
4.000000
 50
0.000000
 51
89.000137
  0
ARC
  8
0
  6
CONTINUOUS
 10
259.092499
 20
73.692223
 40
4.000000
 50
91.000641
 51
180.000000
  0
ARC
  8
0
  6
CONTINUOUS
 10
259.092499
 20
6.880391
 40
4.000000
 50
180.000000
 51
269.000488
  0
ARC
  8
0
  6
CONTINUOUS
 10
327.092499
 20
6.880491
 40
4.000000
 50
-88.999817
 51
0.000000
  0
LINE
  8
0
  6
CENTER
 10
329.998810
 20
72.286423
 11
319.248810
 21
72.286423
  0
LINE
  8
0
  6
CENTER
 10
325.092499
 20
77.098923
 11
325.092499
 21
66.598923
  0
CIRCLE
  8
0
  6
CONTINUOUS
 10
325.092499
 20
72.286423
 40
3.250000
  0
LINE
  8
0
  6
CENTER
 10
329.998810
 20
8.286421
 11
319.248810
 21
8.286421
  0
LINE
  8
0
  6
CENTER
 10
325.092499
 20
3.473921
 11
325.092499
 21
13.973921
  0
CIRCLE
  8
0
  6
CONTINUOUS
 10
325.092499
 20
8.286421
 40
3.250000
  0
LINE
  8
0
  6
CENTER
 10
256.186310
 20
72.286423
 11
266.936310
 21
72.286423
  0
LINE
  8
0
  6
CENTER
 10
261.092499
 20
77.098923
 11
261.092499
 21
66.598923
  0
CIRCLE
  8
0
  6
CONTINUOUS
 10
261.092499
 20
72.286423
 40
3.250000
  0
LINE
  8
0
  6
CENTER
 10
256.186310
 20
8.286421
 11
266.936310
 21
8.286421
  0
LINE
  8
0
  6
CENTER
 10
261.092499
 20
3.473921
 11
261.092499
 21
13.973921
  0
CIRCLE
  8
0
  6
CONTINUOUS
 10
261.092499
 20
8.286421
 40
3.250000
  0
CIRCLE
  8
0
  6
CONTINUOUS
 10
293.092499
 20
51.286423
 40
17.750000
  0
LINE
  8
0
  6
CONTINUOUS
 10
285.592499
 20
53.286423
 11
285.592499
 21
49.286423
  0
LINE
  8
0
  6
CONTINUOUS
 10
289.592499
 20
49.286423
 11
289.592499
 21
53.286423
  0
LINE
  8
0
  6
CONTINUOUS
 10
289.592499
 20
53.286423
 11
285.592499
 21
53.286423
  0
LINE
  8
0
  6
CONTINUOUS
 10
289.592499
 20
49.286423
 11
285.592499
 21
49.286423
  0
ARC
  8
0
  6
CONTINUOUS
 10
293.092499
 20
51.286423
 40
6.000000
 50
-160.528793
 51
160.528793
  0
LINE
  8
0
  6
CENTER
 10
269.531250
 20
51.286423
 11
317.625000
 21
51.286423
  0
LINE
  8
0
  6
CONTINUOUS
 10
327.092499
 20
52.118622
 11
327.092499
 21
28.454262
  0
LINE
  8
0
  6
CONTINUOUS
 10
259.092499
 20
52.118622
 11
259.092499
 21
28.454250
  0
ARC
  8
0
  6
CONTINUOUS
 10
293.092499
 20
40.286423
 40
36.000000
 50
19.188120
 51
160.811905
  0
ARC
  8
0
  6
CONTINUOUS
 10
293.092499
 20
40.286423
 40
36.000000
 50
199.188095
 51
340.811890
  0
LINE
  8
0
  6
CONTINUOUS
 10
288.088196
 20
25.775831
 11
288.088196
 21
21.130001
  0
LINE
  8
0
  6
CONTINUOUS
 10
290.754913
 20
27.463331
 11
290.754913
 21
29.130001
  0
LINE
  8
0
  6
CONTINUOUS
 10
296.088196
 20
27.463331
 11
296.088196
 21
29.130001
  0
LINE
  8
0
  6
CONTINUOUS
 10
292.900696
 20
28.150831
 11
292.900696
 21
22.005001
  0
LINE
  8
0
  6
CONTINUOUS
 10
293.900696
 20
28.150831
 11
293.900696
 21
22.005001
  0
LINE
  8
0
  6
CONTINUOUS
 10
299.150696
 20
28.150831
 11
299.150696
 21
21.963331
  0
LINE
  8
0
  6
CONTINUOUS
 10
300.067413
 20
24.869581
 11
300.067413
 21
21.963331
  0
LINE
  8
0
  6
CONTINUOUS
 10
286.822815
 20
28.067501
 11
284.252899
 21
28.067501
  0
LINE
  8
0
  6
CONTINUOUS
 10
284.252899
 20
28.067501
 11
283.650696
 21
27.320822
  0
LINE
  8
0
  6
CONTINUOUS
 10
283.723114
 20
29.130001
 11
282.754913
 21
27.890150
  0
LINE
  8
0
  6
CONTINUOUS
 10
283.650696
 20
22.711941
 11
284.262512
 21
22.067501
  0
LINE
  8
0
  6
CONTINUOUS
 10
282.754913
 20
22.168100
 11
283.783691
 21
21.130001
  0
LINE
  8
0
  6
CONTINUOUS
 10
282.754913
 20
27.890150
 11
282.754913
 21
22.168100
  0
LINE
  8
0
  6
CONTINUOUS
 10
283.650696
 20
27.320822
 11
283.650696
 21
22.711941
  0
LINE
  8
0
  6
CONTINUOUS
 10
287.317413
 20
27.589420
 11
286.812805
 21
28.067501
  0
LINE
  8
0
  6
CONTINUOUS
 10
287.309387
 20
29.130001
 11
288.088196
 21
28.265661
  0
LINE
  8
0
  6
CONTINUOUS
 10
287.317413
 20
27.463331
 11
288.088196
 21
27.463331
  0
LINE
  8
0
  6
CONTINUOUS
 10
283.723114
 20
29.130001
 11
287.309387
 21
29.130001
  0
LINE
  8
0
  6
CONTINUOUS
 10
287.317413
 20
24.900831
 11
285.921600
 21
24.900831
  0
LINE
  8
0
  6
CONTINUOUS
 10
287.317413
 20
24.067501
 11
287.317413
 21
24.734171
  0
LINE
  8
0
  6
CONTINUOUS
 10
285.650696
 20
22.067501
 11
284.262512
 21
22.067501
  0
ARC
  8
0
  6
CONTINUOUS
 10
285.650696
 20
23.734152
 40
1.666667
 50
-89.999786
 51
0.000109
  0
LINE
  8
0
  6
CONTINUOUS
 10
287.317413
 20
21.767712
 11
287.317413
 21
21.130001
  0
LINE
  8
0
  6
CONTINUOUS
 10
288.088196
 20
28.265661
 11
288.088196
 21
27.463331
  0
LINE
  8
0
  6
CONTINUOUS
 10
287.317413
 20
24.900831
 11
287.317413
 21
23.734152
  0
LINE
  8
0
  6
CONTINUOUS
 10
285.921600
 20
25.775831
 11
285.921600
 21
24.900831
  0
LINE
  8
0
  6
CONTINUOUS
 10
287.317413
 20
21.130001
 11
288.088196
 21
21.130001
  0
LINE
  8
0
  6
CONTINUOUS
 10
287.317413
 20
21.767712
 11
286.557312
 21
21.130001
  0
LINE
  8
0
  6
CONTINUOUS
 10
293.900696
 20
22.005001
 11
294.234100
 21
22.005001
  0
LINE
  8
0
  6
CONTINUOUS
 10
292.504913
 20
22.005001
 11
292.504913
 21
21.130001
  0
LINE
  8
0
  6
CONTINUOUS
 10
294.234100
 20
22.005001
 11
294.234100
 21
21.130001
  0
LINE
  8
0
  6
CONTINUOUS
 10
295.531891
 20
27.463331
 11
296.088196
 21
27.463331
  0
LINE
  8
0
  6
CONTINUOUS
 10
290.754913
 20
27.463331
 11
291.346893
 21
27.463331
  0
LINE
  8
0
  6
CONTINUOUS
 10
290.754913
 20
29.130001
 11
296.088196
 21
29.130001
  0
LINE
  8
0
  6
CONTINUOUS
 10
292.504913
 20
21.130001
 11
294.234100
 21
21.130001
  0
LINE
  8
0
  6
CONTINUOUS
 10
292.504913
 20
22.005001
 11
292.900696
 21
22.005001
  0
ARC
  8
0
  6
CONTINUOUS
 10
301.952789
 20
26.994581
 40
2.135417
 50
-73.981873
 51
90.003510
  0
ARC
  8
0
  6
CONTINUOUS
 10
301.952789
 20
26.994581
 40
1.302750
 50
-82.585274
 51
62.411850
  0
LINE
  8
0
  6
CONTINUOUS
 10
298.754913
 20
29.130001
 11
301.952789
 21
29.130001
  0
LINE
  8
0
  6
CONTINUOUS
 10
298.754913
 20
29.130001
 11
298.754913
 21
28.150831
  0
LINE
  8
0
  6
CONTINUOUS
 10
300.067413
 20
28.150831
 11
300.067413
 21
25.702730
  0
LINE
  8
0
  6
CONTINUOUS
 10
302.542114
 20
24.942060
 11
303.863708
 21
21.963331
  0
LINE
  8
0
  6
CONTINUOUS
 10
301.774414
 20
24.869581
 11
303.025208
 21
21.963331
  0
LINE
  8
0
  6
CONTINUOUS
 10
298.754913
 20
21.963331
 11
299.150696
 21
21.963331
  0
LINE
  8
0
  6
CONTINUOUS
 10
300.067413
 20
21.963331
 11
300.432007
 21
21.963331
  0
LINE
  8
0
  6
CONTINUOUS
 10
300.432007
 20
21.130001
 11
298.754913
 21
21.130001
  0
LINE
  8
0
  6
CONTINUOUS
 10
302.859009
 20
21.963331
 11
303.025208
 21
21.963331
  0
LINE
  8
0
  6
CONTINUOUS
 10
303.863708
 20
21.963331
 11
304.088196
 21
21.963331
  0
LINE
  8
0
  6
CONTINUOUS
 10
302.859009
 20
21.130001
 11
304.088196
 21
21.130001
  0
LINE
  8
0
  6
CONTINUOUS
 10
304.088196
 20
21.963331
 11
304.088196
 21
21.130001
  0
LINE
  8
0
  6
CONTINUOUS
 10
302.859009
 20
21.963331
 11
302.859009
 21
21.130001
  0
LINE
  8
0
  6
CONTINUOUS
 10
300.432007
 20
21.963331
 11
300.432007
 21
21.130001
  0
LINE
  8
0
  6
CONTINUOUS
 10
298.754913
 20
21.963331
 11
298.754913
 21
21.130001
  0
LINE
  8
0
  6
CONTINUOUS
 10
291.633392
 20
28.150831
 11
291.346893
 21
27.463331
  0
LINE
  8
0
  6
CONTINUOUS
 10
295.290405
 20
28.150831
 11
295.531891
 21
27.463331
  0
LINE
  8
0
  6
CONTINUOUS
 10
293.900696
 20
28.150831
 11
295.290405
 21
28.150831
  0
LINE
  8
0
  6
CONTINUOUS
 10
292.900696
 20
28.150831
 11
291.633392
 21
28.150831
  0
LINE
  8
0
  6
CONTINUOUS
 10
298.754913
 20
28.150831
 11
299.150696
 21
28.150831
  0
LINE
  8
0
  6
CONTINUOUS
 10
300.067413
 20
28.150831
 11
302.556091
 21
28.149212
  0
LINE
  8
0
  6
CONTINUOUS
 10
287.317413
 20
27.589420
 11
287.317413
 21
27.463331
  0
LINE
  8
0
  6
CONTINUOUS
 10
283.783691
 20
21.130001
 11
286.557312
 21
21.130001
  0
LINE
  8
0
  6
CONTINUOUS
 10
300.067413
 20
25.702730
 11
302.120911
 21
25.702730
  0
LINE
  8
0
  6
CONTINUOUS
 10
300.067413
 20
24.869581
 11
301.774414
 21
24.869581
  0
LINE
  8
0
  6
CONTINUOUS
 10
285.921600
 20
25.775831
 11
288.088196
 21
25.775831
  0
LINE
  8
0
  6
CONTINUOUS
 10
316.092499
 20
90.786423
 11
316.092499
 21
77.884918
  0
LINE
  8
0
  6
CONTINUOUS
 10
270.092499
 20
90.786423
 11
270.092499
 21
77.884918
  0
LINE
  8
0
  6
CONTINUOUS
 10
270.092499
 20
91.786423
 11
270.092499
 21
97.769821
  0
LINE
  8
0
  6
CONTINUOUS
 10
315.842499
 20
95.786423
 11
315.842499
 21
97.225624
  0
LINE
  8
0
  6
CONTINUOUS
 10
310.342499
 20
95.786224
 11
310.342499
 21
97.225624
  0
LINE
  8
0
  6
CONTINUOUS
 10
315.842499
 20
96.486420
 11
310.342499
 21
96.486420
  0
ARC
  8
0
  6
CONTINUOUS
 10
313.092499
 20
91.486420
 40
7.000000
 50
73.041977
 51
106.956497
  0
ARC
  8
0
  6
CONTINUOUS
 10
311.342499
 20
97.225624
 40
1.000000
 50
106.956902
 51
180.000000
  0
ARC
  8
0
  6
CONTINUOUS
 10
314.842499
 20
97.225624
 40
1.000000
 50
0.000000
 51
73.041847
  0
LINE
  8
0
  6
CONTINUOUS
 10
315.592499
 20
90.786423
 11
315.592499
 21
91.786423
  0
LINE
  8
0
  6
CONTINUOUS
 10
316.092499
 20
91.786423
 11
316.092499
 21
97.769821
  0
LINE
  8
0
  6
CONTINUOUS
 10
315.842499
 20
95.786423
 11
310.092499
 21
95.786423
  0
ARC
  8
0
  6
CONTINUOUS
 10
293.092499
 20
91.286423
 40
4.250000
 50
196.601593
 51
343.398499
  0
ARC
  8
0
  6
CONTINUOUS
 10
298.123596
 20
89.786423
 40
1.000000
 50
90.000000
 51
163.398102
  0
ARC
  8
0
  6
CONTINUOUS
 10
288.061310
 20
89.786423
 40
1.000000
 50
16.601080
 51
90.000000
  0
LINE
  8
0
  6
CONTINUOUS
 10
298.123596
 20
90.786423
 11
316.092499
 21
90.786423
  0
LINE
  8
0
  6
CONTINUOUS
 10
297.312988
 20
91.786423
 11
316.092499
 21
91.786423
  0
LINE
  8
0
  6
CONTINUOUS
 10
288.872009
 20
91.786423
 11
270.092499
 21
91.786423
  0
LINE
  8
0
  6
CONTINUOUS
 10
288.061401
 20
90.786423
 11
270.092499
 21
90.786423
  0
LINE
  8
0
  6
CONTINUOUS
 10
270.592499
 20
90.786423
 11
270.592499
 21
91.786423
  0
ARC
  8
0
  6
CONTINUOUS
 10
293.092499
 20
91.286423
 40
3.250000
 50
186.756302
 51
353.243713
  0
ARC
  8
0
  6
CONTINUOUS
 10
297.312988
 20
90.786423
 40
1.000000
 50
90.000000
 51
173.243896
  0
ARC
  8
0
  6
CONTINUOUS
 10
288.872009
 20
90.786423
 40
1.000000
 50
6.756103
 51
90.000000
  0
ARC
  8
0
  6
CONTINUOUS
 10
293.092499
 20
91.286423
 40
6.000000
 50
4.780182
 51
175.219803
  0
ARC
  8
0
  6
CONTINUOUS
 10
293.092499
 20
91.286423
 40
6.000000
 50
184.780197
 51
355.219788
  0
LINE
  8
0
  6
CONTINUOUS
 10
309.592499
 20
98.272919
 11
309.592499
 21
96.286423
  0
ARC
  8
0
  6
CONTINUOUS
 10
293.092499
 20
-150.713562
 40
250.000000
 50
84.826019
 51
95.173981
  0
ARC
  8
0
  6
CONTINUOUS
 10
315.592499
 20
97.769821
 40
0.500000
 50
0.000000
 51
84.826019
  0
ARC
  8
0
  6
CONTINUOUS
 10
309.092499
 20
98.272919
 40
0.500000
 50
0.000000
 51
86.323196
  0
ARC
  8
0
  6
CONTINUOUS
 10
315.592499
 20
95.286423
 40
0.500000
 50
0.000000
 51
90.000000
  0
ARC
  8
0
  6
CONTINUOUS
 10
310.092499
 20
96.286423
 40
0.500000
 50
180.000000
 51
270.000000
  0
LINE
  8
0
  6
CONTINUOUS
 10
270.342499
 20
95.786423
 11
270.342499
 21
97.225624
  0
LINE
  8
0
  6
CONTINUOUS
 10
275.842499
 20
95.786224
 11
275.842499
 21
97.225624
  0
LINE
  8
0
  6
CONTINUOUS
 10
270.342499
 20
96.486420
 11
275.842499
 21
96.486420
  0
ARC
  8
0
  6
CONTINUOUS
 10
273.092499
 20
91.486420
 40
7.000000
 50
73.043503
 51
106.958000
  0
ARC
  8
0
  6
CONTINUOUS
 10
274.842499
 20
97.225624
 40
1.000000
 50
0.000000
 51
73.043098
  0
ARC
  8
0
  6
CONTINUOUS
 10
271.342499
 20
97.225624
 40
1.000000
 50
106.958199
 51
180.000000
  0
LINE
  8
0
  6
CONTINUOUS
 10
270.342499
 20
95.786423
 11
276.092499
 21
95.786423
  0
LINE
  8
0
  6
CONTINUOUS
 10
276.592499
 20
98.272919
 11
276.592499
 21
96.286423
  0
ARC
  8
0
  6
CONTINUOUS
 10
270.592499
 20
97.769821
 40
0.500000
 50
95.173981
 51
180.000000
  0
ARC
  8
0
  6
CONTINUOUS
 10
277.092499
 20
98.272919
 40
0.500000
 50
93.676804
 51
180.000000
  0
ARC
  8
0
  6
CONTINUOUS
 10
270.592499
 20
95.286423
 40
0.500000
 50
90.000000
 51
180.000000
  0
ARC
  8
0
  6
CONTINUOUS
 10
276.092499
 20
96.286423
 40
0.500000
 50
-90.000000
 51
0.000000
  0
LINE
  8
0
  6
CONTINUOUS
 10
177.092499
 20
53.286423
 11
177.092499
 21
49.286423
  0
LINE
  8
0
  6
CONTINUOUS
 10
167.592499
 20
222.634293
 11
167.592499
 21
146.634293
  0
LINE
  8
0
  6
CONTINUOUS
 10
53.592499
 20
222.634277
 11
167.592621
 21
222.634277
  0
LINE
  8
0
  6
CONTINUOUS
 10
53.592499
 20
146.634323
 11
167.592621
 21
146.634323
  0
LINE
  8
0
  6
CONTINUOUS
 10
159.592621
 20
220.634277
 11
159.592621
 21
207.634293
  0
ARC
  8
0
  6
CONTINUOUS
 10
161.592621
 20
220.634293
 40
2.000000
 50
90.000000
 51
180.000000
  0
ARC
  8
0
  6
CONTINUOUS
 10
161.592621
 20
148.634323
 40
2.000000
 50
180.000000
 51
270.000000
  0
LINE
  8
0
  6
CONTINUOUS
 10
53.592499
 20
207.634293
 11
159.592621
 21
207.634293
  0
LINE
  8
0
  6
CONTINUOUS
 10
53.592499
 20
161.634293
 11
159.592621
 21
161.634293
  0
LINE
  8
0
  6
CONTINUOUS
 10
159.592621
 20
161.634293
 11
159.592621
 21
148.634293
  0
LINE
  8
0
  6
CENTER
 10
-12.869844
 20
184.634293
 11
201.872498
 21
184.634293
  0
LINE
  8
0
  6
CONTINUOUS
 10
195.092499
 20
177.134293
 11
195.092499
 21
190.634293
  0
LINE
  8
0
  6
CONTINUOUS
 10
173.092499
 20
190.634293
 11
195.092499
 21
190.634293
  0
LINE
  8
0
  6
CONTINUOUS
 10
173.092499
 20
178.634293
 11
177.092499
 21
178.634293
  0
LINE
  8
0
  6
CONTINUOUS
 10
173.092499
 20
192.134293
 11
173.092499
 21
177.134293
  0
LINE
  8
0
  6
CONTINUOUS
 10
170.092499
 20
202.134293
 11
167.592499
 21
202.134293
  0
LINE
  8
0
  6
CONTINUOUS
 10
170.092499
 20
167.134293
 11
167.592499
 21
167.134293
  0
LINE
  8
0
  6
CONTINUOUS
 10
171.092499
 20
168.134293
 11
171.092499
 21
201.134293
  0
ARC
  8
0
  6
CONTINUOUS
 10
170.092499
 20
201.134293
 40
1.000000
 50
0.000000
 51
90.000000
  0
ARC
  8
0
  6
CONTINUOUS
 10
170.092499
 20
168.134293
 40
1.000000
 50
-90.000000
 51
0.000000
  0
LINE
  8
0
  6
CONTINUOUS
 10
171.092499
 20
192.134293
 11
173.092499
 21
192.134293
  0
LINE
  8
0
  6
CONTINUOUS
 10
171.092499
 20
177.134293
 11
173.092499
 21
177.134293
  0
LINE
  8
0
  6
CONTINUOUS
 10
177.092499
 20
177.134293
 11
195.092499
 21
177.134293
  0
LINE
  8
0
  6
CONTINUOUS
 10
177.092499
 20
178.977295
 11
177.092499
 21
177.134293
  0
LINE
  8
0
  6
CONTINUOUS
 10
177.092499
 20
178.977295
 11
195.092499
 21
178.977295
  0
LINE
  8
0
  6
DASHED
 10
159.592499
 20
219.884293
 11
167.592499
 21
219.884293
  0
LINE
  8
0
  6
DASHED
 10
159.592499
 20
213.384293
 11
167.592499
 21
213.384293
  0
LINE
  8
0
  6
CENTER
 10
154.592499
 20
216.634293
 11
171.342499
 21
216.634293
  0
LINE
  8
0
  6
DASHED
 10
159.592499
 20
155.884293
 11
167.592499
 21
155.884293
  0
LINE
  8
0
  6
CENTER
 10
156.342499
 20
152.634293
 11
172.092499
 21
152.634293
  0
LINE
  8
0
  6
DASHED
 10
159.592499
 20
149.384293
 11
167.592499
 21
149.384293
  0
LINE
  8
0
  6
CONTINUOUS
 10
24.592501
 20
3.878234
 11
24.592501
 21
9.641165
  0
LINE
  8
0
  6
CONTINUOUS
 10
24.592501
 20
4.036421
 11
23.153231
 21
4.036421
  0
LINE
  8
0
  6
CONTINUOUS
 10
24.592501
 20
9.536421
 11
23.153231
 21
9.536421
  0
LINE
  8
0
  6
CONTINUOUS
 10
23.892427
 20
4.036421
 11
23.892427
 21
9.536421
  0
ARC
  8
0
  6
CONTINUOUS
 10
28.892427
 20
6.786421
 40
7.000000
 50
163.043503
 51
196.957993
  0
ARC
  8
0
  6
CONTINUOUS
 10
23.153231
 20
8.536421
 40
1.000000
 50
90.000000
 51
163.043106
  0
ARC
  8
0
  6
CONTINUOUS
 10
23.153231
 20
5.036421
 40
1.000000
 50
196.958099
 51
270.000000
  0
LINE
  8
0
  6
CONTINUOUS
 10
-2.907500
 20
68.555405
 11
-2.907500
 21
12.718341
  0
LINE
  8
0
  6
CONTINUOUS
 10
24.592501
 20
54.286423
 11
23.153231
 21
54.286423
  0
LINE
  8
0
  6
CONTINUOUS
 10
24.592501
 20
59.786423
 11
23.153231
 21
59.786423
  0
LINE
  8
0
  6
CONTINUOUS
 10
23.892427
 20
54.286423
 11
23.892427
 21
59.786423
  0
ARC
  8
0
  6
CONTINUOUS
 10
28.892427
 20
57.036423
 40
7.000000
 50
163.043503
 51
196.957993
  0
ARC
  8
0
  6
CONTINUOUS
 10
23.153231
 20
58.786423
 40
1.000000
 50
90.000000
 51
163.043106
  0
ARC
  8
0
  6
CONTINUOUS
 10
23.153231
 20
55.286423
 40
1.000000
 50
196.958099
 51
270.000000
  0
LINE
  8
0
  6
CONTINUOUS
 10
24.592501
 20
61.627701
 11
28.592501
 21
61.627701
  0
LINE
  8
0
  6
CONTINUOUS
 10
24.592501
 20
48.221401
 11
28.592501
 21
48.221401
  0
LINE
  8
0
  6
CONTINUOUS
 10
28.592501
 20
70.825356
 11
28.592501
 21
3.286411
  0
LINE
  8
0
  6
CONTINUOUS
 10
52.066292
 20
78.326401
 11
53.592499
 21
78.286423
  0
ARC
  8
0
  6
CONTINUOUS
 10
52.092499
 20
79.326035
 40
1.000000
 50
180.000000
 51
268.499908
  0
LINE
  8
0
  6
CONTINUOUS
 10
30.592196
 20
10.786421
 11
38.592499
 21
10.786421
  0
LINE
  8
0
  6
CONTINUOUS
 10
21.092621
 20
78.786423
 11
38.592499
 21
78.786423
  0
LINE
  8
0
  6
CONTINUOUS
 10
39.592499
 20
9.786421
 11
39.592499
 21
3.140011
  0
ARC
  8
0
  6
CONTINUOUS
 10
38.592499
 20
9.786421
 40
1.000000
 50
0.000000
 51
90.000000
  0
LINE
  8
0
  6
CONTINUOUS
 10
39.592499
 20
70.286423
 11
39.592499
 21
77.786423
  0
ARC
  8
0
  6
CONTINUOUS
 10
38.592499
 20
77.786423
 40
1.000000
 50
0.000000
 51
90.000000
  0
LINE
  8
0
  6
CONTINUOUS
 10
38.592499
 20
70.786423
 11
38.592499
 21
77.786423
  0
LINE
  8
0
  6
CONTINUOUS
 10
39.592499
 20
70.786423
 11
37.613495
 21
70.786423
  0
LINE
  8
0
  6
CONTINUOUS
 10
39.592499
 20
77.786423
 11
37.613495
 21
77.786423
  0
ARC
  8
0
  6
CONTINUOUS
 10
44.992489
 20
74.286423
 40
8.999999
 50
163.399002
 51
196.601501
  0
ARC
  8
0
  6
CONTINUOUS
 10
37.613495
 20
72.086441
 40
1.300000
 50
196.601593
 51
270.000000
  0
ARC
  8
0
  6
CONTINUOUS
 10
37.613495
 20
76.486427
 40
1.300000
 50
90.000000
 51
163.399094
  0
LINE
  8
0
  6
CONTINUOUS
 10
39.592499
 20
9.904491
 11
39.592499
 21
2.786421
  0
LINE
  8
0
  6
CONTINUOUS
 10
38.592499
 20
9.786421
 11
38.592499
 21
2.786421
  0
LINE
  8
0
  6
CONTINUOUS
 10
39.592499
 20
9.786421
 11
37.613495
 21
9.786421
  0
LINE
  8
0
  6
CONTINUOUS
 10
39.592499
 20
2.786421
 11
37.613495
 21
2.786421
  0
ARC
  8
0
  6
CONTINUOUS
 10
44.992489
 20
6.286421
 40
8.999999
 50
-196.601501
 51
-163.399002
  0
ARC
  8
0
  6
CONTINUOUS
 10
37.613495
 20
8.486401
 40
1.300000
 50
-270.000000
 51
-196.601593
  0
ARC
  8
0
  6
CONTINUOUS
 10
37.613495
 20
4.086411
 40
1.300000
 50
-163.399094
 51
-90.000000
  0
LINE
  8
0
  6
CONTINUOUS
 10
53.592499
 20
2.286431
 11
53.592499
 21
78.286423
  0
LINE
  8
0
  6
CONTINUOUS
 10
53.592499
 20
70.535393
 11
39.592499
 21
70.535393
  0
LINE
  8
0
  6
CONTINUOUS
 10
53.592499
 20
10.037451
 11
39.592499
 21
10.037451
  0
LINE
  8
0
  6
CONTINUOUS
 10
51.092621
 20
79.326035
 11
51.092621
 21
90.786423
  0
LINE
  8
0
  6
CONTINUOUS
 10
3.943820
 20
87.736420
 11
19.092621
 21
87.736420
  0
LINE
  8
0
  6
CONTINUOUS
 10
53.092621
 20
96.286423
 11
53.092621
 21
91.786423
  0
LINE
  8
0
  6
CONTINUOUS
 10
19.092621
 20
91.786423
 11
53.092621
 21
91.786423
  0
LINE
  8
0
  6
CONTINUOUS
 10
19.092621
 20
90.786423
 11
53.092621
 21
90.786423
  0
LINE
  8
0
  6
CONTINUOUS
 10
19.092621
 20
96.286423
 11
19.092621
 21
91.786423
  0
LINE
  8
0
  6
CONTINUOUS
 10
4.795620
 20
95.436424
 11
19.092621
 21
95.436424
  0
ARC
  8
0
  6
CONTINUOUS
 10
36.092621
 20
-150.713562
 40
250.000000
 50
86.668304
 51
93.331696
  0
LINE
  8
0
  6
CONTINUOUS
 10
51.592621
 20
97.286423
 11
52.092621
 21
97.286423
  0
ARC
  8
0
  6
CONTINUOUS
 10
52.092621
 20
96.286423
 40
1.000000
 50
0.000000
 51
90.000000
  0
ARC
  8
0
  6
CONTINUOUS
 10
51.592621
 20
97.786423
 40
0.500000
 50
180.000000
 51
270.000000
  0
LINE
  8
0
  6
CONTINUOUS
 10
20.592621
 20
97.286423
 11
20.092621
 21
97.286423
  0
ARC
  8
0
  6
CONTINUOUS
 10
20.092621
 20
96.286423
 40
1.000000
 50
90.000000
 51
180.000000
  0
ARC
  8
0
  6
CONTINUOUS
 10
20.592621
 20
97.786423
 40
0.500000
 50
-90.000000
 51
0.000000
  0
LINE
  8
0
  6
CONTINUOUS
 10
21.092621
 20
73.944221
 11
21.092621
 21
90.786423
  0
LINE
  8
0
  6
CONTINUOUS
 10
20.592621
 20
85.286423
 11
20.092621
 21
85.286423
  0
ARC
  8
0
  6
CONTINUOUS
 10
20.092621
 20
86.286423
 40
1.000000
 50
-180.000000
 51
-90.000000
  0
ARC
  8
0
  6
CONTINUOUS
 10
20.592621
 20
84.786423
 40
0.500000
 50
0.000000
 51
90.000000
  0
LINE
  8
0
  6
CONTINUOUS
 10
51.592621
 20
85.286423
 11
52.092621
 21
85.286423
  0
ARC
  8
0
  6
CONTINUOUS
 10
52.092621
 20
86.286423
 40
1.000000
 50
-90.000000
 51
0.000000
  0
ARC
  8
0
  6
CONTINUOUS
 10
51.592621
 20
84.786423
 40
0.500000
 50
90.000000
 51
180.000000
  0
LINE
  8
0
  6
CENTER
 10
36.092499
 20
102.311935
 11
36.092621
 21
84.513123
  0
ARC
  8
0
  6
CONTINUOUS
 10
50.592621
 20
98.364738
 40
0.500000
 50
0.000000
 51
86.668304
  0
ARC
  8
0
  6
CONTINUOUS
 10
21.592621
 20
98.364738
 40
0.500000
 50
93.331696
 51
180.000000
  0
LINE
  8
0
  6
CONTINUOUS
 10
52.592621
 20
91.786423
 11
52.592621
 21
90.786423
  0
LINE
  8
0
  6
CONTINUOUS
 10
53.092621
 20
90.786423
 11
53.092621
 21
86.286423
  0
LINE
  8
0
  6
CONTINUOUS
 10
51.092621
 20
91.786423
 11
51.092621
 21
98.364738
  0
LINE
  8
0
  6
CONTINUOUS
 10
21.592621
 20
91.786423
 11
21.592621
 21
90.786423
  0
LINE
  8
0
  6
CONTINUOUS
 10
21.092621
 20
91.786423
 11
21.092621
 21
98.364738
  0
LINE
  8
0
  6
CONTINUOUS
 10
19.092621
 20
90.786423
 11
19.092621
 21
86.286423
  0
LINE
  8
0
  6
CONTINUOUS
 10
45.092621
 20
95.786423
 11
50.592621
 21
95.786423
  0
LINE
  8
0
  6
CONTINUOUS
 10
44.592621
 20
96.286423
 11
44.592621
 21
98.658150
  0
ARC
  8
0
  6
CONTINUOUS
 10
45.092621
 20
96.286423
 40
0.500000
 50
180.000000
 51
270.000000
  0
ARC
  8
0
  6
CONTINUOUS
 10
50.592621
 20
95.286423
 40
0.500000
 50
0.000000
 51
90.000000
  0
ARC
  8
0
  6
CONTINUOUS
 10
44.092621
 20
98.658150
 40
0.500000
 50
0.000000
 51
88.162544
  0
LINE
  8
0
  6
CONTINUOUS
 10
27.092379
 20
95.786423
 11
21.592379
 21
95.786423
  0
ARC
  8
0
  6
CONTINUOUS
 10
27.092379
 20
96.286423
 40
0.500000
 50
-90.000000
 51
0.000000
  0
ARC
  8
0
  6
CONTINUOUS
 10
21.592379
 20
95.286423
 40
0.500000
 50
90.000000
 51
180.000000
  0
LINE
  8
0
  6
CONTINUOUS
 10
27.592379
 20
96.286423
 11
27.592379
 21
98.658150
  0
ARC
  8
0
  6
CONTINUOUS
 10
28.092379
 20
98.658150
 40
0.500000
 50
91.837456
 51
180.000000
  0
LINE
  8
0
  6
CONTINUOUS
 10
45.342621
 20
95.786423
 11
45.342621
 21
97.225624
  0
LINE
  8
0
  6
CONTINUOUS
 10
50.842621
 20
95.786224
 11
50.842621
 21
97.225624
  0
LINE
  8
0
  6
CONTINUOUS
 10
45.342621
 20
96.486420
 11
50.842621
 21
96.486420
  0
ARC
  8
0
  6
CONTINUOUS
 10
48.092621
 20
91.486420
 40
7.000000
 50
73.043488
 51
106.958000
  0
ARC
  8
0
  6
CONTINUOUS
 10
49.842621
 20
97.225624
 40
1.000000
 50
0.000000
 51
73.043098
  0
ARC
  8
0
  6
CONTINUOUS
 10
46.342621
 20
97.225624
 40
1.000000
 50
106.958199
 51
180.000000
  0
LINE
  8
0
  6
CONTINUOUS
 10
21.342621
 20
95.786423
 11
21.342621
 21
97.225624
  0
LINE
  8
0
  6
CONTINUOUS
 10
26.842621
 20
95.786224
 11
26.842621
 21
97.225624
  0
LINE
  8
0
  6
CONTINUOUS
 10
21.342621
 20
96.486420
 11
26.842621
 21
96.486420
  0
ARC
  8
0
  6
CONTINUOUS
 10
24.092621
 20
91.486420
 40
7.000000
 50
73.043488
 51
106.958000
  0
ARC
  8
0
  6
CONTINUOUS
 10
25.842621
 20
97.225624
 40
1.000000
 50
0.000000
 51
73.043098
  0
ARC
  8
0
  6
CONTINUOUS
 10
22.342621
 20
97.225624
 40
1.000000
 50
106.958199
 51
180.000000
  0
LINE
  8
0
  6
CONTINUOUS
 10
27.618677
 20
71.825012
 11
23.040266
 21
71.944901
  0
ARC
  8
0
  6
CONTINUOUS
 10
23.092621
 20
73.944221
 40
2.000000
 50
180.000000
 51
268.500000
  0
LINE
  8
0
  6
CONTINUOUS
 10
30.592196
 20
2.687893
 11
53.592499
 21
2.286431
  0
ARC
  8
0
  6
CONTINUOUS
 10
40.092499
 20
3.022141
 40
0.500000
 50
180.000000
 51
269.000000
  0
LINE
  8
0
  6
CONTINUOUS
 10
39.092499
 20
69.786423
 11
30.592196
 21
69.786423
  0
ARC
  8
0
  6
CONTINUOUS
 10
39.092499
 20
70.286423
 40
0.500000
 50
-90.000000
 51
0.000000
  0
LINE
  8
0
  6
CONTINUOUS
 10
29.334091
 20
11.122955
 11
30.592196
 21
10.786421
  0
ARC
  8
0
  6
CONTINUOUS
 10
29.592501
 20
12.088991
 40
1.000000
 50
180.000000
 51
255.024384
  0
LINE
  8
0
  6
CONTINUOUS
 10
29.334091
 20
3.024427
 11
30.592196
 21
2.687893
  0
ARC
  8
0
  6
CONTINUOUS
 10
29.592501
 20
3.990463
 40
1.000000
 50
180.000000
 51
255.024384
  0
LINE
  8
0
  6
CONTINUOUS
 10
29.334091
 20
69.449890
 11
30.592196
 21
69.786423
  0
ARC
  8
0
  6
CONTINUOUS
 10
29.592501
 20
68.483849
 40
1.000000
 50
-255.024384
 51
-180.000000
  0
LINE
  8
0
  6
CONTINUOUS
 10
0.895660
 20
71.061134
 11
27.923784
 21
71.768890
  0
ARC
  8
0
  6
CONTINUOUS
 10
27.592501
 20
70.825356
 40
1.000000
 50
0.000000
 51
88.500000
  0
LINE
  8
0
  6
CONTINUOUS
 10
-0.665526
 20
70.767830
 11
-1.584328
 21
70.437401
  0
ARC
  8
0
  6
CONTINUOUS
 10
-0.907500
 20
68.555405
 40
2.000000
 50
109.780289
 51
180.000000
  0
LINE
  8
0
  6
CONTINUOUS
 10
25.079411
 20
3.378405
 11
28.592501
 21
3.286411
  0
ARC
  8
0
  6
CONTINUOUS
 10
29.592501
 20
12.088991
 40
1.000000
 50
180.000000
 51
255.024384
  0
LINE
  8
0
  6
CONTINUOUS
 10
0.895660
 20
10.261711
 11
28.592501
 21
9.536443
  0
LINE
  8
0
  6
CONTINUOUS
 10
-0.665526
 20
10.555011
 11
-1.584328
 21
10.885443
  0
ARC
  8
0
  6
CONTINUOUS
 10
-0.907500
 20
12.767437
 40
2.000000
 50
-180.000000
 51
-109.780289
  0
LINE
  8
0
  6
CONTINUOUS
 10
4.795620
 20
95.436424
 11
4.059820
 21
92.601318
  0
LINE
  8
0
  6
CONTINUOUS
 10
4.059820
 20
92.601318
 11
4.871920
 21
90.126320
  0
LINE
  8
0
  6
CONTINUOUS
 10
4.871920
 20
90.126320
 11
3.943820
 21
87.736420
  0
ARC
  8
0
  6
CONTINUOUS
 10
1.026545
 20
66.062843
 40
5.000000
 50
91.500000
 51
109.780289
  0
ARC
  8
0
  6
CONTINUOUS
 10
1.026545
 20
15.259997
 40
5.000000
 50
250.219711
 51
268.500000
  0
ARC
  8
0
  6
CONTINUOUS
 10
25.092501
 20
3.878234
 40
0.500000
 50
180.000000
 51
268.500000
  0
LINE
  8
0
  6
CONTINUOUS
 10
24.592501
 20
61.627701
 11
24.592501
 21
48.221401
  0
LINE
  8
0
  6
CENTER
 10
36.092499
 20
214.114914
 11
36.092499
 21
157.097794
  0
LINE
  8
0
  6
CONTINUOUS
 10
53.592499
 20
146.634323
 11
53.592499
 21
222.634277
  0
LINE
  8
0
  6
CONTINUOUS
 10
28.592501
 20
220.930191
 11
28.592501
 21
207.634293
  0
LINE
  8
0
  6
CONTINUOUS
 10
28.592501
 20
148.338394
 11
28.592501
 21
161.634293
  0
LINE
  8
0
  6
CONTINUOUS
 10
30.592199
 20
147.035797
 11
53.592499
 21
146.634323
  0
LINE
  8
0
  6
CONTINUOUS
 10
29.334101
 20
147.372391
 11
30.592199
 21
147.035797
  0
ARC
  8
0
  6
CONTINUOUS
 10
29.592501
 20
148.338394
 40
1.000000
 50
180.000000
 51
255.025604
  0
LINE
  8
0
  6
CONTINUOUS
 10
30.592199
 20
222.232697
 11
53.592499
 21
222.634277
  0
LINE
  8
0
  6
CONTINUOUS
 10
29.334101
 20
221.896194
 11
30.592199
 21
222.232697
  0
ARC
  8
0
  6
CONTINUOUS
 10
29.592501
 20
220.930191
 40
1.000000
 50
-255.025604
 51
-180.000000
  0
LINE
  8
0
  6
CONTINUOUS
 10
21.092400
 20
163.634293
 11
21.092400
 21
205.634293
  0
LINE
  8
0
  6
CONTINUOUS
 10
51.092499
 20
205.634293
 11
51.092499
 21
163.634293
  0
LINE
  8
0
  6
CONTINUOUS
 10
53.092499
 20
189.634293
 11
53.092499
 21
179.634293
  0
LINE
  8
0
  6
CONTINUOUS
 10
19.092501
 20
189.634293
 11
19.092501
 21
179.634293
  0
ARC
  8
0
  6
CONTINUOUS
 10
24.092501
 20
164.634293
 40
3.500000
 50
0.000000
 51
90.000000
  0
LINE
  8
0
  6
CONTINUOUS
 10
22.092400
 20
168.134293
 11
24.092501
 21
168.134293
  0
LINE
  8
0
  6
CONTINUOUS
 10
27.592501
 20
162.634293
 11
27.592501
 21
164.634293
  0
ARC
  8
0
  6
CONTINUOUS
 10
22.092400
 20
169.134293
 40
1.000000
 50
180.000000
 51
270.000000
  0
ARC
  8
0
  6
CONTINUOUS
 10
48.092499
 20
164.634293
 40
3.500000
 50
90.000000
 51
180.000000
  0
LINE
  8
0
  6
CONTINUOUS
 10
44.592499
 20
162.634293
 11
44.592499
 21
164.634293
  0
LINE
  8
0
  6
CONTINUOUS
 10
50.092602
 20
168.134293
 11
48.092499
 21
168.134293
  0
ARC
  8
0
  6
CONTINUOUS
 10
50.092602
 20
169.134293
 40
1.000000
 50
-90.000000
 51
0.000000
  0
LINE
  8
0
  6
CONTINUOUS
 10
49.092499
 20
161.634293
 11
23.092400
 21
161.634293
  0
ARC
  8
0
  6
CONTINUOUS
 10
43.592499
 20
162.634293
 40
1.000000
 50
-90.000000
 51
0.000000
  0
ARC
  8
0
  6
CONTINUOUS
 10
28.592501
 20
162.634293
 40
1.000000
 50
180.000000
 51
270.000000
  0
ARC
  8
0
  6
CONTINUOUS
 10
23.092400
 20
163.634293
 40
2.000000
 50
180.000000
 51
270.000000
  0
ARC
  8
0
  6
CONTINUOUS
 10
49.092499
 20
163.634293
 40
2.000000
 50
-90.000000
 51
0.000000
  0
ARC
  8
0
  6
CONTINUOUS
 10
24.092501
 20
204.634293
 40
3.500000
 50
-90.000000
 51
0.000000
  0
LINE
  8
0
  6
CONTINUOUS
 10
22.092400
 20
201.134293
 11
24.092501
 21
201.134293
  0
LINE
  8
0
  6
CONTINUOUS
 10
27.592501
 20
206.634293
 11
27.592501
 21
204.634293
  0
ARC
  8
0
  6
CONTINUOUS
 10
22.092400
 20
200.134293
 40
1.000000
 50
-270.000000
 51
-180.000000
  0
ARC
  8
0
  6
CONTINUOUS
 10
48.092499
 20
204.634293
 40
3.500000
 50
-180.000000
 51
-90.000000
  0
LINE
  8
0
  6
CONTINUOUS
 10
44.592499
 20
206.634293
 11
44.592499
 21
204.634293
  0
LINE
  8
0
  6
CONTINUOUS
 10
50.092602
 20
201.134293
 11
48.092499
 21
201.134293
  0
ARC
  8
0
  6
CONTINUOUS
 10
50.092602
 20
200.134293
 40
1.000000
 50
0.000000
 51
90.000000
  0
LINE
  8
0
  6
CONTINUOUS
 10
49.092499
 20
207.634293
 11
23.092400
 21
207.634293
  0
ARC
  8
0
  6
CONTINUOUS
 10
43.592499
 20
206.634293
 40
1.000000
 50
0.000000
 51
90.000000
  0
ARC
  8
0
  6
CONTINUOUS
 10
28.592501
 20
206.634293
 40
1.000000
 50
-270.000000
 51
-180.000000
  0
ARC
  8
0
  6
CONTINUOUS
 10
23.092400
 20
205.634293
 40
2.000000
 50
-270.000000
 51
-180.000000
  0
ARC
  8
0
  6
CONTINUOUS
 10
49.092499
 20
205.634293
 40
2.000000
 50
0.000000
 51
90.000000
  0
LINE
  8
0
  6
CONTINUOUS
 10
20.592501
 20
190.634293
 11
20.092501
 21
190.634293
  0
ARC
  8
0
  6
CONTINUOUS
 10
20.092501
 20
189.634293
 40
1.000000
 50
90.000000
 51
180.000000
  0
ARC
  8
0
  6
CONTINUOUS
 10
20.592501
 20
191.134293
 40
0.500000
 50
-90.000000
 51
0.000000
  0
LINE
  8
0
  6
CONTINUOUS
 10
20.592501
 20
178.634293
 11
20.092501
 21
178.634293
  0
ARC
  8
0
  6
CONTINUOUS
 10
20.092501
 20
179.634293
 40
1.000000
 50
-180.000000
 51
-90.000000
  0
ARC
  8
0
  6
CONTINUOUS
 10
20.592501
 20
178.134293
 40
0.500000
 50
0.000000
 51
90.000000
  0
LINE
  8
0
  6
CONTINUOUS
 10
51.592499
 20
190.634293
 11
52.092499
 21
190.634293
  0
ARC
  8
0
  6
CONTINUOUS
 10
52.092499
 20
189.634293
 40
1.000000
 50
0.000000
 51
90.000000
  0
ARC
  8
0
  6
CONTINUOUS
 10
51.592499
 20
191.134293
 40
0.500000
 50
180.000000
 51
270.000000
  0
LINE
  8
0
  6
CONTINUOUS
 10
51.592499
 20
178.634293
 11
52.092499
 21
178.634293
  0
ARC
  8
0
  6
CONTINUOUS
 10
52.092499
 20
179.634293
 40
1.000000
 50
-90.000000
 51
0.000000
  0
ARC
  8
0
  6
CONTINUOUS
 10
51.592499
 20
178.134293
 40
0.500000
 50
90.000000
 51
180.000000
  0
LINE
  8
0
  6
CONTINUOUS
 10
49.470184
 20
207.598312
 11
53.592499
 21
207.634293
  0
LINE
  8
0
  6
CONTINUOUS
 10
49.470184
 20
161.670288
 11
53.592499
 21
161.634293
  0
LINE
  8
0
  6
CONTINUOUS
 10
25.842501
 20
165.034286
 11
25.842501
 21
164.234268
  0
LINE
  8
0
  6
CONTINUOUS
 10
23.692476
 20
166.384293
 11
24.492495
 21
166.384293
  0
LINE
  8
0
  6
CONTINUOUS
 10
23.692476
 20
162.884293
 11
24.492495
 21
162.884293
  0
LINE
  8
0
  6
CONTINUOUS
 10
22.342501
 20
165.034286
 11
22.342501
 21
164.234268
  0
CIRCLE
  8
0
  6
CONTINUOUS
 10
24.092501
 20
164.634293
 40
2.750000
  0
ARC
  8
0
  6
CONTINUOUS
 10
22.342501
 20
166.384293
 40
1.350000
 50
-90.000000
 51
0.000000
  0
ARC
  8
0
  6
CONTINUOUS
 10
22.342501
 20
162.884293
 40
1.350000
 50
0.000000
 51
90.000000
  0
ARC
  8
0
  6
CONTINUOUS
 10
25.842501
 20
166.384293
 40
1.350000
 50
180.000000
 51
270.000000
  0
ARC
  8
0
  6
CONTINUOUS
 10
25.842501
 20
162.884293
 40
1.350000
 50
90.000000
 51
180.000000
  0
LINE
  8
0
  6
CONTINUOUS
 10
49.842499
 20
165.034286
 11
49.842499
 21
164.234268
  0
LINE
  8
0
  6
CONTINUOUS
 10
47.692474
 20
166.384293
 11
48.492493
 21
166.384293
  0
LINE
  8
0
  6
CONTINUOUS
 10
47.692474
 20
162.884293
 11
48.492493
 21
162.884293
  0
LINE
  8
0
  6
CONTINUOUS
 10
46.342499
 20
165.034286
 11
46.342499
 21
164.234268
  0
CIRCLE
  8
0
  6
CONTINUOUS
 10
48.092499
 20
164.634293
 40
2.750000
  0
ARC
  8
0
  6
CONTINUOUS
 10
46.342499
 20
166.384293
 40
1.350000
 50
-90.000000
 51
0.000000
  0
ARC
  8
0
  6
CONTINUOUS
 10
46.342499
 20
162.884293
 40
1.350000
 50
0.000000
 51
90.000000
  0
ARC
  8
0
  6
CONTINUOUS
 10
49.842499
 20
166.384293
 40
1.350000
 50
180.000000
 51
270.000000
  0
ARC
  8
0
  6
CONTINUOUS
 10
49.842499
 20
162.884293
 40
1.350000
 50
90.000000
 51
180.000000
  0
LINE
  8
0
  6
CONTINUOUS
 10
49.842499
 20
205.034286
 11
49.842499
 21
204.234268
  0
LINE
  8
0
  6
CONTINUOUS
 10
47.692474
 20
206.384293
 11
48.492493
 21
206.384293
  0
LINE
  8
0
  6
CONTINUOUS
 10
47.692474
 20
202.884293
 11
48.492493
 21
202.884293
  0
LINE
  8
0
  6
CONTINUOUS
 10
46.342499
 20
205.034286
 11
46.342499
 21
204.234268
  0
CIRCLE
  8
0
  6
CONTINUOUS
 10
48.092499
 20
204.634293
 40
2.750000
  0
ARC
  8
0
  6
CONTINUOUS
 10
46.342499
 20
206.384293
 40
1.350000
 50
-90.000000
 51
0.000000
  0
ARC
  8
0
  6
CONTINUOUS
 10
46.342499
 20
202.884293
 40
1.350000
 50
0.000000
 51
90.000000
  0
ARC
  8
0
  6
CONTINUOUS
 10
49.842499
 20
206.384293
 40
1.350000
 50
180.000000
 51
270.000000
  0
ARC
  8
0
  6
CONTINUOUS
 10
49.842499
 20
202.884293
 40
1.350000
 50
90.000000
 51
180.000000
  0
LINE
  8
0
  6
CONTINUOUS
 10
25.842501
 20
205.034286
 11
25.842501
 21
204.234268
  0
LINE
  8
0
  6
CONTINUOUS
 10
23.692476
 20
206.384293
 11
24.492495
 21
206.384293
  0
LINE
  8
0
  6
CONTINUOUS
 10
23.692476
 20
202.884293
 11
24.492495
 21
202.884293
  0
LINE
  8
0
  6
CONTINUOUS
 10
22.342501
 20
205.034286
 11
22.342501
 21
204.234268
  0
CIRCLE
  8
0
  6
CONTINUOUS
 10
24.092501
 20
204.634293
 40
2.750000
  0
ARC
  8
0
  6
CONTINUOUS
 10
22.342501
 20
206.384293
 40
1.350000
 50
-90.000000
 51
0.000000
  0
ARC
  8
0
  6
CONTINUOUS
 10
22.342501
 20
202.884293
 40
1.350000
 50
0.000000
 51
90.000000
  0
ARC
  8
0
  6
CONTINUOUS
 10
25.842501
 20
206.384293
 40
1.350000
 50
180.000000
 51
270.000000
  0
ARC
  8
0
  6
CONTINUOUS
 10
25.842501
 20
202.884293
 40
1.350000
 50
90.000000
 51
180.000000
  0
LINE
  8
0
  6
CONTINUOUS
 10
3.943820
 20
180.784302
 11
19.092621
 21
180.784302
  0
LINE
  8
0
  6
CONTINUOUS
 10
4.795620
 20
188.484299
 11
4.059820
 21
185.649200
  0
LINE
  8
0
  6
CONTINUOUS
 10
4.059820
 20
185.649200
 11
4.871920
 21
183.174194
  0
LINE
  8
0
  6
CONTINUOUS
 10
4.871920
 20
183.174194
 11
3.943820
 21
180.784302
  0
LINE
  8
0
  6
CONTINUOUS
 10
4.795620
 20
188.484299
 11
19.092621
 21
188.484299
  0
LINE
  8
0
  6
CONTINUOUS
 10
0.836598
 20
215.407486
 11
22.334536
 21
215.970428
  0
LINE
  8
0
  6
CONTINUOUS
 10
-2.907500
 20
212.946472
 11
-2.907500
 21
156.322113
  0
LINE
  8
0
  6
CONTINUOUS
 10
-1.539956
 20
214.843842
 11
-0.613656
 21
215.152618
  0
ARC
  8
0
  6
CONTINUOUS
 10
0.967483
 20
210.409195
 40
5.000000
 50
91.500000
 51
108.434952
  0
ARC
  8
0
  6
CONTINUOUS
 10
-0.907500
 20
212.946472
 40
2.000000
 50
108.434952
 51
180.000000
  0
LINE
  8
0
  6
CONTINUOUS
 10
-1.539956
 20
154.424744
 11
-0.613656
 21
154.115982
  0
ARC
  8
0
  6
CONTINUOUS
 10
0.967483
 20
158.859390
 40
5.000000
 50
-108.434952
 51
-91.500000
  0
ARC
  8
0
  6
CONTINUOUS
 10
-0.907500
 20
156.322113
 40
2.000000
 50
-180.000000
 51
-108.434952
  0
LINE
  8
0
  6
CONTINUOUS
 10
0.836598
 20
153.861115
 11
22.334536
 21
153.298172
  0
LINE
  8
0
  6
CONTINUOUS
 10
24.592501
 20
152.157181
 11
24.592501
 21
161.634293
  0
LINE
  8
0
  6
CONTINUOUS
 10
25.079416
 20
151.657349
 11
28.592501
 21
151.565384
  0
ARC
  8
0
  6
CONTINUOUS
 10
25.092501
 20
152.157181
 40
0.500000
 50
180.000000
 51
268.500519
  0
LINE
  8
0
  6
CONTINUOUS
 10
24.592501
 20
152.872391
 11
23.153231
 21
152.872391
  0
LINE
  8
0
  6
CONTINUOUS
 10
24.592501
 20
158.372391
 11
23.153231
 21
158.372391
  0
LINE
  8
0
  6
CONTINUOUS
 10
23.892427
 20
152.872391
 11
23.892427
 21
158.372391
  0
ARC
  8
0
  6
CONTINUOUS
 10
28.892427
 20
155.622391
 40
7.000000
 50
163.043503
 51
196.957993
  0
ARC
  8
0
  6
CONTINUOUS
 10
23.153231
 20
157.372391
 40
1.000000
 50
90.000000
 51
163.043106
  0
ARC
  8
0
  6
CONTINUOUS
 10
23.153231
 20
153.872391
 40
1.000000
 50
196.958099
 51
270.000000
  0
LINE
  8
0
  6
CONTINUOUS
 10
24.592501
 20
217.111420
 11
24.592501
 21
207.634293
  0
LINE
  8
0
  6
CONTINUOUS
 10
25.079416
 20
217.611237
 11
28.592501
 21
217.703201
  0
ARC
  8
0
  6
CONTINUOUS
 10
25.092501
 20
217.111420
 40
0.500000
 50
-268.500519
 51
-180.000000
  0
LINE
  8
0
  6
CONTINUOUS
 10
24.592501
 20
216.396194
 11
23.153231
 21
216.396194
  0
LINE
  8
0
  6
CONTINUOUS
 10
24.592501
 20
210.896194
 11
23.153231
 21
210.896194
  0
LINE
  8
0
  6
CONTINUOUS
 10
23.892427
 20
216.396194
 11
23.892427
 21
210.896194
  0
ARC
  8
0
  6
CONTINUOUS
 10
28.892427
 20
213.646194
 40
7.000000
 50
-196.957993
 51
-163.043503
  0
ARC
  8
0
  6
CONTINUOUS
 10
23.153231
 20
211.896194
 40
1.000000
 50
-163.043106
 51
-90.000000
  0
ARC
  8
0
  6
CONTINUOUS
 10
23.153231
 20
215.396194
 40
1.000000
 50
-270.000000
 51
-196.958099
  0
LINE
  8
0
  6
CONTINUOUS
 10
24.592501
 20
60.010212
 11
-2.907500
 21
59.290115
  0
LINE
  8
0
  6
CONTINUOUS
 10
24.592501
 20
54.062630
 11
-2.907500
 21
54.782726
  0
LINE
  8
0
  6
CONTINUOUS
 10
21.898054
 20
213.365585
 11
-2.907500
 21
212.716003
  0
LINE
  8
0
  6
CONTINUOUS
 10
24.592501
 20
209.830505
 11
-2.907500
 21
210.550629
  0
LINE
  8
0
  6
CONTINUOUS
 10
24.592501
 20
159.438095
 11
-2.907500
 21
158.717972
  0
LINE
  8
0
  6
CONTINUOUS
 10
21.898054
 20
155.903000
 11
-2.907500
 21
156.552582
  0
TEXT
  8
0
 10
-13.000000
 20
-1.000000
 40
4.000000
 41
1.000000
  1
GFV-12-5~120-T25
 50
0.000000
  0
ENDSEC
  0
EOF
