  0
SECTION
  2
HEADER
  9
$CLAYER
  8
1
  9
$LTSCALE
 40
3.0
  0
ENDSEC
  0
SECTION
  2
TABLES
  0
TABLE
  2
LTYPE
 70
     4
  0
LTYPE
  2
CONTINUOUS
  3
solid line
 70
    64
 72
    65
 73
     0
 40
0.0
  0
LTYPE
  2
DASHED
  3
__ __ __ __ __ __ __ __ __ __ __ __ __ __ __
 70
    64
 72
    65
 73
     2
 40
0.75
 49
0.5
 49
-0.25
  0
LTYPE
  2
CENTER
  3
____ _ ____ _ ____ _ ____ _ ____ _ ____ _ ____
 70
    64
 72
    65
 73
     4
 40
2.0
 49
1.25
 49
-0.25
 49
0.25
 49
-0.25
  0
LTYPE
  2
PHANTOM
  3
_____ _ _ _____ _ _ _____ _ _ _____ _ _ ____
 70
    64
 72
    65
 73
     6
 40
2.5
 49
1.25
 49
-0.25
 49
0.25
 49
-0.25
 49
0.25
 49
-0.25
  0
ENDTAB
  0
TABLE
  2
LAYER
 70
     1
  0
LAYER
  2
0
 70
    64
 62
     7
  6
CONTINUOUS
  0
ENDTAB
  0
TABLE
  2
STYLE
 70
     1
  0
STYLE
  2
STANDARD
 70
     0
 40
0.000000
 41
1.000000
 50
0.000000
 71
     0
 42
3.000000
  3
txt
  4
BIGFONT
  0
ENDTAB
  0
ENDSEC
  0
SECTION
  2
BLOCKS
  0
ENDSEC
  0
SECTION
  2
ENTITIES
  0
LINE
  8
0
  6
CONTINUOUS
 10
177.742493
 20
97.386299
 11
177.742493
 21
7.386320
  0
LINE
  8
0
  6
CONTINUOUS
 10
168.742493
 20
95.386299
 11
168.742493
 21
9.386320
  0
LINE
  8
0
  6
CONTINUOUS
 10
58.742500
 20
97.386299
 11
177.742493
 21
97.386299
  0
LINE
  8
0
  6
CONTINUOUS
 10
58.742500
 20
7.386320
 11
177.742493
 21
7.386320
  0
LINE
  8
0
  6
CONTINUOUS
 10
180.742493
 20
85.386299
 11
177.742493
 21
85.386299
  0
LINE
  8
0
  6
CONTINUOUS
 10
180.742493
 20
45.386299
 11
177.742493
 21
45.386299
  0
LINE
  8
0
  6
CONTINUOUS
 10
181.742493
 20
46.386299
 11
181.742493
 21
84.386299
  0
ARC
  8
0
  6
CONTINUOUS
 10
180.742493
 20
84.386299
 40
1.000000
 50
0.000000
 51
90.000000
  0
ARC
  8
0
  6
CONTINUOUS
 10
180.742493
 20
46.386299
 40
1.000000
 50
-90.000000
 51
0.000000
  0
ARC
  8
0
  6
CONTINUOUS
 10
180.742493
 20
46.386299
 40
1.000000
 50
-90.000000
 51
0.000000
  0
LINE
  8
0
  6
CONTINUOUS
 10
183.742493
 20
73.886299
 11
183.742493
 21
56.886299
  0
LINE
  8
0
  6
CONTINUOUS
 10
210.742493
 20
72.886299
 11
210.742493
 21
57.886299
  0
LINE
  8
0
  6
CONTINUOUS
 10
183.742493
 20
72.886299
 11
210.742493
 21
72.886299
  0
LINE
  8
0
  6
CONTINUOUS
 10
183.742493
 20
57.886299
 11
210.742493
 21
57.886299
  0
LINE
  8
0
  6
CONTINUOUS
 10
181.742493
 20
73.886299
 11
183.742493
 21
73.886299
  0
LINE
  8
0
  6
CONTINUOUS
 10
181.742493
 20
56.886299
 11
183.742493
 21
56.886299
  0
LINE
  8
0
  6
CONTINUOUS
 10
189.242493
 20
67.886299
 11
210.742493
 21
67.886299
  0
LINE
  8
0
  6
CONTINUOUS
 10
189.242493
 20
62.886299
 11
210.742493
 21
62.886299
  0
ARC
  8
0
  6
CONTINUOUS
 10
189.242493
 20
65.386299
 40
2.500000
 50
90.000000
 51
180.000000
  0
ARC
  8
0
  6
CONTINUOUS
 10
189.242493
 20
65.386299
 40
2.500000
 50
180.000000
 51
270.000000
  0
LINE
  8
0
  6
CENTER
 10
-13.639219
 20
52.386299
 11
185.452393
 21
52.386299
  0
LINE
  8
0
  6
DASHED
 10
168.742493
 20
93.636299
 11
177.742493
 21
93.636299
  0
LINE
  8
0
  6
DASHED
 10
168.742493
 20
87.136299
 11
177.742493
 21
87.136299
  0
LINE
  8
0
  6
DASHED
 10
168.742493
 20
17.636299
 11
177.742493
 21
17.636299
  0
LINE
  8
0
  6
DASHED
 10
168.742493
 20
11.136320
 11
177.742493
 21
11.136320
  0
LINE
  8
0
  6
CENTER
 10
166.942505
 20
90.386299
 11
179.422501
 21
90.386299
  0
LINE
  8
0
  6
CENTER
 10
165.742493
 20
14.386300
 11
180.622498
 21
14.386300
  0
LINE
  8
0
  6
CENTER
 10
144.502502
 20
65.386299
 11
217.484802
 21
65.386299
  0
LINE
  8
0
  6
CONTINUOUS
 10
58.742500
 20
86.795601
 11
168.238403
 21
86.795601
  0
LINE
  8
0
  6
CONTINUOUS
 10
58.742500
 20
17.976999
 11
168.238403
 21
17.976999
  0
ARC
  8
0
  6
CONTINUOUS
 10
170.742493
 20
95.386299
 40
2.000000
 50
90.000000
 51
180.000000
  0
ARC
  8
0
  6
CONTINUOUS
 10
170.742493
 20
9.386320
 40
2.000000
 50
180.000000
 51
270.000000
  0
LINE
  8
0
  6
CENTER
 10
312.242493
 20
4.472500
 11
312.242493
 21
127.552811
  0
LINE
  8
0
  6
CENTER
 10
259.538696
 20
52.386299
 11
366.305298
 21
52.386299
  0
LINE
  8
0
  6
CONTINUOUS
 10
267.242493
 20
13.085130
 11
267.242493
 21
91.687202
  0
LINE
  8
0
  6
CONTINUOUS
 10
357.242493
 20
13.085280
 11
357.242493
 21
91.687401
  0
LINE
  8
0
  6
CONTINUOUS
 10
352.329712
 20
96.686600
 11
312.242493
 21
97.386299
  0
LINE
  8
0
  6
CONTINUOUS
 10
352.329712
 20
8.086050
 11
312.242493
 21
7.386320
  0
LINE
  8
0
  6
CONTINUOUS
 10
272.155212
 20
96.686401
 11
312.242493
 21
97.386299
  0
LINE
  8
0
  6
CONTINUOUS
 10
272.155304
 20
8.085890
 11
312.242493
 21
7.386320
  0
ARC
  8
0
  6
CONTINUOUS
 10
352.242493
 20
91.687302
 40
5.000000
 50
0.000000
 51
89.000092
  0
ARC
  8
0
  6
CONTINUOUS
 10
272.242493
 20
91.687202
 40
5.000000
 50
91.000610
 51
180.000000
  0
ARC
  8
0
  6
CONTINUOUS
 10
272.242493
 20
13.085160
 40
5.000000
 50
180.000000
 51
269.000488
  0
ARC
  8
0
  6
CONTINUOUS
 10
352.242493
 20
13.085280
 40
5.000000
 50
-88.999817
 51
0.000000
  0
CIRCLE
  8
0
  6
CONTINUOUS
 10
350.242493
 20
90.386299
 40
3.250000
  0
CIRCLE
  8
0
  6
CONTINUOUS
 10
274.242493
 20
90.386299
 40
3.250000
  0
CIRCLE
  8
0
  6
CONTINUOUS
 10
350.242493
 20
14.386300
 40
3.250000
  0
CIRCLE
  8
0
  6
CONTINUOUS
 10
274.242493
 20
14.386300
 40
3.250000
  0
CIRCLE
  8
0
  6
CONTINUOUS
 10
312.242493
 20
65.386299
 40
20.000000
  0
LINE
  8
0
  6
CONTINUOUS
 10
352.242493
 20
66.747704
 11
352.242493
 21
38.024899
  0
ARC
  8
0
  6
CONTINUOUS
 10
312.242493
 20
52.386299
 40
42.500000
 50
270.000000
 51
340.250092
  0
ARC
  8
0
  6
CONTINUOUS
 10
312.242493
 20
52.386299
 40
42.500000
 50
19.749901
 51
90.000000
  0
LINE
  8
0
  6
CONTINUOUS
 10
272.242493
 20
66.747704
 11
272.242493
 21
38.024899
  0
ARC
  8
0
  6
CONTINUOUS
 10
312.242493
 20
52.386299
 40
42.500000
 50
-160.250107
 51
-90.000000
  0
ARC
  8
0
  6
CONTINUOUS
 10
312.242493
 20
52.386299
 40
42.500000
 50
90.000000
 51
160.250107
  0
LINE
  8
0
  6
CENTER
 10
350.242493
 20
96.180099
 11
350.242493
 21
84.630096
  0
LINE
  8
0
  6
CENTER
 10
350.242493
 20
9.292570
 11
350.242493
 21
19.923800
  0
LINE
  8
0
  6
CENTER
 10
274.242493
 20
95.917603
 11
274.242493
 21
83.842598
  0
LINE
  8
0
  6
CENTER
 10
274.242493
 20
9.292570
 11
274.242493
 21
20.317600
  0
LINE
  8
0
  6
CENTER
 10
269.192505
 20
14.386300
 11
278.904999
 21
14.386300
  0
LINE
  8
0
  6
CENTER
 10
356.473785
 20
14.386300
 11
344.661285
 21
14.386300
  0
LINE
  8
0
  6
CENTER
 10
268.667511
 20
90.386299
 11
279.692505
 21
90.386299
  0
LINE
  8
0
  6
CENTER
 10
356.211304
 20
90.386299
 11
344.661285
 21
90.386299
  0
LINE
  8
0
  6
CONTINUOUS
 10
302.742493
 20
67.886299
 11
307.742493
 21
67.886299
  0
LINE
  8
0
  6
CONTINUOUS
 10
302.742493
 20
62.886299
 11
307.742493
 21
62.886299
  0
LINE
  8
0
  6
CONTINUOUS
 10
302.742493
 20
67.886299
 11
302.742493
 21
62.886299
  0
LINE
  8
0
  6
CONTINUOUS
 10
307.742493
 20
62.886299
 11
307.742493
 21
67.886299
  0
ARC
  8
0
  6
CONTINUOUS
 10
312.242493
 20
65.386299
 40
7.500000
 50
-160.528793
 51
160.528793
  0
LINE
  8
0
  6
CENTER
 10
284.480621
 20
65.386299
 11
339.635010
 21
65.386299
  0
LINE
  8
0
  6
CONTINUOUS
 10
305.867493
 20
34.939499
 11
305.867493
 21
29.386299
  0
LINE
  8
0
  6
CONTINUOUS
 10
309.054993
 20
36.956600
 11
309.054993
 21
38.948799
  0
LINE
  8
0
  6
CONTINUOUS
 10
315.429993
 20
36.956600
 11
315.429993
 21
38.948799
  0
LINE
  8
0
  6
CONTINUOUS
 10
311.619904
 20
37.778400
 11
311.619904
 21
30.432199
  0
LINE
  8
0
  6
CONTINUOUS
 10
312.815308
 20
37.778400
 11
312.815308
 21
30.432199
  0
LINE
  8
0
  6
CONTINUOUS
 10
319.090607
 20
37.778400
 11
319.090607
 21
30.382401
  0
LINE
  8
0
  6
CONTINUOUS
 10
320.186310
 20
33.856300
 11
320.186310
 21
30.382401
  0
LINE
  8
0
  6
CONTINUOUS
 10
304.355011
 20
37.678799
 11
301.283112
 21
37.678799
  0
LINE
  8
0
  6
CONTINUOUS
 10
301.283112
 20
37.678799
 11
300.563293
 21
36.786301
  0
LINE
  8
0
  6
CONTINUOUS
 10
300.649902
 20
38.948799
 11
299.492493
 21
37.466801
  0
LINE
  8
0
  6
CONTINUOUS
 10
300.563293
 20
31.277201
 11
301.294586
 21
30.506901
  0
LINE
  8
0
  6
CONTINUOUS
 10
299.492493
 20
30.627199
 11
300.722290
 21
29.386299
  0
LINE
  8
0
  6
CONTINUOUS
 10
299.492493
 20
37.466801
 11
299.492493
 21
30.627199
  0
LINE
  8
0
  6
CONTINUOUS
 10
300.563293
 20
36.786301
 11
300.563293
 21
31.277201
  0
LINE
  8
0
  6
CONTINUOUS
 10
304.946106
 20
37.107399
 11
304.342896
 21
37.678799
  0
LINE
  8
0
  6
CONTINUOUS
 10
304.936493
 20
38.948799
 11
305.867493
 21
37.915699
  0
LINE
  8
0
  6
CONTINUOUS
 10
304.946106
 20
36.956600
 11
305.867493
 21
36.956600
  0
LINE
  8
0
  6
CONTINUOUS
 10
300.649902
 20
38.948799
 11
304.936493
 21
38.948799
  0
LINE
  8
0
  6
CONTINUOUS
 10
304.946106
 20
33.893600
 11
303.277710
 21
33.893600
  0
LINE
  8
0
  6
CONTINUOUS
 10
304.946106
 20
32.897598
 11
304.946106
 21
33.694401
  0
LINE
  8
0
  6
CONTINUOUS
 10
302.953888
 20
30.506901
 11
301.294586
 21
30.506901
  0
ARC
  8
0
  6
CONTINUOUS
 10
302.953888
 20
32.499100
 40
1.992187
 50
-89.999786
 51
0.000109
  0
LINE
  8
0
  6
CONTINUOUS
 10
304.946106
 20
30.148600
 11
304.946106
 21
29.386299
  0
LINE
  8
0
  6
CONTINUOUS
 10
305.867493
 20
37.915699
 11
305.867493
 21
36.956600
  0
LINE
  8
0
  6
CONTINUOUS
 10
304.946106
 20
33.893600
 11
304.946106
 21
32.499100
  0
LINE
  8
0
  6
CONTINUOUS
 10
303.277710
 20
34.939499
 11
303.277710
 21
33.893600
  0
LINE
  8
0
  6
CONTINUOUS
 10
304.946106
 20
29.386299
 11
305.867493
 21
29.386299
  0
LINE
  8
0
  6
CONTINUOUS
 10
304.946106
 20
30.148600
 11
304.037506
 21
29.386299
  0
LINE
  8
0
  6
CONTINUOUS
 10
312.815308
 20
30.432199
 11
313.213715
 21
30.432199
  0
LINE
  8
0
  6
CONTINUOUS
 10
311.146790
 20
30.432199
 11
311.146790
 21
29.386299
  0
LINE
  8
0
  6
CONTINUOUS
 10
313.213715
 20
30.432199
 11
313.213715
 21
29.386299
  0
LINE
  8
0
  6
CONTINUOUS
 10
314.765106
 20
36.956600
 11
315.429993
 21
36.956600
  0
LINE
  8
0
  6
CONTINUOUS
 10
309.054993
 20
36.956600
 11
309.762604
 21
36.956600
  0
LINE
  8
0
  6
CONTINUOUS
 10
309.054993
 20
38.948799
 11
315.429993
 21
38.948799
  0
LINE
  8
0
  6
CONTINUOUS
 10
311.146790
 20
29.386299
 11
313.213715
 21
29.386299
  0
LINE
  8
0
  6
CONTINUOUS
 10
311.146790
 20
30.432199
 11
311.619904
 21
30.432199
  0
ARC
  8
0
  6
CONTINUOUS
 10
322.440002
 20
36.396301
 40
2.552490
 50
-73.981873
 51
90.003510
  0
ARC
  8
0
  6
CONTINUOUS
 10
322.440002
 20
36.396301
 40
1.557193
 50
-82.585274
 51
62.411850
  0
LINE
  8
0
  6
CONTINUOUS
 10
318.617493
 20
38.948799
 11
322.440002
 21
38.948799
  0
LINE
  8
0
  6
CONTINUOUS
 10
318.617493
 20
38.948799
 11
318.617493
 21
37.778400
  0
LINE
  8
0
  6
CONTINUOUS
 10
320.186310
 20
37.778400
 11
320.186310
 21
34.852200
  0
LINE
  8
0
  6
CONTINUOUS
 10
323.144409
 20
33.942902
 11
324.724213
 21
30.382401
  0
LINE
  8
0
  6
CONTINUOUS
 10
322.226807
 20
33.856300
 11
323.721802
 21
30.382401
  0
LINE
  8
0
  6
CONTINUOUS
 10
318.617493
 20
30.382401
 11
319.090607
 21
30.382401
  0
LINE
  8
0
  6
CONTINUOUS
 10
320.186310
 20
30.382401
 11
320.622101
 21
30.382401
  0
LINE
  8
0
  6
CONTINUOUS
 10
320.622101
 20
29.386299
 11
318.617493
 21
29.386299
  0
LINE
  8
0
  6
CONTINUOUS
 10
323.523285
 20
30.382401
 11
323.721802
 21
30.382401
  0
LINE
  8
0
  6
CONTINUOUS
 10
324.724213
 20
30.382401
 11
324.992493
 21
30.382401
  0
LINE
  8
0
  6
CONTINUOUS
 10
323.523285
 20
29.386299
 11
324.992493
 21
29.386299
  0
LINE
  8
0
  6
CONTINUOUS
 10
324.992493
 20
30.382401
 11
324.992493
 21
29.386299
  0
LINE
  8
0
  6
CONTINUOUS
 10
323.523285
 20
30.382401
 11
323.523285
 21
29.386299
  0
LINE
  8
0
  6
CONTINUOUS
 10
320.622101
 20
30.382401
 11
320.622101
 21
29.386299
  0
LINE
  8
0
  6
CONTINUOUS
 10
318.617493
 20
30.382401
 11
318.617493
 21
29.386299
  0
LINE
  8
0
  6
CONTINUOUS
 10
310.105011
 20
37.778400
 11
309.762604
 21
36.956600
  0
LINE
  8
0
  6
CONTINUOUS
 10
314.476288
 20
37.778400
 11
314.765106
 21
36.956600
  0
LINE
  8
0
  6
CONTINUOUS
 10
312.815308
 20
37.778400
 11
314.476288
 21
37.778400
  0
LINE
  8
0
  6
CONTINUOUS
 10
311.619904
 20
37.778400
 11
310.105011
 21
37.778400
  0
LINE
  8
0
  6
CONTINUOUS
 10
318.617493
 20
37.778400
 11
319.090607
 21
37.778400
  0
LINE
  8
0
  6
CONTINUOUS
 10
320.186310
 20
37.778400
 11
323.161194
 21
37.776501
  0
LINE
  8
0
  6
CONTINUOUS
 10
304.946106
 20
37.107399
 11
304.946106
 21
36.956600
  0
LINE
  8
0
  6
CONTINUOUS
 10
300.722290
 20
29.386299
 11
304.037506
 21
29.386299
  0
LINE
  8
0
  6
CONTINUOUS
 10
320.186310
 20
34.852200
 11
322.640991
 21
34.852200
  0
LINE
  8
0
  6
CONTINUOUS
 10
320.186310
 20
33.856300
 11
322.226807
 21
33.856300
  0
LINE
  8
0
  6
CONTINUOUS
 10
303.277710
 20
34.939499
 11
305.867493
 21
34.939499
  0
LINE
  8
0
  6
CONTINUOUS
 10
335.242493
 20
109.386597
 11
335.242493
 21
96.984833
  0
LINE
  8
0
  6
CONTINUOUS
 10
289.242493
 20
109.386597
 11
289.242493
 21
96.984833
  0
LINE
  8
0
  6
CONTINUOUS
 10
334.742493
 20
109.386597
 11
334.742493
 21
110.386597
  0
ARC
  8
0
  6
CONTINUOUS
 10
312.242493
 20
109.886597
 40
4.250000
 50
196.601593
 51
343.398499
  0
ARC
  8
0
  6
CONTINUOUS
 10
317.273590
 20
108.386597
 40
1.000000
 50
90.000000
 51
163.398102
  0
ARC
  8
0
  6
CONTINUOUS
 10
307.211304
 20
108.386597
 40
1.000000
 50
16.601080
 51
90.000000
  0
LINE
  8
0
  6
CONTINUOUS
 10
317.273590
 20
109.386597
 11
335.242493
 21
109.386597
  0
LINE
  8
0
  6
CONTINUOUS
 10
316.463013
 20
110.386597
 11
335.242493
 21
110.386597
  0
LINE
  8
0
  6
CONTINUOUS
 10
308.022003
 20
110.386597
 11
289.242493
 21
110.386597
  0
LINE
  8
0
  6
CONTINUOUS
 10
307.211395
 20
109.386597
 11
289.242493
 21
109.386597
  0
LINE
  8
0
  6
CONTINUOUS
 10
289.742493
 20
109.386597
 11
289.742493
 21
110.386597
  0
ARC
  8
0
  6
CONTINUOUS
 10
312.242493
 20
109.886597
 40
3.250000
 50
186.756302
 51
353.243713
  0
ARC
  8
0
  6
CONTINUOUS
 10
316.463013
 20
109.386597
 40
1.000000
 50
90.000000
 51
173.243896
  0
ARC
  8
0
  6
CONTINUOUS
 10
308.022003
 20
109.386597
 40
1.000000
 50
6.756103
 51
90.000000
  0
ARC
  8
0
  6
CONTINUOUS
 10
312.242493
 20
109.886597
 40
6.000000
 50
4.780182
 51
175.219803
  0
ARC
  8
0
  6
CONTINUOUS
 10
312.242493
 20
109.886597
 40
6.000000
 50
184.780197
 51
355.219788
  0
LINE
  8
0
  6
CONTINUOUS
 10
289.242493
 20
116.370003
 11
289.242493
 21
110.386597
  0
LINE
  8
0
  6
CONTINUOUS
 10
335.242493
 20
116.370003
 11
335.242493
 21
110.386597
  0
LINE
  8
0
  6
CONTINUOUS
 10
334.992493
 20
114.386597
 11
334.992493
 21
115.825798
  0
LINE
  8
0
  6
CONTINUOUS
 10
329.492493
 20
114.386398
 11
329.492493
 21
115.825798
  0
LINE
  8
0
  6
CONTINUOUS
 10
334.992493
 20
115.086502
 11
329.492493
 21
115.086502
  0
ARC
  8
0
  6
CONTINUOUS
 10
332.242493
 20
110.086502
 40
7.000000
 50
73.041977
 51
106.956497
  0
ARC
  8
0
  6
CONTINUOUS
 10
330.492493
 20
115.825798
 40
1.000000
 50
106.956902
 51
180.000000
  0
ARC
  8
0
  6
CONTINUOUS
 10
333.992493
 20
115.825798
 40
1.000000
 50
0.000000
 51
73.041847
  0
LINE
  8
0
  6
CONTINUOUS
 10
334.992493
 20
114.386597
 11
329.242493
 21
114.386597
  0
LINE
  8
0
  6
CONTINUOUS
 10
328.742493
 20
116.873047
 11
328.742493
 21
114.886597
  0
ARC
  8
0
  6
CONTINUOUS
 10
312.242493
 20
-132.113403
 40
250.000000
 50
84.826019
 51
95.173981
  0
ARC
  8
0
  6
CONTINUOUS
 10
334.742493
 20
116.370003
 40
0.500000
 50
0.000000
 51
84.826019
  0
ARC
  8
0
  6
CONTINUOUS
 10
328.242493
 20
116.873047
 40
0.500000
 50
0.000000
 51
86.323196
  0
ARC
  8
0
  6
CONTINUOUS
 10
334.742493
 20
113.886597
 40
0.500000
 50
0.000000
 51
90.000000
  0
ARC
  8
0
  6
CONTINUOUS
 10
329.242493
 20
114.886597
 40
0.500000
 50
180.000000
 51
270.000000
  0
LINE
  8
0
  6
CONTINUOUS
 10
289.492493
 20
114.386597
 11
289.492493
 21
115.825798
  0
LINE
  8
0
  6
CONTINUOUS
 10
294.992493
 20
114.386398
 11
294.992493
 21
115.825798
  0
LINE
  8
0
  6
CONTINUOUS
 10
289.492493
 20
115.086502
 11
294.992493
 21
115.086502
  0
ARC
  8
0
  6
CONTINUOUS
 10
292.242493
 20
110.086502
 40
7.000000
 50
73.043503
 51
106.958023
  0
ARC
  8
0
  6
CONTINUOUS
 10
293.992493
 20
115.825798
 40
1.000000
 50
0.000000
 51
73.043098
  0
ARC
  8
0
  6
CONTINUOUS
 10
290.492493
 20
115.825798
 40
1.000000
 50
106.958153
 51
180.000000
  0
LINE
  8
0
  6
CONTINUOUS
 10
289.492493
 20
114.386597
 11
295.242493
 21
114.386597
  0
LINE
  8
0
  6
CONTINUOUS
 10
295.742493
 20
116.873047
 11
295.742493
 21
114.886597
  0
ARC
  8
0
  6
CONTINUOUS
 10
289.742493
 20
116.370003
 40
0.500000
 50
95.173981
 51
180.000000
  0
ARC
  8
0
  6
CONTINUOUS
 10
296.242493
 20
116.873047
 40
0.500000
 50
93.676804
 51
180.000000
  0
ARC
  8
0
  6
CONTINUOUS
 10
289.742493
 20
113.886597
 40
0.500000
 50
90.000000
 51
180.000000
  0
ARC
  8
0
  6
CONTINUOUS
 10
295.242493
 20
114.886597
 40
0.500000
 50
-90.000000
 51
0.000000
  0
LINE
  8
0
  6
CONTINUOUS
 10
189.242493
 20
67.886299
 11
189.242493
 21
62.886299
  0
LINE
  8
0
  6
CONTINUOUS
 10
177.742493
 20
257.584442
 11
177.742493
 21
167.584457
  0
LINE
  8
0
  6
CONTINUOUS
 10
168.742584
 20
241.584457
 11
168.742584
 21
255.584457
  0
LINE
  8
0
  6
CONTINUOUS
 10
58.742500
 20
257.584442
 11
177.742584
 21
257.584442
  0
LINE
  8
0
  6
CONTINUOUS
 10
58.742500
 20
167.584457
 11
177.742584
 21
167.584457
  0
LINE
  8
0
  6
CONTINUOUS
 10
168.742584
 20
241.584457
 11
58.742500
 21
241.584457
  0
ARC
  8
0
  6
CONTINUOUS
 10
170.742584
 20
255.584473
 40
2.000000
 50
90.000000
 51
180.000000
  0
ARC
  8
0
  6
CONTINUOUS
 10
170.742584
 20
169.584457
 40
2.000000
 50
180.000000
 51
270.000000
  0
LINE
  8
0
  6
CONTINUOUS
 10
168.742584
 20
183.584457
 11
58.742500
 21
183.584457
  0
LINE
  8
0
  6
CONTINUOUS
 10
168.742584
 20
183.584457
 11
168.742584
 21
169.584442
  0
LINE
  8
0
  6
CENTER
 10
221.792709
 20
212.584457
 11
-11.844219
 21
212.584457
  0
LINE
  8
0
  6
CONTINUOUS
 10
210.742493
 20
220.084457
 11
210.742493
 21
203.084457
  0
LINE
  8
0
  6
CONTINUOUS
 10
183.742493
 20
221.084457
 11
183.742493
 21
204.084457
  0
LINE
  8
0
  6
CONTINUOUS
 10
183.742493
 20
220.084457
 11
210.742493
 21
220.084457
  0
LINE
  8
0
  6
CONTINUOUS
 10
183.742493
 20
205.084457
 11
189.242493
 21
205.084457
  0
LINE
  8
0
  6
CONTINUOUS
 10
180.742493
 20
232.584457
 11
177.742493
 21
232.584457
  0
LINE
  8
0
  6
CONTINUOUS
 10
180.742493
 20
192.584457
 11
177.742493
 21
192.584457
  0
LINE
  8
0
  6
CONTINUOUS
 10
181.742493
 20
193.584457
 11
181.742493
 21
231.584457
  0
ARC
  8
0
  6
CONTINUOUS
 10
180.742493
 20
231.584457
 40
1.000000
 50
0.000000
 51
90.000000
  0
ARC
  8
0
  6
CONTINUOUS
 10
180.742493
 20
193.584457
 40
1.000000
 50
-90.000000
 51
0.000000
  0
LINE
  8
0
  6
CONTINUOUS
 10
181.742493
 20
221.084457
 11
183.742493
 21
221.084457
  0
LINE
  8
0
  6
CONTINUOUS
 10
181.742493
 20
204.084457
 11
183.742493
 21
204.084457
  0
LINE
  8
0
  6
CONTINUOUS
 10
189.242493
 20
205.513458
 11
189.242493
 21
203.084457
  0
LINE
  8
0
  6
CONTINUOUS
 10
189.242493
 20
203.084457
 11
210.742493
 21
203.084457
  0
LINE
  8
0
  6
CONTINUOUS
 10
189.242493
 20
205.513458
 11
210.742493
 21
205.513458
  0
LINE
  8
0
  6
DASHED
 10
168.742493
 20
253.834457
 11
177.742493
 21
253.834457
  0
LINE
  8
0
  6
DASHED
 10
168.742493
 20
247.334457
 11
177.742493
 21
247.334457
  0
LINE
  8
0
  6
PHANTOM
 10
166.942505
 20
250.584457
 11
179.422501
 21
250.584457
  0
LINE
  8
0
  6
DASHED
 10
168.742493
 20
177.834457
 11
177.742493
 21
177.834457
  0
LINE
  8
0
  6
PHANTOM
 10
165.742493
 20
174.584457
 11
180.622498
 21
174.584457
  0
LINE
  8
0
  6
DASHED
 10
168.742493
 20
171.334457
 11
177.742493
 21
171.334457
  0
LINE
  8
0
  6
CONTINUOUS
 10
58.242500
 20
217.468155
 11
58.242500
 21
207.700760
  0
LINE
  8
0
  6
CONTINUOUS
 10
58.742500
 20
167.584457
 11
58.742500
 21
257.584442
  0
LINE
  8
0
  6
CONTINUOUS
 10
31.742500
 20
255.854156
 11
31.742500
 21
235.584457
  0
LINE
  8
0
  6
CONTINUOUS
 10
31.742500
 20
169.314758
 11
31.742500
 21
189.584457
  0
LINE
  8
0
  6
CONTINUOUS
 10
58.742500
 20
241.584457
 11
45.229401
 21
241.230560
  0
LINE
  8
0
  6
CONTINUOUS
 10
45.229401
 20
183.938354
 11
58.742500
 21
183.584457
  0
LINE
  8
0
  6
CONTINUOUS
 10
24.242500
 20
217.468155
 11
24.242500
 21
207.700760
  0
LINE
  8
0
  6
CONTINUOUS
 10
44.742500
 20
184.438248
 11
44.742500
 21
189.584457
  0
ARC
  8
0
  6
CONTINUOUS
 10
45.242500
 20
184.438248
 40
0.500000
 50
180.000000
 51
268.496399
  0
LINE
  8
0
  6
CONTINUOUS
 10
44.742500
 20
240.730652
 11
44.742500
 21
235.584457
  0
ARC
  8
0
  6
CONTINUOUS
 10
45.242500
 20
240.730652
 40
0.500000
 50
-268.496399
 51
-180.000000
  0
LINE
  8
0
  6
CONTINUOUS
 10
44.742500
 20
184.934448
 11
31.742500
 21
185.274948
  0
LINE
  8
0
  6
CONTINUOUS
 10
44.742500
 20
240.234451
 11
31.742500
 21
239.893951
  0
ARC
  8
0
  6
CONTINUOUS
 10
54.242500
 20
191.601959
 40
2.000000
 50
-90.500061
 51
0.000000
  0
LINE
  8
0
  6
CONTINUOUS
 10
33.707287
 20
168.021484
 11
58.742500
 21
167.584457
  0
LINE
  8
0
  6
CONTINUOUS
 10
32.484100
 20
168.348648
 11
33.707287
 21
168.021484
  0
ARC
  8
0
  6
CONTINUOUS
 10
32.742500
 20
169.314758
 40
1.000000
 50
180.000000
 51
255.023895
  0
LINE
  8
0
  6
CONTINUOUS
 10
33.707298
 20
257.147430
 11
58.742500
 21
257.584442
  0
LINE
  8
0
  6
CONTINUOUS
 10
32.484100
 20
256.820160
 11
33.707298
 21
257.147430
  0
ARC
  8
0
  6
CONTINUOUS
 10
32.742500
 20
255.854156
 40
1.000000
 50
-255.023895
 51
-180.000000
  0
LINE
  8
0
  6
CONTINUOUS
 10
26.242399
 20
191.584457
 11
26.242399
 21
233.584457
  0
LINE
  8
0
  6
CENTER
 10
41.242500
 20
244.394455
 11
41.242500
 21
180.859451
  0
LINE
  8
0
  6
CONTINUOUS
 10
56.242500
 20
233.584457
 11
56.242500
 21
191.584457
  0
LINE
  8
0
  6
CONTINUOUS
 10
58.242500
 20
217.584457
 11
58.242500
 21
207.584457
  0
LINE
  8
0
  6
CONTINUOUS
 10
24.242500
 20
217.584457
 11
24.242500
 21
207.584457
  0
ARC
  8
0
  6
CONTINUOUS
 10
29.242500
 20
192.584457
 40
3.500000
 50
0.000000
 51
90.000000
  0
LINE
  8
0
  6
CONTINUOUS
 10
27.242399
 20
196.084457
 11
29.242500
 21
196.084457
  0
LINE
  8
0
  6
CONTINUOUS
 10
32.742500
 20
190.584457
 11
32.742500
 21
192.584457
  0
ARC
  8
0
  6
CONTINUOUS
 10
27.242399
 20
197.084457
 40
1.000000
 50
180.000000
 51
270.000000
  0
ARC
  8
0
  6
CONTINUOUS
 10
53.242500
 20
192.584457
 40
3.500000
 50
90.000000
 51
180.000000
  0
LINE
  8
0
  6
CONTINUOUS
 10
49.742500
 20
190.584457
 11
49.742500
 21
192.584457
  0
LINE
  8
0
  6
CONTINUOUS
 10
55.242599
 20
196.084457
 11
53.242500
 21
196.084457
  0
ARC
  8
0
  6
CONTINUOUS
 10
55.242599
 20
197.084457
 40
1.000000
 50
-90.000000
 51
0.000000
  0
LINE
  8
0
  6
CONTINUOUS
 10
54.242500
 20
189.584457
 11
28.242399
 21
189.584457
  0
ARC
  8
0
  6
CONTINUOUS
 10
48.742500
 20
190.584457
 40
1.000000
 50
-90.000000
 51
0.000000
  0
ARC
  8
0
  6
CONTINUOUS
 10
33.742500
 20
190.584457
 40
1.000000
 50
180.000000
 51
270.000000
  0
ARC
  8
0
  6
CONTINUOUS
 10
28.242399
 20
191.584457
 40
2.000000
 50
180.000000
 51
270.000000
  0
ARC
  8
0
  6
CONTINUOUS
 10
54.242500
 20
191.584457
 40
2.000000
 50
-90.000000
 51
0.000000
  0
ARC
  8
0
  6
CONTINUOUS
 10
29.242500
 20
232.584457
 40
3.500000
 50
-90.000000
 51
0.000000
  0
LINE
  8
0
  6
CONTINUOUS
 10
27.242399
 20
229.084457
 11
29.242500
 21
229.084457
  0
LINE
  8
0
  6
CONTINUOUS
 10
32.742500
 20
234.584457
 11
32.742500
 21
232.584457
  0
ARC
  8
0
  6
CONTINUOUS
 10
27.242399
 20
228.084457
 40
1.000000
 50
-270.000000
 51
-180.000000
  0
ARC
  8
0
  6
CONTINUOUS
 10
53.242500
 20
232.584457
 40
3.500000
 50
-180.000000
 51
-90.000000
  0
LINE
  8
0
  6
CONTINUOUS
 10
49.742500
 20
234.584457
 11
49.742500
 21
232.584457
  0
LINE
  8
0
  6
CONTINUOUS
 10
55.242599
 20
229.084457
 11
53.242500
 21
229.084457
  0
ARC
  8
0
  6
CONTINUOUS
 10
55.242599
 20
228.084457
 40
1.000000
 50
0.000000
 51
90.000000
  0
LINE
  8
0
  6
CONTINUOUS
 10
54.242500
 20
235.584457
 11
28.242399
 21
235.584457
  0
ARC
  8
0
  6
CONTINUOUS
 10
48.742500
 20
234.584457
 40
1.000000
 50
0.000000
 51
90.000000
  0
ARC
  8
0
  6
CONTINUOUS
 10
33.742500
 20
234.584457
 40
1.000000
 50
-270.000000
 51
-180.000000
  0
ARC
  8
0
  6
CONTINUOUS
 10
28.242399
 20
233.584457
 40
2.000000
 50
-270.000000
 51
-180.000000
  0
ARC
  8
0
  6
CONTINUOUS
 10
54.242500
 20
233.584457
 40
2.000000
 50
0.000000
 51
90.000000
  0
LINE
  8
0
  6
CONTINUOUS
 10
25.742500
 20
218.584457
 11
25.242500
 21
218.584457
  0
ARC
  8
0
  6
CONTINUOUS
 10
25.242500
 20
217.584457
 40
1.000000
 50
90.000000
 51
180.000000
  0
ARC
  8
0
  6
CONTINUOUS
 10
25.742500
 20
219.084457
 40
0.500000
 50
-90.000000
 51
0.000000
  0
LINE
  8
0
  6
CONTINUOUS
 10
25.742500
 20
206.584457
 11
25.242500
 21
206.584457
  0
ARC
  8
0
  6
CONTINUOUS
 10
25.242500
 20
207.584457
 40
1.000000
 50
-180.000000
 51
-90.000000
  0
ARC
  8
0
  6
CONTINUOUS
 10
25.742500
 20
206.084457
 40
0.500000
 50
0.000000
 51
90.000000
  0
LINE
  8
0
  6
CONTINUOUS
 10
56.742500
 20
218.584457
 11
57.242500
 21
218.584457
  0
ARC
  8
0
  6
CONTINUOUS
 10
57.242500
 20
217.584457
 40
1.000000
 50
0.000000
 51
90.000000
  0
ARC
  8
0
  6
CONTINUOUS
 10
56.742500
 20
219.084457
 40
0.500000
 50
180.000000
 51
270.000000
  0
LINE
  8
0
  6
CONTINUOUS
 10
56.742500
 20
206.584457
 11
57.242500
 21
206.584457
  0
ARC
  8
0
  6
CONTINUOUS
 10
57.242500
 20
207.584457
 40
1.000000
 50
-90.000000
 51
0.000000
  0
ARC
  8
0
  6
CONTINUOUS
 10
56.742500
 20
206.084457
 40
0.500000
 50
90.000000
 51
180.000000
  0
LINE
  8
0
  6
CONTINUOUS
 10
30.992500
 20
192.984451
 11
30.992500
 21
192.184433
  0
LINE
  8
0
  6
CONTINUOUS
 10
28.842476
 20
194.334457
 11
29.642494
 21
194.334457
  0
LINE
  8
0
  6
CONTINUOUS
 10
28.842476
 20
190.834457
 11
29.642494
 21
190.834457
  0
LINE
  8
0
  6
CONTINUOUS
 10
27.492500
 20
192.984451
 11
27.492500
 21
192.184433
  0
CIRCLE
  8
0
  6
CONTINUOUS
 10
29.242500
 20
192.584457
 40
2.750000
  0
ARC
  8
0
  6
CONTINUOUS
 10
27.492500
 20
194.334457
 40
1.350000
 50
-90.000000
 51
0.000000
  0
ARC
  8
0
  6
CONTINUOUS
 10
27.492500
 20
190.834457
 40
1.350000
 50
0.000000
 51
90.000000
  0
ARC
  8
0
  6
CONTINUOUS
 10
30.992500
 20
194.334457
 40
1.350000
 50
180.000000
 51
270.000000
  0
ARC
  8
0
  6
CONTINUOUS
 10
30.992500
 20
190.834457
 40
1.350000
 50
90.000000
 51
180.000000
  0
LINE
  8
0
  6
CONTINUOUS
 10
54.992500
 20
192.984451
 11
54.992500
 21
192.184433
  0
LINE
  8
0
  6
CONTINUOUS
 10
52.842476
 20
194.334457
 11
53.642494
 21
194.334457
  0
LINE
  8
0
  6
CONTINUOUS
 10
52.842476
 20
190.834457
 11
53.642494
 21
190.834457
  0
LINE
  8
0
  6
CONTINUOUS
 10
51.492500
 20
192.984451
 11
51.492500
 21
192.184433
  0
CIRCLE
  8
0
  6
CONTINUOUS
 10
53.242500
 20
192.584457
 40
2.750000
  0
ARC
  8
0
  6
CONTINUOUS
 10
51.492500
 20
194.334457
 40
1.350000
 50
-90.000000
 51
0.000000
  0
ARC
  8
0
  6
CONTINUOUS
 10
51.492500
 20
190.834457
 40
1.350000
 50
0.000000
 51
90.000000
  0
ARC
  8
0
  6
CONTINUOUS
 10
54.992500
 20
194.334457
 40
1.350000
 50
180.000000
 51
270.000000
  0
ARC
  8
0
  6
CONTINUOUS
 10
54.992500
 20
190.834457
 40
1.350000
 50
90.000000
 51
180.000000
  0
LINE
  8
0
  6
CONTINUOUS
 10
54.992500
 20
232.984451
 11
54.992500
 21
232.184433
  0
LINE
  8
0
  6
CONTINUOUS
 10
52.842476
 20
234.334457
 11
53.642494
 21
234.334457
  0
LINE
  8
0
  6
CONTINUOUS
 10
52.842476
 20
230.834457
 11
53.642494
 21
230.834457
  0
LINE
  8
0
  6
CONTINUOUS
 10
51.492500
 20
232.984451
 11
51.492500
 21
232.184433
  0
CIRCLE
  8
0
  6
CONTINUOUS
 10
53.242500
 20
232.584457
 40
2.750000
  0
ARC
  8
0
  6
CONTINUOUS
 10
51.492500
 20
234.334457
 40
1.350000
 50
-90.000000
 51
0.000000
  0
ARC
  8
0
  6
CONTINUOUS
 10
51.492500
 20
230.834457
 40
1.350000
 50
0.000000
 51
90.000000
  0
ARC
  8
0
  6
CONTINUOUS
 10
54.992500
 20
234.334457
 40
1.350000
 50
180.000000
 51
270.000000
  0
ARC
  8
0
  6
CONTINUOUS
 10
54.992500
 20
230.834457
 40
1.350000
 50
90.000000
 51
180.000000
  0
LINE
  8
0
  6
CONTINUOUS
 10
30.992500
 20
232.984451
 11
30.992500
 21
232.184433
  0
LINE
  8
0
  6
CONTINUOUS
 10
28.842476
 20
234.334457
 11
29.642494
 21
234.334457
  0
LINE
  8
0
  6
CONTINUOUS
 10
28.842476
 20
230.834457
 11
29.642494
 21
230.834457
  0
LINE
  8
0
  6
CONTINUOUS
 10
27.492500
 20
232.984451
 11
27.492500
 21
232.184433
  0
CIRCLE
  8
0
  6
CONTINUOUS
 10
29.242500
 20
232.584457
 40
2.750000
  0
ARC
  8
0
  6
CONTINUOUS
 10
27.492500
 20
234.334457
 40
1.350000
 50
-90.000000
 51
0.000000
  0
ARC
  8
0
  6
CONTINUOUS
 10
27.492500
 20
230.834457
 40
1.350000
 50
0.000000
 51
90.000000
  0
ARC
  8
0
  6
CONTINUOUS
 10
30.992500
 20
234.334457
 40
1.350000
 50
180.000000
 51
270.000000
  0
ARC
  8
0
  6
CONTINUOUS
 10
30.992500
 20
230.834457
 40
1.350000
 50
90.000000
 51
180.000000
  0
LINE
  8
0
  6
CONTINUOUS
 10
9.093820
 20
208.734451
 11
24.242620
 21
208.734451
  0
LINE
  8
0
  6
CONTINUOUS
 10
9.945620
 20
216.434448
 11
9.209820
 21
213.599350
  0
LINE
  8
0
  6
CONTINUOUS
 10
9.209820
 20
213.599350
 11
10.021920
 21
211.124359
  0
LINE
  8
0
  6
CONTINUOUS
 10
10.021920
 20
211.124359
 11
9.093820
 21
208.734451
  0
LINE
  8
0
  6
CONTINUOUS
 10
9.945620
 20
216.434448
 11
24.242620
 21
216.434448
  0
LINE
  8
0
  6
CONTINUOUS
 10
43.742500
 20
235.584457
 11
43.742500
 21
240.084457
  0
LINE
  8
0
  6
CONTINUOUS
 10
44.742500
 20
240.084457
 11
42.763489
 21
240.084457
  0
ARC
  8
0
  6
CONTINUOUS
 10
50.142529
 20
236.584457
 40
8.999999
 50
163.398987
 51
186.379364
  0
ARC
  8
0
  6
CONTINUOUS
 10
42.763489
 20
238.784470
 40
1.300000
 50
90.000000
 51
163.399094
  0
LINE
  8
0
  6
CONTINUOUS
 10
43.742500
 20
189.584457
 11
43.742500
 21
185.084457
  0
LINE
  8
0
  6
CONTINUOUS
 10
44.742500
 20
185.084457
 11
42.763489
 21
185.084457
  0
ARC
  8
0
  6
CONTINUOUS
 10
50.142529
 20
188.584457
 40
8.999999
 50
-186.379364
 51
-163.398987
  0
ARC
  8
0
  6
CONTINUOUS
 10
42.763489
 20
186.384445
 40
1.300000
 50
-163.399094
 51
-90.000000
  0
LINE
  8
0
  6
CONTINUOUS
 10
4.486598
 20
251.120728
 11
31.742500
 21
251.834457
  0
LINE
  8
0
  6
CONTINUOUS
 10
0.742500
 20
248.659729
 11
0.742500
 21
176.509171
  0
LINE
  8
0
  6
CONTINUOUS
 10
3.036344
 20
250.865860
 11
2.110044
 21
250.557098
  0
ARC
  8
0
  6
CONTINUOUS
 10
2.742500
 20
248.659729
 40
2.000000
 50
108.434952
 51
180.000000
  0
ARC
  8
0
  6
CONTINUOUS
 10
4.617483
 20
246.122452
 40
5.000000
 50
91.500000
 51
108.434952
  0
LINE
  8
0
  6
CONTINUOUS
 10
28.229412
 20
173.432053
 11
31.742500
 21
173.340057
  0
LINE
  8
0
  6
CONTINUOUS
 10
27.742500
 20
173.931870
 11
27.742500
 21
183.054581
  0
LINE
  8
0
  6
CONTINUOUS
 10
4.486598
 20
174.048172
 11
31.742500
 21
173.334457
  0
LINE
  8
0
  6
CONTINUOUS
 10
3.036344
 20
174.303040
 11
2.110044
 21
174.611816
  0
ARC
  8
0
  6
CONTINUOUS
 10
2.742500
 20
176.509171
 40
2.000000
 50
-180.000000
 51
-108.434952
  0
ARC
  8
0
  6
CONTINUOUS
 10
4.617483
 20
179.046463
 40
5.000000
 50
-108.434952
 51
-91.500000
  0
LINE
  8
0
  6
CONTINUOUS
 10
27.742500
 20
174.544052
 11
26.303289
 21
174.544052
  0
LINE
  8
0
  6
CONTINUOUS
 10
27.742500
 20
180.044052
 11
26.303289
 21
180.044052
  0
LINE
  8
0
  6
CONTINUOUS
 10
27.042549
 20
174.544052
 11
27.042549
 21
180.044052
  0
ARC
  8
0
  6
CONTINUOUS
 10
32.042549
 20
177.294052
 40
7.000000
 50
163.043503
 51
196.957993
  0
ARC
  8
0
  6
CONTINUOUS
 10
26.303289
 20
179.044052
 40
1.000000
 50
90.000000
 51
163.043106
  0
ARC
  8
0
  6
CONTINUOUS
 10
26.303289
 20
175.544052
 40
1.000000
 50
196.958099
 51
270.000000
  0
LINE
  8
0
  6
CONTINUOUS
 10
27.742500
 20
183.054581
 11
31.742500
 21
183.054581
  0
LINE
  8
0
  6
CONTINUOUS
 10
0.751752
 20
181.263596
 11
0.742500
 21
181.263840
  0
ARC
  8
0
  6
CONTINUOUS
 10
28.242500
 20
173.931870
 40
0.500000
 50
180.000000
 51
268.500000
  0
LINE
  8
0
  6
CONTINUOUS
 10
28.229412
 20
251.736862
 11
31.742500
 21
251.828857
  0
LINE
  8
0
  6
CONTINUOUS
 10
27.742500
 20
251.237030
 11
27.742500
 21
242.114319
  0
LINE
  8
0
  6
CONTINUOUS
 10
27.742500
 20
250.624847
 11
26.303289
 21
250.624847
  0
LINE
  8
0
  6
CONTINUOUS
 10
27.742500
 20
245.124847
 11
26.303289
 21
245.124847
  0
LINE
  8
0
  6
CONTINUOUS
 10
27.042549
 20
250.624847
 11
27.042549
 21
245.124847
  0
ARC
  8
0
  6
CONTINUOUS
 10
32.042549
 20
247.874847
 40
7.000000
 50
-196.957993
 51
-163.043503
  0
ARC
  8
0
  6
CONTINUOUS
 10
26.303289
 20
246.124847
 40
1.000000
 50
-163.043106
 51
-90.000000
  0
ARC
  8
0
  6
CONTINUOUS
 10
26.303289
 20
249.624847
 40
1.000000
 50
-270.000000
 51
-196.958099
  0
LINE
  8
0
  6
CONTINUOUS
 10
27.742500
 20
242.114319
 11
31.742500
 21
242.114319
  0
ARC
  8
0
  6
CONTINUOUS
 10
28.242500
 20
251.237030
 40
0.500000
 50
-268.500000
 51
-180.000000
  0
LINE
  8
0
  6
CONTINUOUS
 10
27.742500
 20
8.728123
 11
27.742500
 21
13.505858
  0
LINE
  8
0
  6
CONTINUOUS
 10
27.742500
 20
8.886320
 11
26.303289
 21
8.886320
  0
LINE
  8
0
  6
CONTINUOUS
 10
27.042549
 20
8.886320
 11
27.042549
 21
13.524187
  0
ARC
  8
0
  6
CONTINUOUS
 10
32.042549
 20
11.636320
 40
7.000000
 50
163.968933
 51
196.957993
  0
ARC
  8
0
  6
CONTINUOUS
 10
26.303289
 20
9.886320
 40
1.000000
 50
196.958099
 51
270.000000
  0
LINE
  8
0
  6
CONTINUOUS
 10
0.742521
 20
88.418404
 11
0.742500
 21
52.386299
  0
LINE
  8
0
  6
CONTINUOUS
 10
0.742520
 20
16.645201
 11
0.742500
 21
52.386299
  0
LINE
  8
0
  6
CONTINUOUS
 10
27.742500
 20
64.649857
 11
27.742500
 21
76.761299
  0
LINE
  8
0
  6
CONTINUOUS
 10
27.742500
 20
70.011299
 11
26.303289
 21
70.011299
  0
LINE
  8
0
  6
CONTINUOUS
 10
27.742500
 20
75.511299
 11
26.303289
 21
75.511299
  0
LINE
  8
0
  6
CONTINUOUS
 10
27.042549
 20
70.011299
 11
27.042549
 21
75.511299
  0
ARC
  8
0
  6
CONTINUOUS
 10
32.042549
 20
72.761299
 40
7.000000
 50
163.043503
 51
196.957993
  0
ARC
  8
0
  6
CONTINUOUS
 10
26.303289
 20
74.511299
 40
1.000000
 50
90.000000
 51
163.043106
  0
ARC
  8
0
  6
CONTINUOUS
 10
26.303289
 20
71.011299
 40
1.000000
 50
196.958099
 51
270.000000
  0
LINE
  8
0
  6
CONTINUOUS
 10
27.742500
 20
64.649857
 11
31.742500
 21
64.649857
  0
LINE
  8
0
  6
CONTINUOUS
 10
27.742500
 20
76.761299
 11
31.742500
 21
76.761299
  0
LINE
  8
0
  6
CONTINUOUS
 10
58.742500
 20
7.386320
 11
58.742500
 21
97.386299
  0
LINE
  8
0
  6
CONTINUOUS
 10
44.742500
 20
8.122020
 11
44.742500
 21
17.977011
  0
LINE
  8
0
  6
CONTINUOUS
 10
31.742500
 20
90.412445
 11
31.742500
 21
8.136300
  0
LINE
  8
0
  6
CENTER
 10
41.242500
 20
99.324577
 11
41.242500
 21
120.587082
  0
ARC
  8
0
  6
CONTINUOUS
 10
57.242500
 20
98.386299
 40
1.000000
 50
180.000000
 51
270.000000
  0
LINE
  8
0
  6
CONTINUOUS
 10
58.742500
 20
17.977011
 11
44.742500
 21
17.977011
  0
LINE
  8
0
  6
CONTINUOUS
 10
44.742500
 20
96.886299
 11
44.742500
 21
86.886299
  0
LINE
  8
0
  6
CONTINUOUS
 10
58.742500
 20
86.795601
 11
44.742500
 21
86.795601
  0
LINE
  8
0
  6
CONTINUOUS
 10
58.742500
 20
97.386299
 11
26.242571
 21
97.386299
  0
ARC
  8
0
  6
CONTINUOUS
 10
45.242500
 20
96.886299
 40
0.500000
 50
90.000000
 51
180.000000
  0
LINE
  8
0
  6
CONTINUOUS
 10
26.242846
 20
109.386536
 11
26.242550
 21
97.389046
  0
LINE
  8
0
  6
CONTINUOUS
 10
56.242500
 20
109.386597
 11
56.242500
 21
98.386299
  0
LINE
  8
0
  6
CONTINUOUS
 10
56.242500
 20
110.386597
 11
56.242500
 21
116.964905
  0
LINE
  8
0
  6
CONTINUOUS
 10
12.354930
 20
106.336601
 11
24.242500
 21
106.336601
  0
LINE
  8
0
  6
CONTINUOUS
 10
26.242300
 20
110.386597
 11
26.242300
 21
116.964905
  0
LINE
  8
0
  6
CONTINUOUS
 10
58.242500
 20
114.886597
 11
58.242500
 21
110.386597
  0
LINE
  8
0
  6
CONTINUOUS
 10
24.242500
 20
110.386597
 11
58.242500
 21
110.386597
  0
LINE
  8
0
  6
CONTINUOUS
 10
24.242500
 20
109.386597
 11
58.242500
 21
109.386597
  0
LINE
  8
0
  6
CONTINUOUS
 10
24.242500
 20
114.886597
 11
24.242500
 21
114.136597
  0
LINE
  8
0
  6
CONTINUOUS
 10
24.242500
 20
114.136597
 11
24.242500
 21
110.386597
  0
LINE
  8
0
  6
CONTINUOUS
 10
13.206730
 20
114.036598
 11
24.242500
 21
114.036598
  0
ARC
  8
0
  6
CONTINUOUS
 10
41.242500
 20
-132.113403
 40
250.000000
 50
86.668304
 51
93.331696
  0
LINE
  8
0
  6
CONTINUOUS
 10
56.742500
 20
115.886597
 11
57.242500
 21
115.886597
  0
ARC
  8
0
  6
CONTINUOUS
 10
57.242500
 20
114.886597
 40
1.000000
 50
0.000000
 51
90.000000
  0
ARC
  8
0
  6
CONTINUOUS
 10
56.742500
 20
116.386597
 40
0.500000
 50
180.000000
 51
270.000000
  0
LINE
  8
0
  6
CONTINUOUS
 10
56.742500
 20
103.886597
 11
57.242500
 21
103.886597
  0
ARC
  8
0
  6
CONTINUOUS
 10
57.242500
 20
104.886597
 40
1.000000
 50
-90.000000
 51
0.000000
  0
ARC
  8
0
  6
CONTINUOUS
 10
56.742500
 20
103.386597
 40
0.500000
 50
-270.000000
 51
-180.000000
  0
LINE
  8
0
  6
CONTINUOUS
 10
25.742500
 20
115.886597
 11
25.242500
 21
115.886597
  0
ARC
  8
0
  6
CONTINUOUS
 10
25.242500
 20
114.886597
 40
1.000000
 50
90.000000
 51
180.000000
  0
ARC
  8
0
  6
CONTINUOUS
 10
25.742500
 20
116.386597
 40
0.500000
 50
-90.000000
 51
0.000000
  0
LINE
  8
0
  6
CONTINUOUS
 10
25.742500
 20
103.886597
 11
25.242500
 21
103.886597
  0
ARC
  8
0
  6
CONTINUOUS
 10
25.242500
 20
104.886597
 40
1.000000
 50
-180.000000
 51
-90.000000
  0
ARC
  8
0
  6
CONTINUOUS
 10
25.742500
 20
103.386597
 40
0.500000
 50
0.000000
 51
90.000000
  0
LINE
  8
0
  6
CONTINUOUS
 10
57.742500
 20
110.386597
 11
57.742500
 21
109.386597
  0
LINE
  8
0
  6
CONTINUOUS
 10
58.242500
 20
109.386597
 11
58.242500
 21
104.886597
  0
ARC
  8
0
  6
CONTINUOUS
 10
55.742500
 20
116.964905
 40
0.500000
 50
0.000000
 51
86.668304
  0
LINE
  8
0
  6
CONTINUOUS
 10
24.242500
 20
109.386597
 11
24.242500
 21
104.886597
  0
LINE
  8
0
  6
CONTINUOUS
 10
26.742846
 20
110.386597
 11
26.742846
 21
109.386536
  0
LINE
  8
0
  6
CONTINUOUS
 10
50.242500
 20
114.386597
 11
55.992500
 21
114.386597
  0
LINE
  8
0
  6
CONTINUOUS
 10
49.742500
 20
114.886597
 11
49.742500
 21
117.258308
  0
LINE
  8
0
  6
CONTINUOUS
 10
50.492500
 20
114.386597
 11
50.492500
 21
115.825798
  0
LINE
  8
0
  6
CONTINUOUS
 10
55.992500
 20
114.386398
 11
55.992500
 21
115.825798
  0
LINE
  8
0
  6
CONTINUOUS
 10
50.492500
 20
115.086502
 11
55.992500
 21
115.086502
  0
ARC
  8
0
  6
CONTINUOUS
 10
53.242500
 20
110.086502
 40
7.000000
 50
73.043503
 51
106.958000
  0
ARC
  8
0
  6
CONTINUOUS
 10
54.992500
 20
115.825798
 40
1.000000
 50
0.000000
 51
73.043098
  0
ARC
  8
0
  6
CONTINUOUS
 10
51.492500
 20
115.825798
 40
1.000000
 50
106.958199
 51
180.000000
  0
ARC
  8
0
  6
CONTINUOUS
 10
50.242500
 20
114.886597
 40
0.500000
 50
180.000000
 51
270.000000
  0
ARC
  8
0
  6
CONTINUOUS
 10
55.742500
 20
113.886597
 40
0.500000
 50
0.000000
 51
90.000000
  0
ARC
  8
0
  6
CONTINUOUS
 10
49.242500
 20
117.258308
 40
0.500000
 50
0.000000
 51
88.162544
  0
ARC
  8
0
  6
CONTINUOUS
 10
26.742500
 20
116.964905
 40
0.500000
 50
93.331696
 51
180.000000
  0
LINE
  8
0
  6
CONTINUOUS
 10
32.242500
 20
114.386597
 11
26.492500
 21
114.386597
  0
LINE
  8
0
  6
CONTINUOUS
 10
32.742500
 20
114.886597
 11
32.742500
 21
117.258308
  0
LINE
  8
0
  6
CONTINUOUS
 10
31.992500
 20
114.386597
 11
31.992500
 21
115.825798
  0
LINE
  8
0
  6
CONTINUOUS
 10
26.492500
 20
114.386398
 11
26.492500
 21
115.825798
  0
LINE
  8
0
  6
CONTINUOUS
 10
31.992500
 20
115.086502
 11
26.492500
 21
115.086502
  0
ARC
  8
0
  6
CONTINUOUS
 10
29.242500
 20
110.086502
 40
7.000000
 50
73.042000
 51
106.956497
  0
ARC
  8
0
  6
CONTINUOUS
 10
27.492500
 20
115.825798
 40
1.000000
 50
106.956902
 51
180.000000
  0
ARC
  8
0
  6
CONTINUOUS
 10
30.992500
 20
115.825798
 40
1.000000
 50
0.000000
 51
73.041801
  0
ARC
  8
0
  6
CONTINUOUS
 10
32.242500
 20
114.886597
 40
0.500000
 50
-90.000000
 51
0.000000
  0
ARC
  8
0
  6
CONTINUOUS
 10
26.742500
 20
113.886597
 40
0.500000
 50
90.000000
 51
180.000000
  0
ARC
  8
0
  6
CONTINUOUS
 10
33.242500
 20
117.258308
 40
0.500000
 50
91.837456
 51
180.000000
  0
LINE
  8
0
  6
CONTINUOUS
 10
26.242571
 20
93.478935
 11
26.242571
 21
97.386299
  0
LINE
  8
0
  6
CONTINUOUS
 10
33.710484
 20
7.783919
 11
58.742500
 21
7.386320
  0
ARC
  8
0
  6
CONTINUOUS
 10
45.242500
 20
8.122020
 40
0.500000
 50
180.000000
 51
269.000000
  0
LINE
  8
0
  6
CONTINUOUS
 10
32.485516
 20
8.109658
 11
33.742249
 21
7.775473
  0
ARC
  8
0
  6
CONTINUOUS
 10
32.742500
 20
9.076073
 40
1.000000
 50
180.000000
 51
255.108749
  0
LINE
  8
0
  6
CONTINUOUS
 10
33.742249
 20
16.885889
 11
44.742500
 21
16.885889
  0
LINE
  8
0
  6
CONTINUOUS
 10
32.485516
 20
17.220076
 11
33.742249
 21
16.885889
  0
ARC
  8
0
  6
CONTINUOUS
 10
32.742500
 20
18.186491
 40
1.000000
 50
180.000000
 51
255.108749
  0
LINE
  8
0
  6
CONTINUOUS
 10
33.742249
 20
87.886711
 11
44.742500
 21
87.886711
  0
LINE
  8
0
  6
CONTINUOUS
 10
32.485516
 20
87.552528
 11
33.742249
 21
87.886711
  0
ARC
  8
0
  6
CONTINUOUS
 10
32.742500
 20
86.586105
 40
1.000000
 50
-255.108749
 51
-180.000000
  0
LINE
  8
0
  6
CONTINUOUS
 10
30.768677
 20
91.412102
 11
28.190216
 21
91.479622
  0
ARC
  8
0
  6
CONTINUOUS
 10
28.242571
 20
93.478935
 40
2.000000
 50
180.000000
 51
268.500000
  0
LINE
  8
0
  6
CONTINUOUS
 10
4.545682
 20
90.924126
 11
27.782370
 21
91.532600
  0
ARC
  8
0
  6
CONTINUOUS
 10
30.742500
 20
90.412445
 40
1.000000
 50
0.000000
 51
88.499985
  0
LINE
  8
0
  6
CONTINUOUS
 10
2.984496
 20
90.630829
 11
2.065693
 21
90.300392
  0
ARC
  8
0
  6
CONTINUOUS
 10
2.742522
 20
88.418404
 40
2.000000
 50
109.780319
 51
180.000000
  0
LINE
  8
0
  6
CONTINUOUS
 10
28.229410
 20
8.228294
 11
31.742500
 21
8.136300
  0
LINE
  8
0
  6
CONTINUOUS
 10
4.545682
 20
14.139474
 11
31.742500
 21
13.427300
  0
LINE
  8
0
  6
CONTINUOUS
 10
2.984496
 20
14.432774
 11
2.065693
 21
14.763206
  0
ARC
  8
0
  6
CONTINUOUS
 10
2.742522
 20
16.645201
 40
2.000000
 50
-180.000000
 51
-109.780319
  0
LINE
  8
0
  6
CONTINUOUS
 10
13.206730
 20
114.036598
 11
12.470930
 21
111.201500
  0
LINE
  8
0
  6
CONTINUOUS
 10
12.470930
 20
111.201500
 11
13.283030
 21
108.726501
  0
LINE
  8
0
  6
CONTINUOUS
 10
13.283030
 20
108.726501
 11
12.354930
 21
106.336601
  0
ARC
  8
0
  6
CONTINUOUS
 10
4.676566
 20
85.925842
 40
5.000000
 50
91.500000
 51
109.780281
  0
ARC
  8
0
  6
CONTINUOUS
 10
4.676566
 20
19.137760
 40
5.000000
 50
250.219727
 51
268.500000
  0
LINE
  8
0
  6
CONTINUOUS
 10
43.742500
 20
88.886703
 11
43.742500
 21
95.886703
  0
LINE
  8
0
  6
CONTINUOUS
 10
44.742500
 20
88.886703
 11
42.763489
 21
88.886703
  0
LINE
  8
0
  6
CONTINUOUS
 10
44.742500
 20
95.886703
 11
42.763489
 21
95.886703
  0
ARC
  8
0
  6
CONTINUOUS
 10
50.142529
 20
92.386703
 40
8.999999
 50
163.398987
 51
196.601517
  0
ARC
  8
0
  6
CONTINUOUS
 10
42.763489
 20
90.186722
 40
1.300000
 50
196.601578
 51
270.000000
  0
ARC
  8
0
  6
CONTINUOUS
 10
42.763489
 20
94.586716
 40
1.300000
 50
90.000000
 51
163.399094
  0
LINE
  8
0
  6
CONTINUOUS
 10
43.742500
 20
8.885890
 11
43.742500
 21
15.885890
  0
LINE
  8
0
  6
CONTINUOUS
 10
44.742500
 20
8.885890
 11
42.763489
 21
8.885890
  0
LINE
  8
0
  6
CONTINUOUS
 10
44.742500
 20
15.885890
 11
42.763489
 21
15.885890
  0
ARC
  8
0
  6
CONTINUOUS
 10
50.142529
 20
12.385890
 40
8.999999
 50
163.398987
 51
196.601517
  0
ARC
  8
0
  6
CONTINUOUS
 10
42.763489
 20
10.185908
 40
1.300000
 50
196.601578
 51
270.000000
  0
ARC
  8
0
  6
CONTINUOUS
 10
42.763489
 20
14.585902
 40
1.300000
 50
90.000000
 51
163.399094
  0
ARC
  8
0
  6
CONTINUOUS
 10
28.242500
 20
8.728123
 40
0.500000
 50
180.000000
 51
268.500000
  0
LINE
  8
0
  6
CONTINUOUS
 10
27.742500
 20
75.735115
 11
0.742515
 21
75.028099
  0
LINE
  8
0
  6
CONTINUOUS
 10
27.742500
 20
69.787483
 11
0.742515
 21
70.494499
  0
LINE
  8
0
  6
CONTINUOUS
 10
25.049068
 20
176.991989
 11
0.742500
 21
177.628479
  0
LINE
  8
0
  6
CONTINUOUS
 10
27.742500
 20
180.902634
 11
0.742500
 21
180.195602
  0
LINE
  8
0
  6
CONTINUOUS
 10
25.049068
 20
248.176910
 11
0.742500
 21
247.540421
  0
LINE
  8
0
  6
CONTINUOUS
 10
27.742500
 20
244.266266
 11
0.742500
 21
244.973297
  0
TEXT
  8
0
 10
-13.000000
 20
4.000000
 40
4.000000
 41
1.000000
  1
GFV-15-5~60-T60
 50
0.000000
  0
ENDSEC
  0
EOF
