  0
SECTION
  2
HEADER
  9
$ACADVER
  1
AC1014
  9
$ACADMAINTVER
 70
     9
  9
$DWGCODEPAGE
  3
ANSI_932
  9
$INSBASE
 10
0.0
 20
0.0
 30
0.0
  9
$EXTMIN
 10
63.75447215599786
 20
66.92093950435424
 30
0.0
  9
$EXTMAX
 10
828.704985415859
 20
611.2174056754382
 30
0.0
  9
$LIMMIN
 10
-149.713770208066
 20
-46.65217347323209
  9
$LIMMAX
 10
939.7412159154681
 20
638.2451616911403
  9
$ORTHOMODE
 70
     1
  9
$REGENMODE
 70
     1
  9
$FILLMODE
 70
     1
  9
$QTEXTMODE
 70
     0
  9
$MIRRTEXT
 70
     0
  9
$DRAGMODE
 70
     2
  9
$LTSCALE
 40
3.0
  9
$OSMODE
 70
    37
  9
$ATTMODE
 70
     1
  9
$TEXTSIZE
 40
2.0
  9
$TRACEWID
 40
1.0
  9
$TEXTSTYLE
  7
STANDARD
  9
$CLAYER
  8
0
  9
$CELTYPE
  6
BYLAYER
  9
$CECOLOR
 62
   256
  9
$CELTSCALE
 40
1.0
  9
$DELOBJ
 70
     1
  9
$DISPSILH
 70
     0
  9
$DIMSCALE
 40
3.0
  9
$DIMASZ
 40
1.8
  9
$DIMEXO
 40
0.625
  9
$DIMDLI
 40
3.75
  9
$DIMRND
 40
0.0
  9
$DIMDLE
 40
0.0
  9
$DIMEXE
 40
0.8
  9
$DIMTP
 40
0.0
  9
$DIMTM
 40
0.0
  9
$DIMTXT
 40
1.8
  9
$DIMCEN
 40
2.5
  9
$DIMTSZ
 40
0.0
  9
$DIMTOL
 70
     0
  9
$DIMLIM
 70
     0
  9
$DIMTIH
 70
     0
  9
$DIMTOH
 70
     0
  9
$DIMSE1
 70
     0
  9
$DIMSE2
 70
     0
  9
$DIMTAD
 70
     1
  9
$DIMZIN
 70
     8
  9
$DIMBLK
  1

  9
$DIMASO
 70
     1
  9
$DIMSHO
 70
     1
  9
$DIMPOST
  1

  9
$DIMAPOST
  1

  9
$DIMALT
 70
     0
  9
$DIMALTD
 70
     4
  9
$DIMALTF
 40
0.0394
  9
$DIMLFAC
 40
1.0
  9
$DIMTOFL
 70
     1
  9
$DIMTVP
 40
0.0
  9
$DIMTIX
 70
     0
  9
$DIMSOXD
 70
     0
  9
$DIMSAH
 70
     0
  9
$DIMBLK1
  1

  9
$DIMBLK2
  1

  9
$DIMSTYLE
  2
STANDARD
  9
$DIMCLRD
 70
     0
  9
$DIMCLRE
 70
     0
  9
$DIMCLRT
 70
     0
  9
$DIMTFAC
 40
1.0
  9
$DIMGAP
 40
0.75
  9
$DIMJUST
 70
     0
  9
$DIMSD1
 70
     0
  9
$DIMSD2
 70
     0
  9
$DIMTOLJ
 70
     1
  9
$DIMTZIN
 70
     0
  9
$DIMALTZ
 70
     0
  9
$DIMALTTZ
 70
     0
  9
$DIMFIT
 70
     3
  9
$DIMUPT
 70
     0
  9
$DIMUNIT
 70
     8
  9
$DIMDEC
 70
     2
  9
$DIMTDEC
 70
     2
  9
$DIMALTU
 70
     8
  9
$DIMALTTD
 70
     4
  9
$DIMTXSTY
  7
STANDARD
  9
$DIMAUNIT
 70
     0
  9
$LUNITS
 70
     2
  9
$LUPREC
 70
     3
  9
$SKETCHINC
 40
1.0
  9
$FILLETRAD
 40
10.0
  9
$AUNITS
 70
     0
  9
$AUPREC
 70
     2
  9
$MENU
  1
.
  9
$ELEVATION
 40
0.0
  9
$PELEVATION
 40
0.0
  9
$THICKNESS
 40
0.0
  9
$LIMCHECK
 70
     0
  9
$BLIPMODE
 70
     0
  9
$CHAMFERA
 40
0.5
  9
$CHAMFERB
 40
0.5
  9
$CHAMFERC
 40
20.0
  9
$CHAMFERD
 40
0.0
  9
$SKPOLY
 70
     0
  9
$TDCREATE
 40
2453761.360965520
  9
$TDUPDATE
 40
2453832.509610277
  9
$TDINDWG
 40
0.4999632870
  9
$TDUSRTIMER
 40
0.4999631134
  9
$USRTIMER
 70
     1
  9
$ANGBASE
 50
0.0
  9
$ANGDIR
 70
     0
  9
$PDMODE
 70
     0
  9
$PDSIZE
 40
-10.0
  9
$PLINEWID
 40
0.0
  9
$COORDS
 70
     0
  9
$SPLFRAME
 70
     0
  9
$SPLINETYPE
 70
     6
  9
$SPLINESEGS
 70
     8
  9
$ATTDIA
 70
     0
  9
$ATTREQ
 70
     1
  9
$HANDLING
 70
-16383
  9
$HANDSEED
  5
161C
  9
$SURFTAB1
 70
     6
  9
$SURFTAB2
 70
     6
  9
$SURFTYPE
 70
     6
  9
$SURFU
 70
     6
  9
$SURFV
 70
     6
  9
$UCSNAME
  2

  9
$UCSORG
 10
0.0
 20
0.0
 30
0.0
  9
$UCSXDIR
 10
1.0
 20
0.0
 30
0.0
  9
$UCSYDIR
 10
0.0
 20
1.0
 30
0.0
  9
$PUCSNAME
  2

  9
$PUCSORG
 10
0.0
 20
0.0
 30
0.0
  9
$PUCSXDIR
 10
1.0
 20
0.0
 30
0.0
  9
$PUCSYDIR
 10
0.0
 20
1.0
 30
0.0
  9
$USERI1
 70
     0
  9
$USERI2
 70
     0
  9
$USERI3
 70
     0
  9
$USERI4
 70
     0
  9
$USERI5
 70
     0
  9
$USERR1
 40
0.0
  9
$USERR2
 40
0.0
  9
$USERR3
 40
0.0
  9
$USERR4
 40
0.0
  9
$USERR5
 40
0.0
  9
$WORLDVIEW
 70
     1
  9
$SHADEDGE
 70
     3
  9
$SHADEDIF
 70
    70
  9
$TILEMODE
 70
     1
  9
$MAXACTVP
 70
    48
  9
$PINSBASE
 10
0.0
 20
0.0
 30
0.0
  9
$PLIMCHECK
 70
     0
  9
$PEXTMIN
 10
0.0
 20
0.0
 30
0.0
  9
$PEXTMAX
 10
0.0
 20
0.0
 30
0.0
  9
$PLIMMIN
 10
0.0
 20
0.0
  9
$PLIMMAX
 10
12.0
 20
9.0
  9
$UNITMODE
 70
     0
  9
$VISRETAIN
 70
     1
  9
$PLINEGEN
 70
     0
  9
$PSLTSCALE
 70
     1
  9
$TREEDEPTH
 70
  3020
  9
$PICKSTYLE
 70
     1
  9
$CMLSTYLE
  2
STANDARD
  9
$CMLJUST
 70
     0
  9
$CMLSCALE
 40
1.0
  9
$PROXYGRAPHICS
 70
     1
  9
$MEASUREMENT
 70
     0
  0
ENDSEC
  0
SECTION
  2
CLASSES
  0
CLASS
  1
DICTIONARYVAR
  2
AcDbDictionaryVar
  3
AutoCAD 2000
 90
        0
280
     0
281
     0
  0
CLASS
  1
ACDBDICTIONARYWDFLT
  2
AcDbDictionaryWithDefault
  3
AutoCAD 2000
 90
        0
280
     0
281
     0
  0
CLASS
  1
ACDBPLACEHOLDER
  2
AcDbPlaceHolder
  3
AutoCAD 2000
 90
        0
280
     0
281
     0
  0
CLASS
  1
LAYOUT
  2
AcDbLayout
  3
AutoCAD 2000
 90
        0
280
     0
281
     0
  0
CLASS
  1
LONG_TRANSACTION
  2
AcDbLongTransaction
  3
AutoCAD 2000
 90
        0
280
     0
281
     0
  0
CLASS
  1
LWPOLYLINE
  2
AcDbPolyline
  3
AutoCAD 2000
 90
        0
280
     0
281
     1
  0
CLASS
  1
HATCH
  2
AcDbHatch
  3
AutoCAD 2000
 90
        0
280
     0
281
     1
  0
CLASS
  1
XRECORD
  2
AcDbXrecord
  3
AutoCAD 2000
 90
        0
280
     0
281
     0
  0
ENDSEC
  0
SECTION
  2
TABLES
  0
TABLE
  2
VPORT
  5
6E
330
0
100
AcDbSymbolTable
 70
     2
  0
VPORT
  5
15F6
330
6E
100
AcDbSymbolTableRecord
100
AcDbViewportTableRecord
  2
*ACTIVE
 70
     0
 10
0.0
 20
0.0
 11
1.0
 21
1.0
 12
433.9133327892246
 22
325.4764950037032
 13
0.0
 23
0.0
 14
10.0
 24
10.0
 15
18.0
 25
18.0
 16
0.0
 26
0.0
 36
1.0
 17
0.0
 27
0.0
 37
0.0
 40
576.0026283790805
 41
1.566970091027308
 42
50.0
 43
0.0
 44
0.0
 50
0.0
 51
0.0
 71
     0
 72
   100
 73
     1
 74
     3
 75
     0
 76
     0
 77
     0
 78
     0
  0
ENDTAB
  0
TABLE
  2
LTYPE
  5
69
330
0
100
AcDbSymbolTable
 70
     3
  0
LTYPE
  5
6A
330
69
100
AcDbSymbolTableRecord
100
AcDbLinetypeTableRecord
  2
BYBLOCK
 70
     0
  3

 72
    65
 73
     0
 40
0.0
  0
LTYPE
  5
6B
330
69
100
AcDbSymbolTableRecord
100
AcDbLinetypeTableRecord
  2
BYLAYER
 70
     0
  3

 72
    65
 73
     0
 40
0.0
  0
LTYPE
  5
8
330
69
100
AcDbSymbolTableRecord
100
AcDbLinetypeTableRecord
  2
CONTINUOUS
 70
     0
  3
Solid line
 72
    65
 73
     0
 40
0.0
  0
LTYPE
  5
27C
330
69
100
AcDbSymbolTableRecord
100
AcDbLinetypeTableRecord
  2
SEKKEI_A2_
 70
     0
  3
center(A2)  ____ _ ____ _ ____ _ ____ _ ____ _ 
 72
    65
 73
     4
 40
14.28749999999999
 49
9.525
 74
     0
 49
-1.587499999999999
 74
     0
 49
1.587499999999999
 74
     0
 49
-1.587499999999999
 74
     0
  0
LTYPE
  5
2B4
330
69
100
AcDbSymbolTableRecord
100
AcDbLinetypeTableRecord
  2
HIDDEN2
 70
     0
  3
Hidden (.5x) _ _ _ _ _ _ _ _ _ _ _ _ _ _ _ _ _
 72
    65
 73
     2
 40
4.762499999999999
 49
3.174999999999999
 74
     0
 49
-1.587499999999999
 74
     0
  0
ENDTAB
  0
TABLE
  2
LAYER
  5
66
330
0
100
AcDbSymbolTable
 70
     9
  0
LAYER
  5
5E
330
66
100
AcDbSymbolTableRecord
100
AcDbLayerTableRecord
  2
0
 70
     0
 62
     7
  6
CONTINUOUS
  0
LAYER
  5
3E
330
66
100
AcDbSymbolTableRecord
100
AcDbLayerTableRecord
  2
CENTER
 70
     0
 62
     3
  6
SEKKEI_A2_
  0
LAYER
  5
2B5
330
66
100
AcDbSymbolTableRecord
100
AcDbLayerTableRecord
  2
HIDS
 70
     0
 62
     1
  6
HIDDEN2
  0
LAYER
  5
2BA
330
66
100
AcDbSymbolTableRecord
100
AcDbLayerTableRecord
  2
HOJO
 70
     0
 62
     4
  6
CONTINUOUS
  0
LAYER
  5
3FA
330
66
100
AcDbSymbolTableRecord
100
AcDbLayerTableRecord
  2
TITLE
 70
     0
 62
     4
  6
CONTINUOUS
  0
ENDTAB
  0
TABLE
  2
STYLE
  5
67
330
0
100
AcDbSymbolTable
 70
     1
  0
STYLE
  5
16
330
67
100
AcDbSymbolTableRecord
100
AcDbTextStyleTableRecord
  2
STANDARD
 70
     0
 40
0.0
 41
1.0
 50
0.0
 71
     0
 42
2.0
  3
simplex.shx
  4
extfont.shx
  0
ENDTAB
  0
TABLE
  2
VIEW
  5
6C
330
0
100
AcDbSymbolTable
 70
     0
  0
ENDTAB
  0
TABLE
  2
UCS
  5
6D
330
0
100
AcDbSymbolTable
 70
     0
  0
ENDTAB
  0
TABLE
  2
APPID
  5
70
330
0
100
AcDbSymbolTable
 70
     1
  0
APPID
  5
71
330
70
100
AcDbSymbolTableRecord
100
AcDbRegAppTableRecord
  2
ACAD
 70
     0
  0
ENDTAB
  0
TABLE
  2
DIMSTYLE
  5
72
330
0
100
AcDbSymbolTable
 70
     1
  0
DIMSTYLE
105
73
330
72
100
AcDbSymbolTableRecord
100
AcDbDimStyleTableRecord
  2
STANDARD
 70
     0
  3

  4

  5

  6

  7

 40
3.0
 41
1.8
 42
0.625
 43
3.75
 44
0.8
 45
0.0
 46
0.0
 47
0.0
 48
0.0
140
1.8
141
2.5
142
0.0
143
0.0394
144
1.0
145
0.0
146
1.0
147
0.75
 71
     0
 72
     0
 73
     0
 74
     0
 75
     0
 76
     0
 77
     1
 78
     8
170
     0
171
     4
172
     1
173
     0
174
     0
175
     0
176
     0
177
     0
178
     0
270
     8
271
     2
272
     2
273
     8
274
     4
340
16
275
     0
280
     0
281
     0
282
     0
283
     1
284
     0
285
     0
286
     0
287
     3
288
     0
  0
ENDTAB
  0
TABLE
  2
BLOCK_RECORD
  5
1
330
0
100
AcDbSymbolTable
 70
    62
  0
BLOCK_RECORD
  5
2
102
{ACAD_XDICTIONARY
360
1618
102
}
330
1
100
AcDbSymbolTableRecord
100
AcDbBlockTableRecord
  2
*MODEL_SPACE
  0
BLOCK_RECORD
  5
15F1
102
{ACAD_XDICTIONARY
360
161A
102
}
330
1
100
AcDbSymbolTableRecord
100
AcDbBlockTableRecord
  2
*PAPER_SPACE
  0
ENDTAB
  0
ENDSEC
  0
SECTION
  2
BLOCKS
  0
BLOCK
  5
5D
330
2
100
AcDbEntity
  8
0
100
AcDbBlockBegin
  2
*MODEL_SPACE
 70
     0
 10
0.0
 20
0.0
 30
0.0
  3
*MODEL_SPACE
  1

  0
ENDBLK
  5
5F
330
2
100
AcDbEntity
  8
0
100
AcDbBlockEnd
  0
BLOCK
  5
15F3
330
15F1
100
AcDbEntity
 67
     1
  8
0
100
AcDbBlockBegin
  2
*PAPER_SPACE
 70
     0
 10
0.0
 20
0.0
 30
0.0
  3
*PAPER_SPACE
  1

  0
ENDBLK
  5
15F4
330
15F1
100
AcDbEntity
 67
     1
  8
0
100
AcDbBlockEnd
  0
ENDSEC
  0
SECTION
  2
ENTITIES
  0
TEXT
  5
5E5
330
2
100
AcDbEntity
  8
TITLE
100
AcDbText
 10
668.0383187491933
 20
485.5265464691333
 30
0.0
 40
7.0
  1
GKMN-32-600~900-S90K
100
AcDbText
  0
TEXT
  5
5E6
330
2
100
AcDbEntity
  8
TITLE
100
AcDbText
 10
488.0383187491934
 20
485.5265464691333
 30
0.0
 40
7.0
  1
GKMN-32-600~900-T90K
100
AcDbText
  0
TEXT
  5
5E7
330
2
100
AcDbEntity
  8
TITLE
100
AcDbText
 10
488.0383187491934
 20
533.5265464691333
 30
0.0
 40
7.0
  1
GKMN-32-1200~1800-T40K
100
AcDbText
  0
TEXT
  5
5E8
330
2
100
AcDbEntity
  8
TITLE
100
AcDbText
 10
668.0383187491933
 20
509.5265464691333
 30
0.0
 40
7.0
  1
GKMN-32-1200~1800-S60K
100
AcDbText
  0
TEXT
  5
5E9
330
2
100
AcDbEntity
  8
TITLE
100
AcDbText
 10
488.0383187491934
 20
509.5265464691333
 30
0.0
 40
7.0
  1
GKMN-32-1200~1800-T60K
100
AcDbText
  0
TEXT
  5
5EA
330
2
100
AcDbEntity
  8
TITLE
100
AcDbText
 10
668.0383187491933
 20
533.5265464691333
 30
0.0
 40
7.0
  1
GKMN-32-1200~1800-S40K
100
AcDbText
  0
LINE
  5
5EB
330
2
100
AcDbEntity
  8
0
100
AcDbLine
 10
575.5394574759804
 20
101.4004005043542
 30
0.0
 11
550.0836474759804
 21
126.8562415043542
 31
0.0
  0
LINE
  5
5EC
330
2
100
AcDbEntity
  8
0
100
AcDbLine
 10
550.0836474759804
 20
255.0156195043541
 30
0.0
 11
575.5394574759804
 21
280.4714605043542
 31
0.0
  0
LINE
  5
5ED
330
2
100
AcDbEntity
  8
CENTER
100
AcDbLine
 10
531.2829264759804
 20
276.9359385043542
 30
0.0
 11
749.2654094759805
 21
276.9359385043542
 31
0.0
  0
LINE
  5
5EE
330
2
100
AcDbEntity
  8
CENTER
100
AcDbLine
 10
531.2829264759804
 20
104.9359385043542
 30
0.0
 11
749.2654094759805
 21
104.9359385043542
 31
0.0
  0
LINE
  5
5EF
330
2
100
AcDbEntity
  8
0
100
AcDbLine
 10
725.6191694759804
 20
289.9359385043542
 30
0.0
 11
553.6191694759804
 21
289.9359385043542
 31
0.0
  0
LINE
  5
5F0
330
2
100
AcDbEntity
  8
0
100
AcDbLine
 10
725.6191694759804
 20
91.93593850435423
 30
0.0
 11
553.6191694759804
 21
91.93593850435423
 31
0.0
  0
LINE
  5
5F1
330
2
100
AcDbEntity
  8
CENTER
100
AcDbLine
 10
513.0942674759804
 20
218.4359385043542
 30
0.0
 11
765.8829024759804
 21
218.4359385043542
 31
0.0
  0
LINE
  5
5F2
330
2
100
AcDbEntity
  8
CENTER
100
AcDbLine
 10
513.0942674759804
 20
189.9359385043542
 30
0.0
 11
765.8829024759804
 21
189.9359385043542
 31
0.0
  0
LINE
  5
5F3
330
2
100
AcDbEntity
  8
0
100
AcDbLine
 10
354.2543961559979
 20
414.2412086754381
 30
0.0
 11
354.2543651559979
 21
610.2285746754382
 31
0.0
  0
LINE
  5
5F4
330
2
100
AcDbEntity
  8
0
100
AcDbLine
 10
369.2544871559978
 20
610.7348616754381
 30
0.0
 11
369.2544871559978
 21
413.7348916754381
 31
0.0
  0
LINE
  5
5F5
330
2
100
AcDbEntity
  8
CENTER
100
AcDbLine
 10
230.9607401559978
 20
189.9359385043542
 30
0.0
 11
290.3001469197292
 21
189.9359385043542
 31
0.0
  0
LINE
  5
5F6
330
2
100
AcDbEntity
  8
0
100
AcDbLine
 10
139.7544721559978
 20
142.5266365043542
 30
0.0
 11
248.7167981559979
 21
142.5266365043542
 31
0.0
  0
LINE
  5
5F7
330
2
100
AcDbEntity
  8
0
100
AcDbLine
 10
139.7544721559978
 20
211.3452405043542
 30
0.0
 11
248.7167981559979
 21
211.3452405043542
 31
0.0
  0
LINE
  5
5F9
330
2
100
AcDbEntity
  8
0
100
AcDbLine
 10
139.7544721559978
 20
131.9359385043542
 30
0.0
 11
258.7544721559978
 21
131.9359385043542
 31
0.0
  0
LINE
  5
5FA
330
2
100
AcDbEntity
  8
0
100
AcDbLine
 10
139.7544721559978
 20
221.9359385043542
 30
0.0
 11
258.7544721559978
 21
221.9359385043542
 31
0.0
  0
LINE
  5
5FB
330
2
100
AcDbEntity
  8
0
100
AcDbLine
 10
82.75449515599792
 20
134.9359385043542
 30
0.0
 11
82.75449515599792
 21
218.9359385043542
 31
0.0
  0
LINE
  5
5FC
330
2
100
AcDbEntity
  8
0
100
AcDbLine
 10
130.2544721559978
 20
223.9359385043542
 30
0.0
 11
130.2544721559978
 21
129.9359385043542
 31
0.0
  0
LINE
  5
5FD
330
2
100
AcDbEntity
  8
0
100
AcDbLine
 10
139.7544721559978
 20
221.9359385043542
 30
0.0
 11
139.7544721559978
 21
131.9359385043542
 31
0.0
  0
LINE
  5
5FF
330
2
100
AcDbEntity
  8
0
100
AcDbLine
 10
87.75447215599786
 20
129.9359385043542
 30
0.0
 11
130.2544721559978
 21
129.9359385043542
 31
0.0
  0
LINE
  5
600
330
2
100
AcDbEntity
  8
0
100
AcDbLine
 10
130.2544721559978
 20
147.9359385043542
 30
0.0
 11
86.27947415599782
 21
147.9359385043542
 31
0.0
  0
LINE
  5
601
330
2
100
AcDbEntity
  8
CENTER
100
AcDbLine
 10
63.75447215599786
 20
176.9359385043542
 30
0.0
 11
318.7100359301839
 21
176.9359385043542
 31
0.0
  0
ARC
  5
602
330
2
100
AcDbEntity
  8
0
100
AcDbCircle
 10
87.75447215599786
 20
134.9359385043542
 30
0.0
 40
5.0
100
AcDbArc
 50
180.0
 51
270.0
  0
LINE
  5
604
330
2
100
AcDbEntity
  8
0
100
AcDbLine
 10
130.2544721559978
 20
131.9359385043542
 30
0.0
 11
139.7544721559978
 21
131.9359385043542
 31
0.0
  0
LINE
  5
605
330
2
100
AcDbEntity
  8
0
100
AcDbLine
 10
139.7544721559978
 20
142.5266365043542
 30
0.0
 11
130.2544721559978
 21
142.5266365043542
 31
0.0
  0
LINE
  5
606
330
2
100
AcDbEntity
  8
0
100
AcDbLine
 10
87.75447215599786
 20
223.9359385043542
 30
0.0
 11
130.2544721559978
 21
223.9359385043542
 31
0.0
  0
LINE
  5
607
330
2
100
AcDbEntity
  8
0
100
AcDbLine
 10
130.2544721559978
 20
205.9359385043542
 30
0.0
 11
86.27947415599782
 21
205.9359385043542
 31
0.0
  0
ARC
  5
608
330
2
100
AcDbEntity
  8
0
100
AcDbCircle
 10
87.75451015599788
 20
218.9359535043542
 30
0.0
 40
5.0
100
AcDbArc
 50
90.0
 51
180.0
  0
ARC
  5
60B
330
2
100
AcDbEntity
  8
0
100
AcDbCircle
 10
130.2544951559979
 20
205.1234385043542
 30
0.0
 40
1.5
100
AcDbArc
 50
0.0
 51
90.0
  0
ARC
  5
60C
330
2
100
AcDbEntity
  8
0
100
AcDbCircle
 10
130.2544951559979
 20
205.1234385043542
 30
0.0
 40
3.0
100
AcDbArc
 50
0.0
 51
90.0
  0
ARC
  5
60D
330
2
100
AcDbEntity
  8
0
100
AcDbCircle
 10
130.2544951559979
 20
205.1234385043542
 30
0.0
 40
4.5
100
AcDbArc
 50
0.0
 51
90.0
  0
LINE
  5
60E
330
2
100
AcDbEntity
  8
HOJO
100
AcDbLine
 10
131.7544951559979
 20
200.1234385043542
 30
0.0
 11
133.2544951559979
 21
200.6234385043542
 31
0.0
  0
LINE
  5
60F
330
2
100
AcDbEntity
  8
0
100
AcDbLine
 10
131.7544951559979
 20
205.1234385043542
 30
0.0
 11
131.7544951559979
 21
200.1078135043542
 31
0.0
  0
LINE
  5
610
330
2
100
AcDbEntity
  8
HOJO
100
AcDbLine
 10
133.2544951559979
 20
201.1234385043542
 30
0.0
 11
134.7544951559979
 21
200.6234385043542
 31
0.0
  0
LINE
  5
611
330
2
100
AcDbEntity
  8
0
100
AcDbLine
 10
134.7544951559979
 20
205.1234385043542
 30
0.0
 11
134.7544951559979
 21
200.6234385043542
 31
0.0
  0
LINE
  5
612
330
2
100
AcDbEntity
  8
0
100
AcDbLine
 10
133.2544951559979
 20
205.1234385043542
 30
0.0
 11
133.2544951559979
 21
200.6234385043542
 31
0.0
  0
LINE
  5
613
330
2
100
AcDbEntity
  8
0
100
AcDbLine
 10
139.7544721559978
 20
211.3452405043542
 30
0.0
 11
130.2544721559978
 21
211.3452405043542
 31
0.0
  0
LINE
  5
614
330
2
100
AcDbEntity
  8
0
100
AcDbLine
 10
130.2544721559978
 20
221.9359385043542
 30
0.0
 11
139.7544721559978
 21
221.9359385043542
 31
0.0
  0
LINE
  5
61D
330
2
100
AcDbEntity
  8
CENTER
100
AcDbLine
 10
553.6191694759804
 20
301.0321905043543
 30
0.0
 11
553.6191694759804
 21
81.09469050435427
 31
0.0
  0
LINE
  5
61E
330
2
100
AcDbEntity
  8
0
100
AcDbLine
 10
354.2543651559979
 20
93.90828150435424
 30
0.0
 11
354.2543651559979
 21
287.8323315043542
 31
0.0
  0
LINE
  5
621
330
2
100
AcDbEntity
  8
0
100
AcDbLine
 10
540.6191694759804
 20
104.9359385043542
 30
0.0
 11
540.6191694759804
 21
276.9359385043542
 31
0.0
  0
LINE
  5
622
330
2
100
AcDbEntity
  8
0
100
AcDbLine
 10
274.2544871559978
 20
286.4359385043542
 30
0.0
 11
274.2544871559978
 21
95.43593850435422
 31
0.0
  0
LINE
  5
623
330
2
100
AcDbEntity
  8
0
100
AcDbLine
 10
267.2534961559979
 20
283.9359385043542
 30
0.0
 11
267.2534961559979
 21
98.4358625043542
 31
0.0
  0
LINE
  5
624
330
2
100
AcDbEntity
  8
0
100
AcDbLine
 10
274.2544871559978
 20
286.4359385043542
 30
0.0
 11
274.2544871559978
 21
95.43593850435422
 31
0.0
  0
LINE
  5
625
330
2
100
AcDbEntity
  8
0
100
AcDbLine
 10
274.7543961559979
 20
95.42721050435421
 30
0.0
 11
354.2543651559979
 21
94.03953850435426
 31
0.0
  0
LINE
  5
626
330
2
100
AcDbEntity
  8
0
100
AcDbLine
 10
282.4347551559979
 20
110.9189405043542
 30
0.0
 11
346.7978531559979
 21
108.6716715043542
 31
0.0
  0
LINE
  5
627
330
2
100
AcDbEntity
  8
0
100
AcDbLine
 10
270.2536791559978
 20
95.43592350435426
 30
0.0
 11
274.2544871559978
 21
95.43592350435426
 31
0.0
  0
ARC
  5
628
330
2
100
AcDbEntity
  8
0
100
AcDbCircle
 10
270.2536791559978
 20
98.4358625043542
 30
0.0
 40
3.0
100
AcDbArc
 50
180.0
 51
270.0
  0
LINE
  5
629
330
2
100
AcDbEntity
  8
0
100
AcDbLine
 10
274.2544871559978
 20
95.93593850435423
 30
0.0
 11
274.7543961559979
 21
95.42721050435421
 31
0.0
  0
LINE
  5
62A
330
2
100
AcDbEntity
  8
0
100
AcDbLine
 10
274.2546711559979
 20
95.93612150435422
 30
0.0
 11
274.7542741559978
 21
95.38173950435419
 31
0.0
  0
LINE
  5
62B
330
2
100
AcDbEntity
  8
0
100
AcDbLine
 10
274.2546091559979
 20
95.93612150435422
 30
0.0
 11
274.7542431559978
 21
95.38173950435419
 31
0.0
  0
LINE
  5
62C
330
2
100
AcDbEntity
  8
0
100
AcDbLine
 10
273.0701001559978
 20
111.1061045043542
 30
0.0
 11
268.2444621559978
 21
111.1061045043542
 31
0.0
  0
LINE
  5
62D
330
2
100
AcDbEntity
  8
0
100
AcDbLine
 10
355.7020281559978
 20
92.40919750435422
 30
0.0
 11
368.7547917460435
 21
91.95338229323244
 31
0.0
  0
ARC
  5
62E
330
2
100
AcDbEntity
  8
0
100
AcDbCircle
 10
355.7543651559979
 20
93.90828150435424
 30
0.0
 40
1.5
100
AcDbArc
 50
180.0
 51
268.0
  0
ARC
  5
630
330
2
100
AcDbEntity
  8
0
100
AcDbCircle
 10
553.6191694759804
 20
104.9359385043542
 30
0.0
 40
13.0
100
AcDbArc
 50
180.0
 51
270.0
  0
CIRCLE
  5
631
330
2
100
AcDbEntity
  8
0
100
AcDbCircle
 10
553.6191694759804
 20
104.9359385043542
 30
0.0
 40
6.5
  0
LINE
  5
632
330
2
100
AcDbEntity
  8
CENTER
100
AcDbLine
 10
322.1194781559979
 20
218.4359385043542
 30
0.0
 11
453.2082231559979
 21
218.4359385043542
 31
0.0
  0
LINE
  5
633
330
2
100
AcDbEntity
  8
0
100
AcDbLine
 10
387.2546711559979
 20
223.4359385043542
 30
0.0
 11
432.2546711559978
 21
223.4359385043542
 31
0.0
  0
LINE
  5
634
330
2
100
AcDbEntity
  8
0
100
AcDbLine
 10
377.2544871559978
 20
202.4358165043541
 30
0.0
 11
432.2546711559978
 21
202.4358165043541
 31
0.0
  0
LINE
  5
635
330
2
100
AcDbEntity
  8
0
100
AcDbLine
 10
387.2544871559978
 20
213.4359385043542
 30
0.0
 11
432.2546711559978
 21
213.4359385043542
 31
0.0
  0
LINE
  5
636
330
2
100
AcDbEntity
  8
0
100
AcDbLine
 10
377.2546711559979
 20
234.4359385043542
 30
0.0
 11
432.2546711559978
 21
234.4359385043542
 31
0.0
  0
LINE
  5
637
330
2
100
AcDbEntity
  8
0
100
AcDbLine
 10
374.2543651559979
 20
174.9359385043542
 30
0.0
 11
374.2543651559979
 21
261.9359385043542
 31
0.0
  0
LINE
  5
638
330
2
100
AcDbEntity
  8
0
100
AcDbLine
 10
369.2544871559978
 20
289.4359385043542
 30
0.0
 11
369.2544871559978
 21
92.43593244307517
 31
0.0
  0
LINE
  5
639
330
2
100
AcDbEntity
  8
0
100
AcDbLine
 10
280.2089551559979
 20
133.3680975043542
 30
0.0
 11
348.9289261559979
 21
135.7683515043542
 31
0.0
  0
LINE
  5
63A
330
2
100
AcDbEntity
  8
0
100
AcDbLine
 10
249.7544721559978
 20
219.9359385043542
 30
0.0
 11
249.7544721559978
 21
133.9359235043542
 31
0.0
  0
LINE
  5
63B
330
2
100
AcDbEntity
  8
0
100
AcDbLine
 10
258.7544721559978
 20
221.9359385043542
 30
0.0
 11
258.7544721559978
 21
131.9359385043542
 31
0.0
  0
LINE
  5
63C
330
2
100
AcDbEntity
  8
0
100
AcDbLine
 10
264.3321091559978
 20
131.7898205043542
 30
0.0
 11
258.7544721559978
 21
131.9359385043542
 31
0.0
  0
ARC
  5
63D
330
2
100
AcDbEntity
  8
0
100
AcDbCircle
 10
251.7544721559978
 20
133.9359385043542
 30
0.0
 40
2.0
100
AcDbArc
 50
180.0
 51
270.0
  0
LINE
  5
63E
330
2
100
AcDbEntity
  8
0
100
AcDbLine
 10
273.0701001559978
 20
133.2584175043542
 30
0.0
 11
268.2444621559978
 21
133.2584175043542
 31
0.0
  0
ARC
  5
63F
330
2
100
AcDbEntity
  8
0
100
AcDbCircle
 10
264.2534961559979
 20
128.7907965043542
 30
0.0
 40
3.0
100
AcDbArc
 50
0.0024770000002607
 51
88.49980200000018
  0
ARC
  5
642
330
2
100
AcDbEntity
  8
0
100
AcDbCircle
 10
264.2533131559979
 20
225.0809585043542
 30
0.0
 40
3.0
100
AcDbArc
 50
271.5006099999999
 51
0.0
  0
LINE
  5
644
330
2
100
AcDbEntity
  8
0
100
AcDbLine
 10
264.3318651559979
 20
222.0820565043542
 30
0.0
 11
258.7544721559978
 21
221.9359385043542
 31
0.0
  0
ARC
  5
645
330
2
100
AcDbEntity
  8
0
100
AcDbCircle
 10
251.7544721559978
 20
219.9359535043542
 30
0.0
 40
2.0
100
AcDbArc
 50
90.0
 51
180.0
  0
LINE
  5
646
330
2
100
AcDbEntity
  8
0
100
AcDbLine
 10
373.7543651559978
 20
174.4359385043542
 30
0.0
 11
374.2543651559979
 21
174.9359385043542
 31
0.0
  0
LINE
  5
647
330
2
100
AcDbEntity
  8
0
100
AcDbLine
 10
373.7543651559978
 20
174.4359385043542
 30
0.0
 11
369.2543651559978
 21
174.4359385043542
 31
0.0
  0
LINE
  5
648
330
2
100
AcDbEntity
  8
0
100
AcDbLine
 10
374.2543651559979
 20
201.4359385043542
 30
0.0
 11
377.2546711559979
 21
201.4359385043542
 31
0.0
  0
LINE
  5
649
330
2
100
AcDbEntity
  8
0
100
AcDbLine
 10
374.2543651559979
 20
235.4359385043542
 30
0.0
 11
377.2546711559979
 21
235.4359385043542
 31
0.0
  0
ARC
  5
64A
330
2
100
AcDbEntity
  8
0
100
AcDbCircle
 10
387.2546711559979
 20
218.4359385043542
 30
0.0
 40
5.0
100
AcDbArc
 50
90.0
 51
270.0
  0
LINE
  5
64B
330
2
100
AcDbEntity
  8
0
100
AcDbLine
 10
377.2546711559979
 20
235.4359385043542
 30
0.0
 11
377.2546711559979
 21
201.4359385043542
 31
0.0
  0
LINE
  5
64C
330
2
100
AcDbEntity
  8
0
100
AcDbLine
 10
274.7543961559979
 20
286.4446665043542
 30
0.0
 11
354.2542741559979
 21
287.8323315043542
 31
0.0
  0
LINE
  5
64D
330
2
100
AcDbEntity
  8
0
100
AcDbLine
 10
274.2544871559978
 20
286.4359385043542
 30
0.0
 11
269.7544721559978
 21
286.4359385043542
 31
0.0
  0
ARC
  5
64E
330
2
100
AcDbEntity
  8
0
100
AcDbCircle
 10
269.7544721559978
 20
283.9359385043542
 30
0.0
 40
2.5
100
AcDbArc
 50
90.0
 51
180.0
  0
LINE
  5
64F
330
2
100
AcDbEntity
  8
0
100
AcDbLine
 10
274.7543961559979
 20
286.4446665043542
 30
0.0
 11
274.2544871559978
 21
285.9359385043542
 31
0.0
  0
ARC
  5
650
330
2
100
AcDbEntity
  8
0
100
AcDbCircle
 10
355.7542741559978
 20
287.9635875043542
 30
0.0
 40
1.5
100
AcDbArc
 50
91.99999999999997
 51
180.0
  0
LINE
  5
651
330
2
100
AcDbEntity
  8
0
100
AcDbLine
 10
373.7543651559978
 20
262.4359385043542
 30
0.0
 11
374.2543651559979
 21
261.9359385043542
 31
0.0
  0
LINE
  5
652
330
2
100
AcDbEntity
  8
0
100
AcDbLine
 10
373.7543651559978
 20
262.4359385043542
 30
0.0
 11
369.2544871559978
 21
262.4359385043542
 31
0.0
  0
LINE
  5
653
330
2
100
AcDbEntity
  8
0
100
AcDbLine
 10
354.2542741559979
 20
287.9635875043542
 30
0.0
 11
354.2542741559979
 21
287.8323315043542
 31
0.0
  0
LINE
  5
654
330
2
100
AcDbEntity
  8
0
100
AcDbLine
 10
355.7019361559978
 20
289.4626715043542
 30
0.0
 11
368.7545791559978
 21
289.9184825043542
 31
0.0
  0
LINE
  5
655
330
2
100
AcDbEntity
  8
0
100
AcDbLine
 10
368.7545791559978
 20
289.9184825043542
 30
0.0
 11
369.2542741559979
 21
289.4359385043542
 31
0.0
  0
LINE
  5
656
330
2
100
AcDbEntity
  8
0
100
AcDbLine
 10
354.7461561559978
 20
413.7415136754382
 30
0.0
 11
368.7547931559979
 21
413.2523476754381
 31
0.0
  0
ARC
  5
657
330
2
100
AcDbEntity
  8
0
100
AcDbCircle
 10
354.7543961559979
 20
414.2412086754381
 30
0.0
 40
0.5
100
AcDbArc
 50
180.0
 51
268.0
  0
LINE
  5
658
330
2
100
AcDbEntity
  8
0
100
AcDbLine
 10
369.2544871559978
 20
413.7348916754381
 30
0.0
 11
368.7547931559979
 21
413.2523476754381
 31
0.0
  0
LINE
  5
659
330
2
100
AcDbEntity
  8
0
100
AcDbLine
 10
432.2546711559978
 20
234.4359385043542
 30
0.0
 11
432.2546711559978
 21
202.4358165043541
 31
0.0
  0
LINE
  5
65A
330
2
100
AcDbEntity
  8
0
100
AcDbLine
 10
548.6191694759805
 20
130.3917795043541
 30
0.0
 11
548.6191694759805
 21
251.4800975043542
 31
0.0
  0
ARC
  5
65B
330
2
100
AcDbEntity
  8
0
100
AcDbCircle
 10
553.6191694759804
 20
130.3917795043541
 30
0.0
 40
5.0
100
AcDbArc
 50
180.0
 51
225.0000000000002
  0
ARC
  5
65C
330
2
100
AcDbEntity
  8
0
100
AcDbCircle
 10
553.6191694759804
 20
251.4800975043542
 30
0.0
 40
5.0
100
AcDbArc
 50
134.9999999999997
 51
180.0
  0
ARC
  5
65D
330
2
100
AcDbEntity
  8
0
100
AcDbCircle
 10
553.6191694759804
 20
276.9359385043542
 30
0.0
 40
13.0
100
AcDbArc
 50
90.0
 51
180.0
  0
CIRCLE
  5
65E
330
2
100
AcDbEntity
  8
0
100
AcDbCircle
 10
553.6191694759804
 20
276.9359385043542
 30
0.0
 40
6.5
  0
LINE
  5
65F
330
2
100
AcDbEntity
  8
0
100
AcDbLine
 10
249.7544261559978
 20
483.2348916754381
 30
0.0
 11
139.7544341559979
 21
483.2348916754381
 31
0.0
  0
LINE
  5
660
330
2
100
AcDbEntity
  8
0
100
AcDbLine
 10
249.7544261559978
 20
541.2348616754382
 30
0.0
 11
139.7544341559979
 21
541.2348616754382
 31
0.0
  0
LINE
  5
661
330
2
100
AcDbEntity
  8
0
100
AcDbLine
 10
139.7544341559979
 20
467.2348916754381
 30
0.0
 11
258.7544261559978
 21
467.2348916754381
 31
0.0
  0
LINE
  5
662
330
2
100
AcDbEntity
  8
0
100
AcDbLine
 10
139.7544341559979
 20
557.2348616754381
 30
0.0
 11
258.7544261559978
 21
557.2348616754381
 31
0.0
  0
LINE
  5
663
330
2
100
AcDbEntity
  8
CENTER
100
AcDbLine
 10
63.75447215599791
 20
512.2348616754382
 30
0.0
 11
453.2082231559979
 21
512.2348616754382
 31
0.0
  0
LINE
  5
664
330
2
100
AcDbEntity
  8
0
100
AcDbLine
 10
82.75444215599794
 20
554.2348616754382
 30
0.0
 11
82.7544111559979
 21
470.2348616754382
 31
0.0
  0
LINE
  5
665
330
2
100
AcDbEntity
  8
0
100
AcDbLine
 10
130.2544341559979
 20
559.2348616754382
 30
0.0
 11
130.2544341559979
 21
465.2348916754381
 31
0.0
  0
LINE
  5
666
330
2
100
AcDbEntity
  8
0
100
AcDbLine
 10
139.7544341559979
 20
557.2348616754381
 30
0.0
 11
139.7544341559979
 21
537.2348616754382
 31
0.0
  0
LINE
  5
667
330
2
100
AcDbEntity
  8
0
100
AcDbLine
 10
139.7544341559978
 20
487.2348616754381
 30
0.0
 11
139.7544341559979
 21
467.2348916754381
 31
0.0
  0
LINE
  5
668
330
2
100
AcDbEntity
  8
0
100
AcDbLine
 10
87.7544111559979
 20
465.2348916754381
 30
0.0
 11
130.2544341559979
 21
465.2348916754381
 31
0.0
  0
ARC
  5
669
330
2
100
AcDbEntity
  8
0
100
AcDbCircle
 10
87.7544111559979
 20
470.2348916754381
 30
0.0
 40
5.0
100
AcDbArc
 50
180.0
 51
270.0
  0
LINE
  5
66A
330
2
100
AcDbEntity
  8
HOJO
100
AcDbLine
 10
131.7544341559979
 20
467.9650556754381
 30
0.0
 11
133.2544341559978
 21
468.4650556754381
 31
0.0
  0
ARC
  5
66B
330
2
100
AcDbEntity
  8
0
100
AcDbCircle
 10
130.2544341559979
 20
472.9650556754381
 30
0.0
 40
3.0
100
AcDbArc
 50
0.0
 51
90.0
  0
ARC
  5
66C
330
2
100
AcDbEntity
  8
0
100
AcDbCircle
 10
130.2544341559979
 20
472.9650556754381
 30
0.0
 40
4.5
100
AcDbArc
 50
0.0
 51
90.0
  0
LINE
  5
66D
330
2
100
AcDbEntity
  8
0
100
AcDbLine
 10
130.2544341559979
 20
467.2348916754381
 30
0.0
 11
139.7544341559979
 21
467.2348916754381
 31
0.0
  0
LINE
  5
66E
330
2
100
AcDbEntity
  8
0
100
AcDbLine
 10
131.7544341559979
 20
472.9650556754381
 30
0.0
 11
131.7544341559979
 21
467.9494306754381
 31
0.0
  0
ARC
  5
66F
330
2
100
AcDbEntity
  8
0
100
AcDbCircle
 10
130.2544341559979
 20
472.9650556754381
 30
0.0
 40
1.5
100
AcDbArc
 50
0.0
 51
90.0
  0
LINE
  5
670
330
2
100
AcDbEntity
  8
HOJO
100
AcDbLine
 10
133.2544341559978
 20
468.9650556754381
 30
0.0
 11
134.7544341559979
 21
468.4650556754381
 31
0.0
  0
LINE
  5
671
330
2
100
AcDbEntity
  8
0
100
AcDbLine
 10
134.7544341559979
 20
472.9650556754381
 30
0.0
 11
134.7544341559979
 21
468.4650556754381
 31
0.0
  0
LINE
  5
672
330
2
100
AcDbEntity
  8
0
100
AcDbLine
 10
133.2544341559978
 20
472.9650556754381
 30
0.0
 11
133.2544341559978
 21
468.4650556754381
 31
0.0
  0
LINE
  5
673
330
2
100
AcDbEntity
  8
0
100
AcDbLine
 10
130.2544341559979
 20
483.2348916754381
 30
0.0
 11
86.27940515599789
 21
483.2348916754381
 31
0.0
  0
LINE
  5
674
330
2
100
AcDbEntity
  8
0
100
AcDbLine
 10
130.2544341559979
 20
541.2348616754382
 30
0.0
 11
86.27940515599789
 21
541.2348616754382
 31
0.0
  0
LINE
  5
679
330
2
100
AcDbEntity
  8
0
100
AcDbLine
 10
139.7544341559979
 20
483.2348916754381
 30
0.0
 11
130.2544341559979
 21
483.2348916754381
 31
0.0
  0
LINE
  5
684
330
2
100
AcDbEntity
  8
0
100
AcDbLine
 10
139.7544341559979
 20
541.2348616754382
 30
0.0
 11
130.2544341559979
 21
541.2348616754382
 31
0.0
  0
LINE
  5
685
330
2
100
AcDbEntity
  8
0
100
AcDbLine
 10
87.7544111559979
 20
559.2348616754382
 30
0.0
 11
130.2544341559979
 21
559.2348616754382
 31
0.0
  0
ARC
  5
686
330
2
100
AcDbEntity
  8
0
100
AcDbCircle
 10
87.75444215599794
 20
554.2348616754382
 30
0.0
 40
5.0
100
AcDbArc
 50
90.0
 51
180.0
  0
LINE
  5
687
330
2
100
AcDbEntity
  8
0
100
AcDbLine
 10
130.2544341559979
 20
557.2348616754381
 30
0.0
 11
139.7544341559979
 21
557.2348616754381
 31
0.0
  0
LINE
  5
688
330
2
100
AcDbEntity
  8
0
100
AcDbLine
 10
382.2546711559979
 20
497.0358866754382
 30
0.0
 11
432.2546711559978
 21
497.0358866754382
 31
0.0
  0
LINE
  5
689
330
2
100
AcDbEntity
  8
0
100
AcDbLine
 10
382.2546711559979
 20
493.2348916754381
 30
0.0
 11
432.2546711559978
 21
493.2348916754381
 31
0.0
  0
LINE
  5
68A
330
2
100
AcDbEntity
  8
0
100
AcDbLine
 10
377.2546711559979
 20
528.2348616754382
 30
0.0
 11
432.2546711559978
 21
528.2348616754382
 31
0.0
  0
LINE
  5
68B
330
2
100
AcDbEntity
  8
0
100
AcDbLine
 10
374.2543651559979
 20
468.734891675438
 30
0.0
 11
374.2543651559979
 21
555.7348616754381
 31
0.0
  0
LINE
  5
68C
330
2
100
AcDbEntity
  8
0
100
AcDbLine
 10
249.7544261559978
 20
541.2348616754382
 30
0.0
 11
249.7544261559978
 21
555.2348616754382
 31
0.0
  0
LINE
  5
68D
330
2
100
AcDbEntity
  8
0
100
AcDbLine
 10
258.7543501559979
 20
557.2348616754381
 30
0.0
 11
258.7543501559979
 21
467.2348916754381
 31
0.0
  0
LINE
  5
68E
330
2
100
AcDbEntity
  8
0
100
AcDbLine
 10
258.7543501559979
 20
557.2348616754381
 30
0.0
 11
258.7543501559979
 21
467.2348916754381
 31
0.0
  0
LINE
  5
68F
330
2
100
AcDbEntity
  8
0
100
AcDbLine
 10
267.2527631559979
 20
420.3407266754381
 30
0.0
 11
267.2530681559978
 21
604.1290876754382
 31
0.0
  0
LINE
  5
691
330
2
100
AcDbEntity
  8
0
100
AcDbLine
 10
354.2543961559979
 20
415.8383156754382
 30
0.0
 11
274.7543961559979
 21
417.2261946754381
 31
0.0
  0
LINE
  5
692
330
2
100
AcDbEntity
  8
0
100
AcDbLine
 10
249.7544261559978
 20
483.2348916754381
 30
0.0
 11
249.7544261559978
 21
469.2348616754381
 31
0.0
  0
LINE
  5
693
330
2
100
AcDbEntity
  8
0
100
AcDbLine
 10
274.2544871559978
 20
417.2349226754382
 30
0.0
 11
274.2544871559978
 21
607.2348896426723
 31
0.0
  0
LINE
  5
694
330
2
100
AcDbEntity
  8
0
100
AcDbLine
 10
270.1742261559978
 20
417.3417336754382
 30
0.0
 11
274.2534191559979
 21
417.2349226754382
 31
0.0
  0
ARC
  5
695
330
2
100
AcDbEntity
  8
0
100
AcDbCircle
 10
270.2527631559979
 20
420.3407266754381
 30
0.0
 40
3.0
100
AcDbArc
 50
180.0
 51
268.5000000000001
  0
LINE
  5
696
330
2
100
AcDbEntity
  8
0
100
AcDbLine
 10
274.2544871559978
 20
417.7349226754381
 30
0.0
 11
274.7543961559979
 21
417.2261946754381
 31
0.0
  0
LINE
  5
697
330
2
100
AcDbEntity
  8
0
100
AcDbLine
 10
258.7543501559979
 20
467.2348916754381
 30
0.0
 11
264.5158251559978
 21
466.7308326754382
 31
0.0
  0
ARC
  5
698
330
2
100
AcDbEntity
  8
0
100
AcDbCircle
 10
251.7544261559978
 20
469.2348916754381
 30
0.0
 40
2.0
100
AcDbArc
 50
180.0
 51
270.0
  0
ARC
  5
699
330
2
100
AcDbEntity
  8
0
100
AcDbCircle
 10
264.2543501559978
 20
463.7422466754382
 30
0.0
 40
3.0
100
AcDbArc
 50
0.0
 51
85.00000000000021
  0
LINE
  5
69A
330
2
100
AcDbEntity
  8
CENTER
100
AcDbLine
 10
349.4989641559978
 20
426.2348916754381
 30
0.0
 11
375.1888141559978
 21
426.2348916754381
 31
0.0
  0
LINE
  5
69B
330
2
100
AcDbEntity
  8
HIDS
100
AcDbLine
 10
354.2543651559979
 20
419.7348916754381
 30
0.0
 11
369.2544871559978
 21
419.7348916754381
 31
0.0
  0
LINE
  5
69C
330
2
100
AcDbEntity
  8
HIDS
100
AcDbLine
 10
354.2543651559979
 20
432.7348916754381
 30
0.0
 11
369.2544871559978
 21
432.7348916754381
 31
0.0
  0
LINE
  5
69D
330
2
100
AcDbEntity
  8
0
100
AcDbLine
 10
373.7543651559978
 20
468.2348916754381
 30
0.0
 11
374.2543651559979
 21
468.734891675438
 31
0.0
  0
LINE
  5
69E
330
2
100
AcDbEntity
  8
0
100
AcDbLine
 10
373.7543651559978
 20
468.2348916754381
 30
0.0
 11
369.2543651559978
 21
468.2348916754381
 31
0.0
  0
LINE
  5
69F
330
2
100
AcDbEntity
  8
0
100
AcDbLine
 10
374.2543651559979
 20
495.2348916754381
 30
0.0
 11
377.2546711559979
 21
495.2348916754381
 31
0.0
  0
LINE
  5
6A0
330
2
100
AcDbEntity
  8
0
100
AcDbLine
 10
374.2543651559979
 20
529.2348616754382
 30
0.0
 11
377.2546711559979
 21
529.2348616754382
 31
0.0
  0
LINE
  5
6A1
330
2
100
AcDbEntity
  8
0
100
AcDbLine
 10
377.2546711559979
 20
529.2348616754382
 30
0.0
 11
377.2546711559979
 21
495.2348916754381
 31
0.0
  0
LINE
  5
6A2
330
2
100
AcDbEntity
  8
0
100
AcDbLine
 10
382.2546711559979
 20
497.0358866754382
 30
0.0
 11
382.2546711559979
 21
493.2348916754381
 31
0.0
  0
LINE
  5
6A3
330
2
100
AcDbEntity
  8
0
100
AcDbLine
 10
377.2544871559978
 20
496.2347696754382
 30
0.0
 11
382.2546711559979
 21
496.2347696754382
 31
0.0
  0
LINE
  5
6A4
330
2
100
AcDbEntity
  8
0
100
AcDbLine
 10
354.2543651559979
 20
608.6314676754382
 30
0.0
 11
274.7543961559979
 21
607.2435896754382
 31
0.0
  0
LINE
  5
6A5
330
2
100
AcDbEntity
  8
0
100
AcDbLine
 10
258.7543501559979
 20
557.2348616754381
 30
0.0
 11
264.5158251559978
 21
557.7389506754382
 31
0.0
  0
ARC
  5
6A6
330
2
100
AcDbEntity
  8
0
100
AcDbCircle
 10
251.7544261559978
 20
555.2349226754382
 30
0.0
 40
2.0
100
AcDbArc
 50
90.0
 51
180.0
  0
ARC
  5
6A7
330
2
100
AcDbEntity
  8
0
100
AcDbCircle
 10
264.2543501559978
 20
560.7275366754381
 30
0.0
 40
3.0
100
AcDbArc
 50
274.9999999999997
 51
0.0
  0
LINE
  5
6A8
330
2
100
AcDbEntity
  8
0
100
AcDbLine
 10
270.1745311559978
 20
607.1280496754382
 30
0.0
 11
274.2544871559978
 21
607.2348896426723
 31
0.0
  0
ARC
  5
6A9
330
2
100
AcDbEntity
  8
0
100
AcDbCircle
 10
270.2530681559978
 20
604.1290876754382
 30
0.0
 40
3.0
100
AcDbArc
 50
91.49999999999987
 51
180.0
  0
LINE
  5
6AA
330
2
100
AcDbEntity
  8
0
100
AcDbLine
 10
274.2544871559978
 20
606.7348616754381
 30
0.0
 11
274.7543961559979
 21
607.2435896754382
 31
0.0
  0
LINE
  5
6AB
330
2
100
AcDbEntity
  8
0
100
AcDbLine
 10
373.7543651559978
 20
556.2348616754381
 30
0.0
 11
374.2543651559979
 21
555.7348616754381
 31
0.0
  0
LINE
  5
6AC
330
2
100
AcDbEntity
  8
0
100
AcDbLine
 10
373.7543651559978
 20
556.2348616754381
 30
0.0
 11
369.2544871559978
 21
556.2348616754381
 31
0.0
  0
LINE
  5
6AD
330
2
100
AcDbEntity
  8
CENTER
100
AcDbLine
 10
349.7262891559979
 20
598.2348616754381
 30
0.0
 11
374.2794201559979
 21
598.2348616754381
 31
0.0
  0
LINE
  5
6AE
330
2
100
AcDbEntity
  8
HIDS
100
AcDbLine
 10
354.2543651559979
 20
591.7348616754382
 30
0.0
 11
369.2544871559978
 21
591.7348616754382
 31
0.0
  0
LINE
  5
6AF
330
2
100
AcDbEntity
  8
HIDS
100
AcDbLine
 10
354.2543651559979
 20
604.7348616754382
 30
0.0
 11
369.2544871559978
 21
604.7348616754382
 31
0.0
  0
LINE
  5
6B0
330
2
100
AcDbEntity
  8
0
100
AcDbLine
 10
354.7461261559979
 20
610.7282696754382
 30
0.0
 11
368.7547931559979
 21
611.2174056754382
 31
0.0
  0
ARC
  5
6B1
330
2
100
AcDbEntity
  8
0
100
AcDbCircle
 10
354.7543651559978
 20
610.2285746754382
 30
0.0
 40
0.5
100
AcDbArc
 50
91.99999999999997
 51
180.0
  0
LINE
  5
6B2
330
2
100
AcDbEntity
  8
0
100
AcDbLine
 10
369.2544871559978
 20
610.7348616754381
 30
0.0
 11
368.7547931559979
 21
611.2174056754382
 31
0.0
  0
LINE
  5
6B3
330
2
100
AcDbEntity
  8
0
100
AcDbLine
 10
432.2546711559978
 20
528.2348616754382
 30
0.0
 11
432.2546711559978
 21
493.2348916754381
 31
0.0
  0
LINE
  5
6B4
330
2
100
AcDbEntity
  8
0
100
AcDbLine
 10
729.1546924759805
 20
126.8562415043542
 30
0.0
 11
703.6988204759804
 21
101.4004005043542
 31
0.0
  0
LINE
  5
6B5
330
2
100
AcDbEntity
  8
CENTER
100
AcDbLine
 10
725.6191694759804
 20
301.0321905043543
 30
0.0
 11
725.6191694759804
 21
81.09469050435427
 31
0.0
  0
LINE
  5
6B6
330
2
100
AcDbEntity
  8
0
100
AcDbLine
 10
738.6191694759804
 20
104.9359385043542
 30
0.0
 11
738.6191694759804
 21
276.9359385043542
 31
0.0
  0
LINE
  5
6B7
330
2
100
AcDbEntity
  8
CENTER
100
AcDbLine
 10
639.6191694759805
 20
315.2059275043542
 30
0.0
 11
639.6191694759805
 21
66.92093950435424
 31
0.0
  0
LINE
  5
6B8
330
2
100
AcDbEntity
  8
0
100
AcDbLine
 10
700.1632984759805
 20
99.93593850435424
 30
0.0
 11
579.0749804759805
 21
99.93593850435424
 31
0.0
  0
ARC
  5
6B9
330
2
100
AcDbEntity
  8
0
100
AcDbCircle
 10
579.0749804759805
 20
104.9359385043542
 30
0.0
 40
5.0
100
AcDbArc
 50
225.0000000000002
 51
270.0
  0
ARC
  5
6BA
330
2
100
AcDbEntity
  8
0
100
AcDbCircle
 10
700.1632984759805
 20
104.9359385043542
 30
0.0
 40
5.0
100
AcDbArc
 50
270.0
 51
314.9999999999996
  0
ARC
  5
6BB
330
2
100
AcDbEntity
  8
0
100
AcDbCircle
 10
725.6191694759804
 20
104.9359385043542
 30
0.0
 40
13.0
100
AcDbArc
 50
270.0
 51
0.0
  0
CIRCLE
  5
6BC
330
2
100
AcDbEntity
  8
0
100
AcDbCircle
 10
725.6191694759804
 20
104.9359385043542
 30
0.0
 40
6.5
  0
CIRCLE
  5
6BD
330
2
100
AcDbEntity
  8
0
100
AcDbCircle
 10
639.6191694759805
 20
218.4359385043542
 30
0.0
 40
44.0
  0
LINE
  5
6BE
330
2
100
AcDbEntity
  8
0
100
AcDbLine
 10
729.1546924759805
 20
255.0156195043541
 30
0.0
 11
703.6988204759804
 21
280.4714605043542
 31
0.0
  0
CIRCLE
  5
6BF
330
2
100
AcDbEntity
  8
0
100
AcDbCircle
 10
639.6191694759805
 20
218.4359385043542
 30
0.0
 40
25.0
  0
LINE
  5
6C0
330
2
100
AcDbEntity
  8
0
100
AcDbLine
 10
620.6191694759804
 20
223.4359385043542
 30
0.0
 11
620.6191694759804
 21
213.4359385043542
 31
0.0
  0
LINE
  5
6C1
330
2
100
AcDbEntity
  8
0
100
AcDbLine
 10
628.6191694759804
 20
223.4359385043542
 30
0.0
 11
628.6191694759804
 21
213.4359385043542
 31
0.0
  0
ARC
  5
6C2
330
2
100
AcDbEntity
  8
0
100
AcDbCircle
 10
639.6191694759805
 20
218.4359385043542
 30
0.0
 40
16.0
100
AcDbArc
 50
198.2100070000003
 51
161.7899929999996
  0
LINE
  5
6C3
330
2
100
AcDbEntity
  8
0
100
AcDbLine
 10
620.6191694759804
 20
213.4359385043542
 30
0.0
 11
628.6191694759804
 21
213.4359385043542
 31
0.0
  0
LINE
  5
6C4
330
2
100
AcDbEntity
  8
0
100
AcDbLine
 10
620.6191694759804
 20
223.4359385043542
 30
0.0
 11
628.6191694759804
 21
223.4359385043542
 31
0.0
  0
LINE
  5
6C5
330
2
100
AcDbEntity
  8
0
100
AcDbLine
 10
730.6191694759804
 20
130.3917795043541
 30
0.0
 11
730.6191694759804
 21
251.4800975043542
 31
0.0
  0
ARC
  5
6C6
330
2
100
AcDbEntity
  8
0
100
AcDbCircle
 10
725.6191694759804
 20
130.3917795043541
 30
0.0
 40
5.0
100
AcDbArc
 50
314.9999999999996
 51
0.0
  0
ARC
  5
6C7
330
2
100
AcDbEntity
  8
0
100
AcDbCircle
 10
725.6191694759804
 20
251.4800975043542
 30
0.0
 40
5.0
100
AcDbArc
 50
0.0
 51
45.00000000000022
  0
LINE
  5
6C8
330
2
100
AcDbEntity
  8
0
100
AcDbLine
 10
579.0749804759805
 20
281.9359385043542
 30
0.0
 11
700.1632984759805
 21
281.9359385043542
 31
0.0
  0
ARC
  5
6C9
330
2
100
AcDbEntity
  8
0
100
AcDbCircle
 10
579.0749804759805
 20
276.9359385043542
 30
0.0
 40
5.0
100
AcDbArc
 50
90.0
 51
134.9999999999997
  0
ARC
  5
6CA
330
2
100
AcDbEntity
  8
0
100
AcDbCircle
 10
700.1632984759805
 20
276.9359385043542
 30
0.0
 40
5.0
100
AcDbArc
 50
45.00000000000022
 51
90.0
  0
ARC
  5
6CB
330
2
100
AcDbEntity
  8
0
100
AcDbCircle
 10
725.6191694759804
 20
276.9359385043542
 30
0.0
 40
13.0
100
AcDbArc
 50
0.0
 51
90.0
  0
CIRCLE
  5
6CC
330
2
100
AcDbEntity
  8
0
100
AcDbCircle
 10
725.6191694759804
 20
276.9359385043542
 30
0.0
 40
6.5
  0
TEXT
  5
6CD
330
2
100
AcDbEntity
  8
TITLE
100
AcDbText
 10
668.0383187491933
 20
521.5265464691333
 30
0.0
 40
7.0
  1
GKMN-32-1200~1800-S40WK
100
AcDbText
  0
TEXT
  5
6CE
330
2
100
AcDbEntity
  8
TITLE
100
AcDbText
 10
668.0383187491933
 20
497.5265464691333
 30
0.0
 40
7.0
  1
GKMN-32-1200~1800-S60WK
100
AcDbText
  0
TEXT
  5
6CF
330
2
100
AcDbEntity
  8
TITLE
100
AcDbText
 10
668.0383187491933
 20
473.5265464691333
 30
0.0
 40
7.0
  1
GKMN-32-600~900-S90WK
100
AcDbText
  0
LINE
  5
B24
330
2
100
AcDbEntity
  8
CENTER
100
AcDbLine
 10
349.4989641559978
 20
276.9359385043542
 30
0.0
 11
375.1888141559978
 21
276.9359385043542
 31
0.0
  0
LINE
  5
B25
330
2
100
AcDbEntity
  8
HIDS
100
AcDbLine
 10
354.2543651559979
 20
270.4359385043542
 30
0.0
 11
369.2544871559978
 21
270.4359385043542
 31
0.0
  0
LINE
  5
B26
330
2
100
AcDbEntity
  8
HIDS
100
AcDbLine
 10
354.2543651559979
 20
283.4359385043542
 30
0.0
 11
369.2544871559978
 21
283.4359385043542
 31
0.0
  0
LINE
  5
B27
330
2
100
AcDbEntity
  8
CENTER
100
AcDbLine
 10
349.4988421559978
 20
104.9359385043542
 30
0.0
 11
375.1886921559978
 21
104.9359385043542
 31
0.0
  0
LINE
  5
B28
330
2
100
AcDbEntity
  8
HIDS
100
AcDbLine
 10
354.2542431559979
 20
111.4359385043542
 30
0.0
 11
369.2543651559978
 21
111.4359385043542
 31
0.0
  0
LINE
  5
B29
330
2
100
AcDbEntity
  8
HIDS
100
AcDbLine
 10
354.2542431559979
 20
98.43593850435423
 30
0.0
 11
369.2543651559978
 21
98.43593850435423
 31
0.0
  0
TEXT
  5
B2A
330
2
100
AcDbEntity
  8
TITLE
100
AcDbText
 10
488.0383187491934
 20
473.5265464691333
 30
0.0
 40
7.0
  1
GKMN-32-600~900-T90WK
100
AcDbText
  0
TEXT
  5
B2B
330
2
100
AcDbEntity
  8
TITLE
100
AcDbText
 10
488.0383187491934
 20
497.5265464691333
 30
0.0
 40
7.0
  1
GKMN-32-1200~1800-T60WK
100
AcDbText
  0
TEXT
  5
B2C
330
2
100
AcDbEntity
  8
TITLE
100
AcDbText
 10
488.0383187491934
 20
521.5265464691333
 30
0.0
 40
7.0
  1
GKMN-32-1200~1800-T40WK
100
AcDbText
  0
LINE
  5
B35
330
2
100
AcDbEntity
  8
0
100
AcDbLine
 10
368.7547917460435
 20
91.95338229323244
 30
0.0
 11
369.2544871559978
 21
92.43593244307517
 31
0.0
  0
LINE
  5
1444
330
2
100
AcDbEntity
  8
CENTER
100
AcDbLine
 10
155.7544721559978
 20
211.9359385043541
 30
0.0
 11
155.7544721559977
 21
278.4359535043542
 31
0.0
  0
LINE
  5
1445
330
2
100
AcDbEntity
  8
0
100
AcDbLine
 10
130.7544651559978
 20
267.4359535043542
 30
0.0
 11
130.7544651559978
 21
225.4359385043542
 31
0.0
  0
LINE
  5
1446
330
2
100
AcDbEntity
  8
0
100
AcDbLine
 10
180.7544721559978
 20
267.4359535043542
 30
0.0
 11
180.7544721559978
 21
225.4359385043542
 31
0.0
  0
LINE
  5
1447
330
2
100
AcDbEntity
  8
0
100
AcDbLine
 10
132.2544651559978
 20
223.4359385043542
 30
0.0
 11
178.7544721559978
 21
223.4359385043542
 31
0.0
  0
LINE
  5
1448
330
2
100
AcDbEntity
  8
0
100
AcDbLine
 10
130.7544651559978
 20
225.4359385043542
 30
0.0
 11
180.7544721559978
 21
225.4359385043542
 31
0.0
  0
LINE
  5
144B
330
2
100
AcDbEntity
  8
0
100
AcDbLine
 10
130.7544651559978
 20
225.4359385043542
 30
0.0
 11
132.7544651559978
 21
223.4359385043542
 31
0.0
  0
LINE
  5
144C
330
2
100
AcDbEntity
  8
0
100
AcDbLine
 10
132.2544651559978
 20
223.4359385043542
 30
0.0
 11
132.2544651559978
 21
221.9359385043542
 31
0.0
  0
LINE
  5
144D
330
2
100
AcDbEntity
  8
0
100
AcDbLine
 10
178.7544721559978
 20
223.4359385043542
 30
0.0
 11
180.7544721559978
 21
225.4359385043542
 31
0.0
  0
LINE
  5
144E
330
2
100
AcDbEntity
  8
0
100
AcDbLine
 10
178.2544721559978
 20
223.4359385043542
 30
0.0
 11
178.2544721559978
 21
221.9359385043542
 31
0.0
  0
LINE
  5
1457
330
2
100
AcDbEntity
  8
0
100
AcDbLine
 10
132.7543651559976
 20
537.2348616754382
 30
0.0
 11
178.7542741559976
 21
537.2348616754382
 31
0.0
  0
LINE
  5
1458
330
2
100
AcDbEntity
  8
0
100
AcDbLine
 10
173.2542741559976
 20
535.2348616754381
 30
0.0
 11
138.2543651559976
 21
535.2348616754381
 31
0.0
  0
LINE
  5
1459
330
2
100
AcDbEntity
  8
0
100
AcDbLine
 10
132.7543651559976
 20
487.2348616754381
 30
0.0
 11
178.7542741559976
 21
487.2348616754381
 31
0.0
  0
LINE
  5
145A
330
2
100
AcDbEntity
  8
0
100
AcDbLine
 10
173.2542741559976
 20
489.2348616754381
 30
0.0
 11
138.2543651559976
 21
489.2348616754381
 31
0.0
  0
LINE
  5
145C
330
2
100
AcDbEntity
  8
CENTER
100
AcDbLine
 10
120.7544651559977
 20
251.4359385043543
 30
0.0
 11
190.7544721559976
 21
251.4359385043542
 31
0.0
  0
LINE
  5
145D
330
2
100
AcDbEntity
  8
0
100
AcDbLine
 10
135.5923809720244
 20
268.4359535043542
 30
0.0
 11
175.9165633399715
 21
268.4359535043542
 31
0.0
  0
LINE
  5
145E
330
2
100
AcDbEntity
  8
0
100
AcDbLine
 10
138.2544721559978
 20
267.4359535043542
 30
0.0
 11
173.2544721559978
 21
267.4359535043542
 31
0.0
  0
LINE
  5
145F
330
2
100
AcDbEntity
  8
0
100
AcDbLine
 10
130.7544651559978
 20
235.4359385043542
 30
0.0
 11
180.7544721559978
 21
235.4359385043542
 31
0.0
  0
LINE
  5
1460
330
2
100
AcDbEntity
  8
0
100
AcDbLine
 10
130.7544651559978
 20
236.4359385043542
 30
0.0
 11
180.7544721559978
 21
236.4359385043542
 31
0.0
  0
LINE
  5
1461
330
2
100
AcDbEntity
  8
0
100
AcDbLine
 10
132.7543651559976
 20
529.7348616754382
 30
0.0
 11
132.7543651559976
 21
494.7348616754381
 31
0.0
  0
LINE
  5
1462
330
2
100
AcDbEntity
  8
0
100
AcDbLine
 10
130.7543651559976
 20
489.2348616754381
 30
0.0
 11
130.7543651559976
 21
535.2348616754381
 31
0.0
  0
LINE
  5
1464
330
2
100
AcDbEntity
  8
0
100
AcDbLine
 10
130.7544721559978
 20
265.9359535043543
 30
0.0
 11
130.8524082948857
 21
267.0553686941725
 31
0.0
  0
LINE
  5
1465
330
2
100
AcDbEntity
  8
0
100
AcDbLine
 10
137.7544721559978
 20
265.9359535043543
 30
0.0
 11
137.6565360171099
 21
267.0553686941725
 31
0.0
  0
LINE
  5
1466
330
2
100
AcDbEntity
  8
0
100
AcDbLine
 10
138.2544721559978
 20
265.9359535043542
 30
0.0
 11
138.2544721559978
 21
267.9359535043543
 31
0.0
  0
LINE
  5
1467
330
2
100
AcDbEntity
  8
0
100
AcDbLine
 10
129.8794651559978
 20
240.9359385043542
 30
0.0
 11
131.8794651559978
 21
240.9359385043542
 31
0.0
  0
LINE
  5
1468
330
2
100
AcDbEntity
  8
0
100
AcDbLine
 10
138.2544721559978
 20
265.9359535043542
 30
0.0
 11
130.7544721559978
 21
265.9359535043543
 31
0.0
  0
LINE
  5
1469
330
2
100
AcDbEntity
  8
0
100
AcDbLine
 10
129.8794651559978
 20
261.9359385043542
 30
0.0
 11
131.8794651559978
 21
261.9359385043542
 31
0.0
  0
ARC
  5
146A
330
2
100
AcDbEntity
  8
0
100
AcDbCircle
 10
136.3614829095908
 20
266.9420662286006
 30
0.0
 40
1.3
100
AcDbArc
 50
5.000000000000026
 51
74.1191499917157
  0
SPLINE
  5
146B
330
2
100
AcDbEntity
  8
0
100
AcDbSpline
210
0.0
220
0.0
230
1.0
 70
     8
 71
     3
 72
    11
 73
     7
 74
     0
 42
0.0000000001
 43
0.0000000001
 40
0.0
 40
0.0
 40
0.0
 40
0.0
 40
0.4601364636755307
 40
1.04988694485363
 40
1.713742833862792
 40
2.320347933405154
 40
2.320347933405154
 40
2.320347933405154
 40
2.320347933405179
 10
133.9669721555427
 20
267.0189535043542
 30
0.0
 10
133.9445544984349
 20
267.1739769440341
 30
0.0
 10
133.8934044432015
 20
267.5276917619517
 30
0.0
 10
133.457519281668
 20
267.9524194335533
 30
0.0
 10
132.8524685666605
 20
268.1716066135192
 30
0.0
 10
132.4272839424847
 20
268.1026153139085
 30
0.0
 10
132.2247323328336
 20
268.0883950417319
 30
0.0
  0
ARC
  5
146C
330
2
100
AcDbEntity
  8
0
100
AcDbCircle
 10
134.2544721559978
 20
259.5359535043543
 30
0.0
 40
9.0
100
AcDbArc
 50
74.1191499917157
 51
105.8808500082775
  0
LINE
  5
146D
330
2
100
AcDbEntity
  8
0
100
AcDbLine
 10
131.7544721559978
 20
268.4359535043542
 30
0.0
 11
130.7544721559978
 21
267.4359535043542
 31
0.0
  0
LINE
  5
146E
330
2
100
AcDbEntity
  8
0
100
AcDbLine
 10
132.2247323328336
 20
268.0883950417319
 30
0.0
 11
132.2044721559977
 21
268.2993717871934
 31
0.0
  0
ARC
  5
146F
330
2
100
AcDbEntity
  8
0
100
AcDbCircle
 10
132.1474614024049
 20
266.9420662286006
 30
0.0
 40
1.3
100
AcDbArc
 50
105.8808500082775
 51
174.9999999999999
  0
LINE
  5
1470
330
2
100
AcDbEntity
  8
0
100
AcDbLine
 10
132.9165633399713
 20
268.4359535043542
 30
0.0
 11
131.7544721559978
 21
268.4359535043542
 31
0.0
  0
LINE
  5
1471
330
2
100
AcDbEntity
  8
0
100
AcDbLine
 10
133.9669721555427
 20
267.0189535043542
 30
0.0
 11
134.5419721564528
 21
267.0189535043542
 31
0.0
  0
LINE
  5
1472
330
2
100
AcDbEntity
  8
0
100
AcDbLine
 10
136.2842119791619
 20
268.0883950417319
 30
0.0
 11
136.3044721559978
 21
268.2993717871934
 31
0.0
  0
SPLINE
  5
1473
330
2
100
AcDbEntity
  8
0
100
AcDbSpline
210
0.0
220
0.0
230
1.0
 70
     8
 71
     3
 72
    11
 73
     7
 74
     0
 42
0.0000000001
 43
0.0000000001
 40
0.0
 40
0.0
 40
0.0
 40
0.0
 40
0.4601364636755307
 40
1.04988694485363
 40
1.713742833862792
 40
2.320347933405154
 40
2.320347933405154
 40
2.320347933405154
 40
2.320347933405179
 10
134.5419721564528
 20
267.0189535043542
 30
0.0
 10
134.5643898135607
 20
267.1739769440341
 30
0.0
 10
134.6155398687939
 20
267.5276917619517
 30
0.0
 10
135.0514250303275
 20
267.9524194335533
 30
0.0
 10
135.656475745335
 20
268.1716066135192
 30
0.0
 10
136.0816603695108
 20
268.1026153139085
 30
0.0
 10
136.2842119791619
 20
268.0883950417319
 30
0.0
  0
LINE
  5
1474
330
2
100
AcDbEntity
  8
0
100
AcDbLine
 10
138.2544721559978
 20
267.9359535043542
 30
0.0
 11
137.1994495456182
 21
267.9359535043542
 31
0.0
  0
LINE
  5
1475
330
2
100
AcDbEntity
  8
0
100
AcDbLine
 10
138.7544721559978
 20
268.4359535043542
 30
0.0
 11
138.2544721559978
 21
267.9359535043542
 31
0.0
  0
LINE
  5
1476
330
2
100
AcDbEntity
  8
0
100
AcDbLine
 10
138.2543651559976
 20
490.7347696754381
 30
0.0
 11
138.2543651559976
 21
487.2348616754381
 31
0.0
  0
LINE
  5
1477
330
2
100
AcDbEntity
  8
0
100
AcDbLine
 10
130.7543651559976
 20
489.2348616754381
 30
0.0
 11
132.7543651559976
 21
487.2348616754381
 31
0.0
  0
CIRCLE
  5
1478
330
2
100
AcDbEntity
  8
0
100
AcDbCircle
 10
134.2543651559976
 20
490.7347696754381
 30
0.0
 40
3.500000000000028
  0
ARC
  5
1479
330
2
100
AcDbEntity
  8
0
100
AcDbCircle
 10
134.2543651559976
 20
490.7347696754381
 30
0.0
 40
4.0
100
AcDbArc
 50
0.0
 51
90.0
  0
ARC
  5
147A
330
2
100
AcDbEntity
  8
0
100
AcDbCircle
 10
134.2543651559976
 20
490.7347696754381
 30
0.0
 40
2.049999999999998
100
AcDbArc
 50
90.0
 51
98.06196008398188
  0
ARC
  5
147B
330
2
100
AcDbEntity
  8
0
100
AcDbCircle
 10
134.2543651559976
 20
490.7347696754381
 30
0.0
 40
2.049999999999998
100
AcDbArc
 50
81.93803991601813
 51
90.0
  0
LINE
  5
147C
330
2
100
AcDbEntity
  8
0
100
AcDbLine
 10
134.2543651559976
 20
494.7348616754381
 30
0.0
 11
130.7543651559976
 21
494.7348616754381
 31
0.0
  0
ARC
  5
147D
330
2
100
AcDbEntity
  8
0
100
AcDbCircle
 10
134.2543651559976
 20
490.7347696754381
 30
0.0
 40
2.049999999999998
100
AcDbArc
 50
0.0
 51
8.061960083981649
  0
ARC
  5
147E
330
2
100
AcDbEntity
  8
0
100
AcDbCircle
 10
136.2840651559976
 20
488.7050696754381
 30
0.0
 40
1.742199999999999
100
AcDbArc
 50
89.99869033450025
 51
180.0013096654997
  0
ARC
  5
147F
330
2
100
AcDbEntity
  8
0
100
AcDbCircle
 10
134.2543651559976
 20
490.7347696754381
 30
0.0
 40
2.049999999999998
100
AcDbArc
 50
351.9380399160183
 51
0.0
  0
ARC
  5
1480
330
2
100
AcDbEntity
  8
0
100
AcDbCircle
 10
134.2543651559976
 20
490.7347696754381
 30
0.0
 40
2.049999999999998
100
AcDbArc
 50
261.9380399160181
 51
270.0
  0
ARC
  5
1481
330
2
100
AcDbEntity
  8
0
100
AcDbCircle
 10
134.2543651559976
 20
490.7347696754381
 30
0.0
 40
2.049999999999998
100
AcDbArc
 50
270.0
 51
278.0619600839818
  0
ARC
  5
1482
330
2
100
AcDbEntity
  8
0
100
AcDbCircle
 10
134.2543651559976
 20
490.7347696754381
 30
0.0
 40
2.049999999999998
100
AcDbArc
 50
171.9380399160183
 51
180.0
  0
ARC
  5
1483
330
2
100
AcDbEntity
  8
0
100
AcDbCircle
 10
134.2543651559976
 20
490.7347696754381
 30
0.0
 40
2.049999999999998
100
AcDbArc
 50
180.0
 51
188.0619600839816
  0
ARC
  5
1484
330
2
100
AcDbEntity
  8
0
100
AcDbCircle
 10
132.2246651559975
 20
488.7050696754381
 30
0.0
 40
1.742199999999999
100
AcDbArc
 50
359.9986903345002
 51
90.00130966549322
  0
ARC
  5
1485
330
2
100
AcDbEntity
  8
0
100
AcDbCircle
 10
136.2840651559976
 20
492.7644696754381
 30
0.0
 40
1.742199999999999
100
AcDbArc
 50
179.9986903345002
 51
270.0013096654997
  0
ARC
  5
1486
330
2
100
AcDbEntity
  8
0
100
AcDbCircle
 10
132.2246651559975
 20
492.7644696754381
 30
0.0
 40
1.742199999999999
100
AcDbArc
 50
269.9986903345067
 51
0.0013096654997424
  0
ARC
  5
1487
330
2
100
AcDbEntity
  8
0
100
AcDbCircle
 10
134.2543651559976
 20
533.7348616754382
 30
0.0
 40
4.0
100
AcDbArc
 50
270.0
 51
0.0
  0
CIRCLE
  5
1488
330
2
100
AcDbEntity
  8
0
100
AcDbCircle
 10
134.2543651559976
 20
533.7348616754382
 30
0.0
 40
3.500000000000028
  0
LINE
  5
1489
330
2
100
AcDbEntity
  8
0
100
AcDbLine
 10
134.2543651559976
 20
529.7348616754382
 30
0.0
 11
130.7543651559976
 21
529.7348616754382
 31
0.0
  0
ARC
  5
148A
330
2
100
AcDbEntity
  8
0
100
AcDbCircle
 10
134.2543651559976
 20
533.7348616754382
 30
0.0
 40
2.049999999999998
100
AcDbArc
 50
90.0
 51
98.06196008398188
  0
ARC
  5
148B
330
2
100
AcDbEntity
  8
0
100
AcDbCircle
 10
134.2543651559976
 20
533.7348616754382
 30
0.0
 40
2.049999999999998
100
AcDbArc
 50
81.93803991601813
 51
90.0
  0
LINE
  5
148C
330
2
100
AcDbEntity
  8
0
100
AcDbLine
 10
130.7543651559976
 20
535.2348616754381
 30
0.0
 11
132.7543651559976
 21
537.2348616754382
 31
0.0
  0
LINE
  5
148D
330
2
100
AcDbEntity
  8
0
100
AcDbLine
 10
130.7543651559976
 20
535.2348616754381
 30
0.0
 11
132.7543651559976
 21
537.2348616754382
 31
0.0
  0
ARC
  5
148E
330
2
100
AcDbEntity
  8
0
100
AcDbCircle
 10
136.2840651559976
 20
531.7051616754381
 30
0.0
 40
1.742199999999999
100
AcDbArc
 50
89.99869033450025
 51
180.0013096654997
  0
ARC
  5
148F
330
2
100
AcDbEntity
  8
0
100
AcDbCircle
 10
134.2543651559976
 20
533.7348616754382
 30
0.0
 40
2.049999999999998
100
AcDbArc
 50
351.9380399160183
 51
0.0
  0
ARC
  5
1490
330
2
100
AcDbEntity
  8
0
100
AcDbCircle
 10
134.2543651559976
 20
533.7348616754382
 30
0.0
 40
2.049999999999998
100
AcDbArc
 50
0.0
 51
8.061960083981649
  0
ARC
  5
1491
330
2
100
AcDbEntity
  8
0
100
AcDbCircle
 10
134.2543651559976
 20
533.7348616754382
 30
0.0
 40
2.049999999999998
100
AcDbArc
 50
261.9380399160181
 51
270.0
  0
ARC
  5
1492
330
2
100
AcDbEntity
  8
0
100
AcDbCircle
 10
134.2543651559976
 20
533.7348616754382
 30
0.0
 40
2.049999999999998
100
AcDbArc
 50
270.0
 51
278.0619600839818
  0
ARC
  5
1493
330
2
100
AcDbEntity
  8
0
100
AcDbCircle
 10
134.2543651559976
 20
533.7348616754382
 30
0.0
 40
2.049999999999998
100
AcDbArc
 50
180.0
 51
188.0619600839816
  0
ARC
  5
1494
330
2
100
AcDbEntity
  8
0
100
AcDbCircle
 10
134.2543651559976
 20
533.7348616754382
 30
0.0
 40
2.049999999999998
100
AcDbArc
 50
171.9380399160183
 51
180.0
  0
ARC
  5
1495
330
2
100
AcDbEntity
  8
0
100
AcDbCircle
 10
132.2246651559975
 20
531.7051616754381
 30
0.0
 40
1.742199999999999
100
AcDbArc
 50
359.9986903345002
 51
90.00130966549322
  0
ARC
  5
1496
330
2
100
AcDbEntity
  8
0
100
AcDbCircle
 10
132.2246651559975
 20
535.764561675438
 30
0.0
 40
1.742199999999999
100
AcDbArc
 50
269.9986903345067
 51
0.0013096654997424
  0
ARC
  5
1497
330
2
100
AcDbEntity
  8
0
100
AcDbCircle
 10
136.2840651559976
 20
535.764561675438
 30
0.0
 40
1.742199999999999
100
AcDbArc
 50
179.9986903345002
 51
270.0013096654997
  0
LINE
  5
1498
330
2
100
AcDbEntity
  8
0
100
AcDbLine
 10
138.2543651559976
 20
533.7348616754382
 30
0.0
 11
138.2543651559976
 21
537.2346776754381
 31
0.0
  0
LINE
  5
1499
330
2
100
AcDbEntity
  8
0
100
AcDbLine
 10
178.7542741559976
 20
529.7348616754382
 30
0.0
 11
178.7542741559976
 21
494.7348616754381
 31
0.0
  0
LINE
  5
149A
330
2
100
AcDbEntity
  8
0
100
AcDbLine
 10
180.7544721559976
 20
535.2348616754381
 30
0.0
 11
180.7542741559976
 21
489.2348616754381
 31
0.0
  0
LINE
  5
149B
330
2
100
AcDbEntity
  8
CENTER
100
AcDbLine
 10
155.7544721559977
 20
477.234861675438
 30
0.0
 11
155.7544721559977
 21
547.2348616754382
 31
0.0
  0
LINE
  5
149C
330
2
100
AcDbEntity
  8
0
100
AcDbLine
 10
173.7544721559979
 20
265.9359535043543
 30
0.0
 11
173.8524082948857
 21
267.0553686941725
 31
0.0
  0
LINE
  5
149D
330
2
100
AcDbEntity
  8
0
100
AcDbLine
 10
173.2544721559978
 20
265.9359535043542
 30
0.0
 11
173.2544721559978
 21
267.9359535043543
 31
0.0
  0
LINE
  5
149E
330
2
100
AcDbEntity
  8
0
100
AcDbLine
 10
180.7544721559978
 20
265.9359535043543
 30
0.0
 11
180.6565360171099
 21
267.0553686941725
 31
0.0
  0
LINE
  5
149F
330
2
100
AcDbEntity
  8
0
100
AcDbLine
 10
173.2544721559978
 20
265.9359535043542
 30
0.0
 11
180.7544721559978
 21
265.9359535043543
 31
0.0
  0
ARC
  5
14A0
330
2
100
AcDbEntity
  8
0
100
AcDbCircle
 10
177.254472155998
 20
259.5359535043543
 30
0.0
 40
9.0
100
AcDbArc
 50
74.1191499917157
 51
105.8808500082775
  0
LINE
  5
14A1
330
2
100
AcDbEntity
  8
0
100
AcDbLine
 10
178.5923809720244
 20
268.4359535043542
 30
0.0
 11
179.7544721559978
 21
268.4359535043542
 31
0.0
  0
SPLINE
  5
14A2
330
2
100
AcDbEntity
  8
0
100
AcDbSpline
210
0.0
220
0.0
230
1.0
 70
     8
 71
     3
 72
    11
 73
     7
 74
     0
 42
0.0000000001
 43
0.0000000001
 40
0.0
 40
0.0
 40
0.0
 40
0.0
 40
0.4601364636755307
 40
1.04988694485363
 40
1.713742833862792
 40
2.320347933405154
 40
2.320347933405154
 40
2.320347933405154
 40
2.320347933405179
 10
177.5419721564529
 20
267.0189535043542
 30
0.0
 10
177.5643898135609
 20
267.1739769440341
 30
0.0
 10
177.6155398687941
 20
267.5276917619517
 30
0.0
 10
178.0514250303277
 20
267.9524194335533
 30
0.0
 10
178.6564757453351
 20
268.1716066135192
 30
0.0
 10
179.081660369511
 20
268.1026153139085
 30
0.0
 10
179.284211979162
 20
268.0883950417319
 30
0.0
  0
SPLINE
  5
14A3
330
2
100
AcDbEntity
  8
0
100
AcDbSpline
210
0.0
220
0.0
230
1.0
 70
     8
 71
     3
 72
    11
 73
     7
 74
     0
 42
0.0000000001
 43
0.0000000001
 40
0.0
 40
0.0
 40
0.0
 40
0.0
 40
0.4601364636755307
 40
1.04988694485363
 40
1.713742833862792
 40
2.320347933405154
 40
2.320347933405154
 40
2.320347933405154
 40
2.320347933405179
 10
176.9669721555429
 20
267.0189535043542
 30
0.0
 10
176.9445544984352
 20
267.1739769440341
 30
0.0
 10
176.8934044432018
 20
267.5276917619517
 30
0.0
 10
176.4575192816681
 20
267.9524194335533
 30
0.0
 10
175.8524685666608
 20
268.1716066135192
 30
0.0
 10
175.4272839424849
 20
268.1026153139085
 30
0.0
 10
175.2247323328339
 20
268.0883950417319
 30
0.0
  0
LINE
  5
14A4
330
2
100
AcDbEntity
  8
0
100
AcDbLine
 10
175.2247323328339
 20
268.0883950417319
 30
0.0
 11
175.2044721559979
 21
268.2993717871934
 31
0.0
  0
ARC
  5
14A5
330
2
100
AcDbEntity
  8
0
100
AcDbCircle
 10
175.1474614024049
 20
266.9420662286006
 30
0.0
 40
1.3
100
AcDbArc
 50
105.8808500082775
 51
174.9999999999999
  0
LINE
  5
14A6
330
2
100
AcDbEntity
  8
0
100
AcDbLine
 10
173.2544721559978
 20
267.9359535043542
 30
0.0
 11
174.3094947663774
 21
267.9359535043542
 31
0.0
  0
LINE
  5
14A7
330
2
100
AcDbEntity
  8
0
100
AcDbLine
 10
172.7544721559978
 20
268.4359535043542
 30
0.0
 11
173.2544721559978
 21
267.9359535043542
 31
0.0
  0
LINE
  5
14A8
330
2
100
AcDbEntity
  8
0
100
AcDbLine
 10
177.5419721564529
 20
267.0189535043542
 30
0.0
 11
176.9669721555429
 21
267.0189535043542
 31
0.0
  0
LINE
  5
14A9
330
2
100
AcDbEntity
  8
0
100
AcDbLine
 10
179.284211979162
 20
268.0883950417319
 30
0.0
 11
179.304472155998
 21
268.2993717871934
 31
0.0
  0
ARC
  5
14AA
330
2
100
AcDbEntity
  8
0
100
AcDbCircle
 10
179.3614829095908
 20
266.9420662286006
 30
0.0
 40
1.3
100
AcDbArc
 50
5.000000000000026
 51
74.1191499917157
  0
LINE
  5
14AB
330
2
100
AcDbEntity
  8
0
100
AcDbLine
 10
179.7544721559978
 20
268.4359535043542
 30
0.0
 11
180.7544721559978
 21
267.4359535043542
 31
0.0
  0
LINE
  5
14AC
330
2
100
AcDbEntity
  8
0
100
AcDbLine
 10
173.2542741559976
 20
490.7347696754381
 30
0.0
 11
173.2542741559976
 21
487.2348616754381
 31
0.0
  0
LINE
  5
14AD
330
2
100
AcDbEntity
  8
0
100
AcDbLine
 10
178.7542741559976
 20
487.2348616754381
 30
0.0
 11
180.7542741559976
 21
489.2348616754381
 31
0.0
  0
LINE
  5
14AE
330
2
100
AcDbEntity
  8
0
100
AcDbLine
 10
180.7542741559976
 20
489.2348616754381
 30
0.0
 11
178.7542741559976
 21
487.2348616754381
 31
0.0
  0
CIRCLE
  5
14AF
330
2
100
AcDbEntity
  8
0
100
AcDbCircle
 10
177.2544721559976
 20
490.7347696754381
 30
0.0
 40
3.500000000000028
  0
LINE
  5
14B0
330
2
100
AcDbEntity
  8
0
100
AcDbLine
 10
177.2542741559976
 20
494.7348616754381
 30
0.0
 11
180.7542741559976
 21
494.7348616754381
 31
0.0
  0
ARC
  5
14B1
330
2
100
AcDbEntity
  8
0
100
AcDbCircle
 10
179.2841721559974
 20
488.7050696754381
 30
0.0
 40
1.742199999999999
100
AcDbArc
 50
89.99869033450025
 51
180.0013096654997
  0
ARC
  5
14B2
330
2
100
AcDbEntity
  8
0
100
AcDbCircle
 10
179.2841721559974
 20
492.7644696754381
 30
0.0
 40
1.742199999999999
100
AcDbArc
 50
179.9986903345002
 51
270.0013096654997
  0
ARC
  5
14B3
330
2
100
AcDbEntity
  8
0
100
AcDbCircle
 10
177.2544721559976
 20
490.7347696754381
 30
0.0
 40
2.049999999999998
100
AcDbArc
 50
90.0
 51
98.06196008398188
  0
ARC
  5
14B4
330
2
100
AcDbEntity
  8
0
100
AcDbCircle
 10
177.2544721559976
 20
490.7347696754381
 30
0.0
 40
2.049999999999998
100
AcDbArc
 50
81.93803991601813
 51
90.0
  0
ARC
  5
14B5
330
2
100
AcDbEntity
  8
0
100
AcDbCircle
 10
177.2544721559976
 20
490.7347696754381
 30
0.0
 40
2.049999999999998
100
AcDbArc
 50
261.9380399160181
 51
270.0
  0
ARC
  5
14B6
330
2
100
AcDbEntity
  8
0
100
AcDbCircle
 10
177.2544721559976
 20
490.7347696754381
 30
0.0
 40
2.049999999999998
100
AcDbArc
 50
270.0
 51
278.0619600839818
  0
ARC
  5
14B7
330
2
100
AcDbEntity
  8
0
100
AcDbCircle
 10
177.2544721559976
 20
490.7347696754381
 30
0.0
 40
2.049999999999998
100
AcDbArc
 50
171.9380399160183
 51
180.0
  0
ARC
  5
14B8
330
2
100
AcDbEntity
  8
0
100
AcDbCircle
 10
177.2544721559976
 20
490.7347696754381
 30
0.0
 40
2.049999999999998
100
AcDbArc
 50
180.0
 51
188.0619600839816
  0
ARC
  5
14B9
330
2
100
AcDbEntity
  8
0
100
AcDbCircle
 10
175.2247721559974
 20
488.7050696754381
 30
0.0
 40
1.742199999999999
100
AcDbArc
 50
359.9986903345002
 51
90.00130966549322
  0
ARC
  5
14BA
330
2
100
AcDbEntity
  8
0
100
AcDbCircle
 10
177.2544721559976
 20
490.7347696754381
 30
0.0
 40
4.0
100
AcDbArc
 50
90.0
 51
180.0
  0
ARC
  5
14BB
330
2
100
AcDbEntity
  8
0
100
AcDbCircle
 10
175.2247721559974
 20
492.7644696754381
 30
0.0
 40
1.742199999999999
100
AcDbArc
 50
269.9986903345067
 51
0.0013096654997424
  0
ARC
  5
14BC
330
2
100
AcDbEntity
  8
0
100
AcDbCircle
 10
177.2544721559976
 20
490.7347696754381
 30
0.0
 40
2.049999999999998
100
AcDbArc
 50
0.0
 51
8.061960083981649
  0
ARC
  5
14BD
330
2
100
AcDbEntity
  8
0
100
AcDbCircle
 10
177.2544721559976
 20
490.7347696754381
 30
0.0
 40
2.049999999999998
100
AcDbArc
 50
351.9380399160183
 51
0.0
  0
LINE
  5
14E4
330
2
100
AcDbEntity
  8
0
100
AcDbLine
 10
177.2542741559976
 20
529.7348616754382
 30
0.0
 11
180.7542741559976
 21
529.7348616754382
 31
0.0
  0
LINE
  5
14E5
330
2
100
AcDbEntity
  8
0
100
AcDbLine
 10
180.7544721559976
 20
535.2348616754381
 30
0.0
 11
178.7542741559976
 21
537.2348616754382
 31
0.0
  0
LINE
  5
14E6
330
2
100
AcDbEntity
  8
0
100
AcDbLine
 10
180.7542741559976
 20
535.2348616754381
 30
0.0
 11
178.7542741559976
 21
537.2348616754382
 31
0.0
  0
LINE
  5
14E7
330
2
100
AcDbEntity
  8
0
100
AcDbLine
 10
180.7542741559976
 20
535.2348616754381
 30
0.0
 11
178.7542741559976
 21
537.2348616754382
 31
0.0
  0
CIRCLE
  5
14E8
330
2
100
AcDbEntity
  8
0
100
AcDbCircle
 10
177.2544721559976
 20
533.7348616754382
 30
0.0
 40
3.500000000000028
  0
ARC
  5
14E9
330
2
100
AcDbEntity
  8
0
100
AcDbCircle
 10
179.2841721559974
 20
531.7051616754381
 30
0.0
 40
1.742199999999999
100
AcDbArc
 50
89.99869033450025
 51
180.0013096654997
  0
ARC
  5
14EA
330
2
100
AcDbEntity
  8
0
100
AcDbCircle
 10
179.2841721559974
 20
535.764561675438
 30
0.0
 40
1.742199999999999
100
AcDbArc
 50
179.9986903345002
 51
270.0013096654997
  0
ARC
  5
14EB
330
2
100
AcDbEntity
  8
0
100
AcDbCircle
 10
177.2544721559976
 20
533.7348616754382
 30
0.0
 40
4.0
100
AcDbArc
 50
180.0
 51
270.0
  0
ARC
  5
14EC
330
2
100
AcDbEntity
  8
0
100
AcDbCircle
 10
177.2544721559976
 20
533.7348616754382
 30
0.0
 40
2.049999999999998
100
AcDbArc
 50
90.0
 51
98.06196008398188
  0
ARC
  5
14ED
330
2
100
AcDbEntity
  8
0
100
AcDbCircle
 10
177.2544721559976
 20
533.7348616754382
 30
0.0
 40
2.049999999999998
100
AcDbArc
 50
81.93803991601813
 51
90.0
  0
ARC
  5
14EE
330
2
100
AcDbEntity
  8
0
100
AcDbCircle
 10
177.2544721559976
 20
533.7348616754382
 30
0.0
 40
2.049999999999998
100
AcDbArc
 50
261.9380399160181
 51
270.0
  0
ARC
  5
14EF
330
2
100
AcDbEntity
  8
0
100
AcDbCircle
 10
177.2544721559976
 20
533.7348616754382
 30
0.0
 40
2.049999999999998
100
AcDbArc
 50
270.0
 51
278.0619600839818
  0
ARC
  5
14F0
330
2
100
AcDbEntity
  8
0
100
AcDbCircle
 10
177.2544721559976
 20
533.7348616754382
 30
0.0
 40
2.049999999999998
100
AcDbArc
 50
180.0
 51
188.0619600839816
  0
ARC
  5
14F1
330
2
100
AcDbEntity
  8
0
100
AcDbCircle
 10
177.2544721559976
 20
533.7348616754382
 30
0.0
 40
2.049999999999998
100
AcDbArc
 50
171.9380399160183
 51
180.0
  0
LINE
  5
14F2
330
2
100
AcDbEntity
  8
0
100
AcDbLine
 10
173.2542741559976
 20
533.7348616754382
 30
0.0
 11
173.2542741559976
 21
537.2346776754381
 31
0.0
  0
ARC
  5
14F3
330
2
100
AcDbEntity
  8
0
100
AcDbCircle
 10
175.2247721559974
 20
535.764561675438
 30
0.0
 40
1.742199999999999
100
AcDbArc
 50
269.9986903345067
 51
0.0013096654997424
  0
ARC
  5
14F4
330
2
100
AcDbEntity
  8
0
100
AcDbCircle
 10
175.2247721559974
 20
531.7051616754381
 30
0.0
 40
1.742199999999999
100
AcDbArc
 50
359.9986903345002
 51
90.00130966549322
  0
ARC
  5
14F5
330
2
100
AcDbEntity
  8
0
100
AcDbCircle
 10
177.2544721559976
 20
533.7348616754382
 30
0.0
 40
2.049999999999998
100
AcDbArc
 50
351.9380399160183
 51
0.0
  0
ARC
  5
14F6
330
2
100
AcDbEntity
  8
0
100
AcDbCircle
 10
177.2544721559976
 20
533.7348616754382
 30
0.0
 40
2.049999999999998
100
AcDbArc
 50
0.0
 51
8.061960083981649
  0
ENDSEC
  0
SECTION
  2
OBJECTS
  0
DICTIONARY
  5
7
330
0
100
AcDbDictionary
  3
ACAD_GROUP
350
75
  3
ACAD_LAYOUT
350
61
  3
ACAD_MLINESTYLE
350
76
  3
ACAD_PLOTSETTINGS
350
77
  3
ACAD_PLOTSTYLENAME
350
6
  3
ACADDIM
350
9EF
  3
ACDBHEADERROUNDTRIPXREC
350
15F7
  3
ACDBVARIABLEDICTIONARY
350
102
  3
DWGPROPS
350
3D2
  0
DICTIONARY
  5
1618
330
2
100
AcDbDictionary
280
     1
  3
ACAD_LAYOUTSELFREF
360
1619
  0
DICTIONARY
  5
161A
330
15F1
100
AcDbDictionary
280
     1
  3
ACAD_LAYOUTSELFREF
360
161B
  0
DICTIONARY
  5
75
102
{ACAD_REACTORS
330
7
102
}
330
7
100
AcDbDictionary
  0
DICTIONARY
  5
61
102
{ACAD_REACTORS
330
7
102
}
330
7
100
AcDbDictionary
  0
DICTIONARY
  5
76
102
{ACAD_REACTORS
330
7
102
}
330
7
100
AcDbDictionary
  3
STANDARD
350
78
  0
DICTIONARY
  5
77
102
{ACAD_REACTORS
330
7
102
}
330
7
100
AcDbDictionary
  0
ACDBDICTIONARYWDFLT
  5
6
102
{ACAD_REACTORS
330
7
102
}
330
7
100
AcDbDictionary
281
     1
  3
Normal
350
5
100
AcDbDictionaryWithDefault
340
5
  0
XRECORD
  5
9EF
102
{ACAD_REACTORS
330
7
102
}
330
7
100
AcDbXrecord
 90
   990106
  3

 60
     0
 61
     0
 62
     4
 63
     4
 64
     1
 65
     0
 66
     0
 67
     3
 68
     1
 69
     0
 70
     0
 71
     0
 72
     0
 40
0.0
170
     2
340
9F1
  0
DICTIONARY
  5
15F7
102
{ACAD_REACTORS
330
7
102
}
330
7
100
AcDbDictionary
  3
CEPSNTYPE
350
1601
  3
DIMSTYLEDATA
350
1605
  3
FINGERPRINTGUID
350
1602
  3
HYPERLINKBASE
350
15FA
  3
INSUNITS
350
1600
  3
LAYOUTDICT
350
15FC
  3
LWETCUNION
350
15FF
  3
PLOTSETDICT
350
15FD
  3
PLOTSTYLNAMDICT
350
15FE
  3
PSVPSCALE
350
1604
  3
PUCSBASE
350
1608
  3
PUCSORGBACK
350
160E
  3
PUCSORGBOTTOM
350
160A
  3
PUCSORGFRONT
350
160D
  3
PUCSORGLEFT
350
160B
  3
PUCSORGRIGHT
350
160C
  3
PUCSORGTOP
350
1609
  3
PUCSORTHOREF
350
1606
  3
PUCSORTHOVIEW
350
1607
  3
STYLESHEET
350
15FB
  3
TSTACKALIGN
350
15F8
  3
TSTACKSIZE
350
15F9
  3
UCSBASE
350
1611
  3
UCSORGBACK
350
1617
  3
UCSORGBOTTOM
350
1613
  3
UCSORGFRONT
350
1616
  3
UCSORGLEFT
350
1614
  3
UCSORGRIGHT
350
1615
  3
UCSORGTOP
350
1612
  3
UCSORTHOREF
350
160F
  3
UCSORTHOVIEW
350
1610
  3
VERSIONGUID
350
1603
  0
DICTIONARY
  5
102
102
{ACAD_REACTORS
330
7
102
}
330
7
100
AcDbDictionary
  3
DIMASSOC
350
103
  0
XRECORD
  5
3D2
102
{ACAD_REACTORS
330
7
102
}
330
7
100
AcDbXrecord
  1
DWGPROPS COOKIE
  2

  3

  4

  6

  7

  8

  9

300
=
301
=
302
=
303
=
304
=
305
=
306
=
307
=
308
=
309
=
 40
0.5353330671296296
 41
2452052.431989363
 42
2453406.550756377
  1

 90
        0
  0
XRECORD
  5
1619
102
{ACAD_REACTORS
330
1618
102
}
330
1618
100
AcDbXrecord
340
2
  0
XRECORD
  5
161B
102
{ACAD_REACTORS
330
161A
102
}
330
161A
100
AcDbXrecord
340
15F1
  0
MLINESTYLE
  5
78
102
{ACAD_REACTORS
330
76
102
}
330
76
100
AcDbMlineStyle
  2
STANDARD
 70
     0
  3

 62
     0
 51
90.0
 52
90.0
 71
     2
 49
0.5
 62
   256
  6
BYLAYER
 49
-0.5
 62
   256
  6
BYLAYER
  0
ACDBPLACEHOLDER
  5
5
102
{ACAD_REACTORS
330
6
102
}
330
6
100
AcDbPlaceHolder
280
     0
  0
XRECORD
  5
1601
102
{ACAD_REACTORS
330
15F7
102
}
330
15F7
100
AcDbXrecord
 90
        0
  0
XRECORD
  5
1605
102
{ACAD_REACTORS
330
15F7
102
}
330
15F7
100
AcDbXrecord
1000
DSTYLE
1002
{
1070
   179
 70
     2
1070
   277
 70
     6
1002
}
  0
XRECORD
  5
1602
102
{ACAD_REACTORS
330
15F7
102
}
330
15F7
100
AcDbXrecord
  1
{6385560B-F4B1-4644-A7C2-A3E32AC3D232}
  0
XRECORD
  5
15FA
102
{ACAD_REACTORS
330
15F7
102
}
330
15F7
100
AcDbXrecord
  1

  0
XRECORD
  5
1600
102
{ACAD_REACTORS
330
15F7
102
}
330
15F7
100
AcDbXrecord
 90
        0
  0
XRECORD
  5
15FC
102
{ACAD_REACTORS
330
15F7
102
}
330
15F7
100
AcDbXrecord
340
61
  0
XRECORD
  5
15FF
102
{ACAD_REACTORS
330
15F7
102
}
330
15F7
100
AcDbXrecord
 90
    10781
  0
XRECORD
  5
15FD
102
{ACAD_REACTORS
330
15F7
102
}
330
15F7
100
AcDbXrecord
340
77
  0
XRECORD
  5
15FE
102
{ACAD_REACTORS
330
15F7
102
}
330
15F7
100
AcDbXrecord
340
6
  0
XRECORD
  5
1604
102
{ACAD_REACTORS
330
15F7
102
}
330
15F7
100
AcDbXrecord
 40
0.0
  0
XRECORD
  5
1608
102
{ACAD_REACTORS
330
15F7
102
}
330
15F7
100
AcDbXrecord
340
0
  0
XRECORD
  5
160E
102
{ACAD_REACTORS
330
15F7
102
}
330
15F7
100
AcDbXrecord
 10
0.0
 20
0.0
 30
0.0
  0
XRECORD
  5
160A
102
{ACAD_REACTORS
330
15F7
102
}
330
15F7
100
AcDbXrecord
 10
0.0
 20
0.0
 30
0.0
  0
XRECORD
  5
160D
102
{ACAD_REACTORS
330
15F7
102
}
330
15F7
100
AcDbXrecord
 10
0.0
 20
0.0
 30
0.0
  0
XRECORD
  5
160B
102
{ACAD_REACTORS
330
15F7
102
}
330
15F7
100
AcDbXrecord
 10
0.0
 20
0.0
 30
0.0
  0
XRECORD
  5
160C
102
{ACAD_REACTORS
330
15F7
102
}
330
15F7
100
AcDbXrecord
 10
0.0
 20
0.0
 30
0.0
  0
XRECORD
  5
1609
102
{ACAD_REACTORS
330
15F7
102
}
330
15F7
100
AcDbXrecord
 10
0.0
 20
0.0
 30
0.0
  0
XRECORD
  5
1606
102
{ACAD_REACTORS
330
15F7
102
}
330
15F7
100
AcDbXrecord
340
0
  0
XRECORD
  5
1607
102
{ACAD_REACTORS
330
15F7
102
}
330
15F7
100
AcDbXrecord
 70
     0
  0
XRECORD
  5
15FB
102
{ACAD_REACTORS
330
15F7
102
}
330
15F7
100
AcDbXrecord
  1
Sekkei.ctb
  0
XRECORD
  5
15F8
102
{ACAD_REACTORS
330
15F7
102
}
330
15F7
100
AcDbXrecord
 90
        1
  0
XRECORD
  5
15F9
102
{ACAD_REACTORS
330
15F7
102
}
330
15F7
100
AcDbXrecord
 90
       70
  0
XRECORD
  5
1611
102
{ACAD_REACTORS
330
15F7
102
}
330
15F7
100
AcDbXrecord
340
0
  0
XRECORD
  5
1617
102
{ACAD_REACTORS
330
15F7
102
}
330
15F7
100
AcDbXrecord
 10
0.0
 20
0.0
 30
0.0
  0
XRECORD
  5
1613
102
{ACAD_REACTORS
330
15F7
102
}
330
15F7
100
AcDbXrecord
 10
0.0
 20
0.0
 30
0.0
  0
XRECORD
  5
1616
102
{ACAD_REACTORS
330
15F7
102
}
330
15F7
100
AcDbXrecord
 10
0.0
 20
0.0
 30
0.0
  0
XRECORD
  5
1614
102
{ACAD_REACTORS
330
15F7
102
}
330
15F7
100
AcDbXrecord
 10
0.0
 20
0.0
 30
0.0
  0
XRECORD
  5
1615
102
{ACAD_REACTORS
330
15F7
102
}
330
15F7
100
AcDbXrecord
 10
0.0
 20
0.0
 30
0.0
  0
XRECORD
  5
1612
102
{ACAD_REACTORS
330
15F7
102
}
330
15F7
100
AcDbXrecord
 10
0.0
 20
0.0
 30
0.0
  0
XRECORD
  5
160F
102
{ACAD_REACTORS
330
15F7
102
}
330
15F7
100
AcDbXrecord
340
0
  0
XRECORD
  5
1610
102
{ACAD_REACTORS
330
15F7
102
}
330
15F7
100
AcDbXrecord
 70
     0
  0
XRECORD
  5
1603
102
{ACAD_REACTORS
330
15F7
102
}
330
15F7
100
AcDbXrecord
  1
{CFFA2124-3A36-4F44-9D91-4B20F89D49CF}
  0
DICTIONARYVAR
  5
103
102
{ACAD_REACTORS
330
102
102
}
330
102
100
DictionaryVariables
280
     0
  1
1
  0
ENDSEC
  0
EOF
