  0
SECTION
  2
HEADER
  9
$CLAYER
  8
1
  9
$LTSCALE
 40
3.0
  0
ENDSEC
  0
SECTION
  2
TABLES
  0
TABLE
  2
LTYPE
 70
     4
  0
LTYPE
  2
CONTINUOUS
  3
solid line
 70
    64
 72
    65
 73
     0
 40
0.0
  0
LTYPE
  2
DASHED
  3
__ __ __ __ __ __ __ __ __ __ __ __ __ __ __
 70
    64
 72
    65
 73
     2
 40
0.75
 49
0.5
 49
-0.25
  0
LTYPE
  2
CENTER
  3
____ _ ____ _ ____ _ ____ _ ____ _ ____ _ ____
 70
    64
 72
    65
 73
     4
 40
2.0
 49
1.25
 49
-0.25
 49
0.25
 49
-0.25
  0
LTYPE
  2
PHANTOM
  3
_____ _ _ _____ _ _ _____ _ _ _____ _ _ ____
 70
    64
 72
    65
 73
     6
 40
2.5
 49
1.25
 49
-0.25
 49
0.25
 49
-0.25
 49
0.25
 49
-0.25
  0
ENDTAB
  0
TABLE
  2
LAYER
 70
     1
  0
LAYER
  2
0
 70
    64
 62
     7
  6
CONTINUOUS
  0
ENDTAB
  0
TABLE
  2
STYLE
 70
     1
  0
STYLE
  2
STANDARD
 70
     0
 40
0.000000
 41
1.000000
 50
0.000000
 71
     0
 42
3.000000
  3
txt
  4
BIGFONT
  0
ENDTAB
  0
ENDSEC
  0
SECTION
  2
BLOCKS
  0
ENDSEC
  0
SECTION
  2
ENTITIES
  0
LINE
  8
0
  6
CONTINUOUS
 10
2.255625
 20
9.461250
 11
2.255625
 21
73.461250
  0
LINE
  8
0
  6
CONTINUOUS
 10
6.219725
 20
79.461250
 11
22.755625
 21
79.461250
  0
LINE
  8
0
  6
CONTINUOUS
 10
6.219725
 20
3.461250
 11
22.755625
 21
3.461250
  0
LINE
  8
0
  6
CONTINUOUS
 10
2.755625
 20
6.461250
 11
2.755625
 21
76.461250
  0
LINE
  8
0
  6
CONTINUOUS
 10
2.255625
 20
73.461250
 11
2.755625
 21
73.961250
  0
LINE
  8
0
  6
CONTINUOUS
 10
2.255625
 20
9.461250
 11
2.755625
 21
8.961250
  0
LINE
  8
0
  6
CONTINUOUS
 10
3.621645
 20
77.961250
 11
2.755625
 21
76.461250
  0
ARC
  8
0
  6
CONTINUOUS
 10
6.219735
 20
76.461250
 40
3.000000
 50
90.000000
 51
150.000397
  0
LINE
  8
0
  6
CONTINUOUS
 10
3.621645
 20
4.961260
 11
2.755625
 21
6.461250
  0
ARC
  8
0
  6
CONTINUOUS
 10
6.219735
 20
6.461230
 40
3.000000
 50
-150.000397
 51
-90.000000
  0
LINE
  8
0
  6
CONTINUOUS
 10
4.337255
 20
71.710251
 11
22.755625
 21
71.710251
  0
LINE
  8
0
  6
CONTINUOUS
 10
22.755625
 20
11.212250
 11
4.337255
 21
11.212250
  0
LINE
  8
0
  6
CONTINUOUS
 10
22.755625
 20
3.461270
 11
22.755625
 21
79.461250
  0
LINE
  8
0
  6
CENTER
 10
-8.869375
 20
41.461250
 11
143.773132
 21
41.461250
  0
LINE
  8
0
  6
CONTINUOUS
 10
136.755630
 20
265.466248
 11
136.755630
 21
179.466248
  0
LINE
  8
0
  6
CONTINUOUS
 10
86.755623
 20
-2.538750
 11
86.755623
 21
14.905190
  0
LINE
  8
0
  6
CENTER
 10
110.166122
 20
52.461250
 11
174.005630
 21
52.461250
  0
LINE
  8
0
  6
CONTINUOUS
 10
86.755623
 20
-2.538750
 11
136.755630
 21
-2.538750
  0
LINE
  8
0
  6
CENTER
 10
129.255630
 20
7.836250
 11
129.255630
 21
-6.288750
  0
LINE
  8
0
  6
CENTER
 10
94.255623
 20
6.836250
 11
94.255623
 21
-5.913750
  0
LINE
  8
0
  6
CONTINUOUS
 10
88.755623
 20
4.461250
 11
134.755630
 21
4.461250
  0
LINE
  8
0
  6
DASHED
 10
132.505630
 20
4.461250
 11
132.505630
 21
-2.538750
  0
LINE
  8
0
  6
DASHED
 10
126.005623
 20
4.461250
 11
126.005623
 21
-2.538750
  0
LINE
  8
0
  6
DASHED
 10
97.505623
 20
4.461250
 11
97.505623
 21
-2.538750
  0
LINE
  8
0
  6
DASHED
 10
91.005623
 20
4.461250
 11
91.005623
 21
-2.538750
  0
ARC
  8
0
  6
CONTINUOUS
 10
134.755630
 20
2.461240
 40
2.000000
 50
0.000000
 51
90.000000
  0
ARC
  8
0
  6
CONTINUOUS
 10
88.755623
 20
2.461260
 40
2.000000
 50
90.000000
 51
180.000000
  0
LINE
  8
0
  6
CONTINUOUS
 10
119.255623
 20
6.461230
 11
119.255623
 21
18.890551
  0
LINE
  8
0
  6
CONTINUOUS
 10
104.255623
 20
6.461250
 11
104.255623
 21
18.890539
  0
LINE
  8
0
  6
CONTINUOUS
 10
22.755625
 20
79.461250
 11
136.755630
 21
79.461250
  0
LINE
  8
0
  6
CONTINUOUS
 10
22.755625
 20
3.461270
 11
86.755623
 21
3.461270
  0
LINE
  8
0
  6
CONTINUOUS
 10
22.755625
 20
71.710251
 11
136.755630
 21
71.710251
  0
LINE
  8
0
  6
CONTINUOUS
 10
22.755625
 20
11.212280
 11
86.755623
 21
11.212280
  0
LINE
  8
0
  6
CONTINUOUS
 10
164.255630
 20
46.461250
 11
164.255630
 21
58.461250
  0
LINE
  8
0
  6
CONTINUOUS
 10
142.255630
 20
58.461250
 11
164.255630
 21
58.461250
  0
LINE
  8
0
  6
CONTINUOUS
 10
142.255630
 20
46.461250
 11
164.255630
 21
46.461250
  0
LINE
  8
0
  6
CONTINUOUS
 10
142.255630
 20
59.961250
 11
142.255630
 21
44.961250
  0
LINE
  8
0
  6
CONTINUOUS
 10
146.255630
 20
54.461250
 11
164.255630
 21
54.461250
  0
LINE
  8
0
  6
CONTINUOUS
 10
146.255630
 20
50.461250
 11
164.255630
 21
50.461250
  0
ARC
  8
0
  6
CONTINUOUS
 10
146.255630
 20
52.461250
 40
2.000000
 50
90.000000
 51
180.000000
  0
ARC
  8
0
  6
CONTINUOUS
 10
146.255630
 20
52.461250
 40
2.000000
 50
180.000000
 51
270.000000
  0
LINE
  8
0
  6
CONTINUOUS
 10
105.161926
 20
18.890539
 11
118.411926
 21
18.890539
  0
ARC
  8
0
  6
CONTINUOUS
 10
102.255623
 20
6.461250
 40
2.000000
 50
-90.000000
 51
0.000000
  0
ARC
  8
0
  6
CONTINUOUS
 10
121.255623
 20
6.461250
 40
2.000000
 50
180.000000
 51
270.000000
  0
ARC
  8
0
  6
CONTINUOUS
 10
88.755623
 20
14.905200
 40
2.000000
 50
90.000000
 51
180.000000
  0
LINE
  8
0
  6
CONTINUOUS
 10
89.005623
 20
16.905190
 11
103.630623
 21
16.905190
  0
LINE
  8
0
  6
CONTINUOUS
 10
136.380630
 20
16.905190
 11
119.505623
 21
16.905190
  0
ARC
  8
0
  6
CONTINUOUS
 10
121.255623
 20
18.890551
 40
2.000000
 50
90.000000
 51
180.000000
  0
ARC
  8
0
  6
CONTINUOUS
 10
102.255623
 20
18.890539
 40
2.000000
 50
0.000000
 51
90.000000
  0
LINE
  8
0
  6
CONTINUOUS
 10
139.255630
 20
69.961250
 11
136.755630
 21
69.961250
  0
LINE
  8
0
  6
CONTINUOUS
 10
139.255630
 20
34.961250
 11
136.755630
 21
34.961250
  0
LINE
  8
0
  6
CONTINUOUS
 10
140.255630
 20
35.961250
 11
140.255630
 21
68.961250
  0
ARC
  8
0
  6
CONTINUOUS
 10
139.255630
 20
68.961250
 40
1.000000
 50
0.000000
 51
90.000000
  0
ARC
  8
0
  6
CONTINUOUS
 10
139.255630
 20
35.961250
 40
1.000000
 50
-90.000000
 51
0.000000
  0
LINE
  8
0
  6
CONTINUOUS
 10
140.255630
 20
59.961250
 11
142.255630
 21
59.961250
  0
LINE
  8
0
  6
CONTINUOUS
 10
140.255630
 20
44.961250
 11
142.255630
 21
44.961250
  0
LINE
  8
0
  6
CENTER
 10
255.979996
 20
-7.788730
 11
255.979996
 21
132.011017
  0
LINE
  8
0
  6
CENTER
 10
212.979996
 20
41.461250
 11
300.480011
 21
41.461250
  0
LINE
  8
0
  6
CENTER
 10
232.524368
 20
52.461250
 11
280.107513
 21
52.461250
  0
LINE
  8
0
  6
CONTINUOUS
 10
283.980011
 20
-2.538730
 11
300.980011
 21
-2.538730
  0
LINE
  8
0
  6
CONTINUOUS
 10
282.980011
 20
-1.538730
 11
228.979996
 21
-1.538730
  0
LINE
  8
0
  6
CENTER
 10
293.980011
 20
7.961270
 11
293.980011
 21
-6.913730
  0
LINE
  8
0
  6
DASHED
 10
297.230011
 20
4.461270
 11
297.230011
 21
-2.538730
  0
LINE
  8
0
  6
DASHED
 10
290.730011
 20
4.461270
 11
290.730011
 21
-2.538730
  0
LINE
  8
0
  6
CONTINUOUS
 10
278.980011
 20
77.094353
 11
278.980011
 21
71.710220
  0
LINE
  8
0
  6
CONTINUOUS
 10
277.014893
 20
79.094147
 11
255.979996
 21
79.461250
  0
ARC
  8
0
  6
CONTINUOUS
 10
276.980011
 20
77.094353
 40
2.000000
 50
0.000000
 51
89.000137
  0
LINE
  8
0
  6
CONTINUOUS
 10
227.979996
 20
-2.538730
 11
210.979996
 21
-2.538730
  0
LINE
  8
0
  6
CONTINUOUS
 10
210.979996
 20
2.461270
 11
210.979996
 21
-2.538730
  0
LINE
  8
0
  6
CENTER
 10
217.979996
 20
7.961270
 11
217.979996
 21
-6.913730
  0
LINE
  8
0
  6
DASHED
 10
214.729996
 20
4.461270
 11
214.729996
 21
-2.538730
  0
LINE
  8
0
  6
DASHED
 10
221.229996
 20
4.461270
 11
221.229996
 21
-2.538730
  0
LINE
  8
0
  6
CONTINUOUS
 10
232.979996
 20
77.094353
 11
232.979996
 21
71.710220
  0
LINE
  8
0
  6
CONTINUOUS
 10
234.945099
 20
79.094147
 11
255.979996
 21
79.461250
  0
ARC
  8
0
  6
CONTINUOUS
 10
234.979996
 20
77.094353
 40
2.000000
 50
90.999863
 51
180.000000
  0
ARC
  8
0
  6
CONTINUOUS
 10
255.979996
 20
41.461250
 40
38.000000
 50
-40.256561
 51
52.752220
  0
ARC
  8
0
  6
CONTINUOUS
 10
255.979996
 20
41.461250
 40
38.000000
 50
127.247780
 51
220.256607
  0
LINE
  8
0
  6
CONTINUOUS
 10
248.479996
 20
50.461250
 11
248.479996
 21
54.461250
  0
LINE
  8
0
  6
CONTINUOUS
 10
252.479996
 20
54.461250
 11
248.479996
 21
54.461250
  0
LINE
  8
0
  6
CONTINUOUS
 10
248.479996
 20
50.461250
 11
252.479996
 21
50.461250
  0
LINE
  8
0
  6
CONTINUOUS
 10
252.479996
 20
54.461250
 11
252.479996
 21
50.461250
  0
ARC
  8
0
  6
CONTINUOUS
 10
255.979996
 20
52.461250
 40
6.000000
 50
-160.528793
 51
160.528793
  0
LINE
  8
0
  6
CONTINUOUS
 10
284.980011
 20
7.461230
 11
284.980011
 21
16.905199
  0
LINE
  8
0
  6
CONTINUOUS
 10
226.979996
 20
7.461270
 11
226.979996
 21
16.905199
  0
ARC
  8
0
  6
CONTINUOUS
 10
298.980011
 20
2.461270
 40
2.000000
 50
0.000000
 51
90.000000
  0
ARC
  8
0
  6
CONTINUOUS
 10
212.979996
 20
2.461280
 40
2.000000
 50
90.000000
 51
180.000000
  0
ARC
  8
0
  6
CONTINUOUS
 10
223.979996
 20
7.461270
 40
3.000000
 50
-90.000000
 51
0.000000
  0
ARC
  8
0
  6
CONTINUOUS
 10
287.980011
 20
7.461270
 40
3.000000
 50
180.000000
 51
270.000000
  0
LINE
  8
0
  6
CONTINUOUS
 10
211.565796
 20
3.875480
 11
225.913498
 21
18.223190
  0
LINE
  8
0
  6
CONTINUOUS
 10
300.394196
 20
3.875480
 11
286.046509
 21
18.223221
  0
LINE
  8
0
  6
CONTINUOUS
 10
212.979996
 20
4.461270
 11
223.979996
 21
4.461270
  0
LINE
  8
0
  6
CONTINUOUS
 10
298.979889
 20
4.461270
 11
287.980011
 21
4.461270
  0
LINE
  8
0
  6
CONTINUOUS
 10
300.980011
 20
-2.538730
 11
300.980011
 21
2.461270
  0
LINE
  8
0
  6
CONTINUOUS
 10
250.813293
 20
27.107080
 11
250.813293
 21
22.461260
  0
LINE
  8
0
  6
CONTINUOUS
 10
253.479996
 20
28.794580
 11
253.479996
 21
30.461250
  0
LINE
  8
0
  6
CONTINUOUS
 10
258.813293
 20
28.794580
 11
258.813293
 21
30.461250
  0
LINE
  8
0
  6
CONTINUOUS
 10
255.625793
 20
29.482080
 11
255.625793
 21
23.336260
  0
LINE
  8
0
  6
CONTINUOUS
 10
256.625793
 20
29.482080
 11
256.625793
 21
23.336260
  0
LINE
  8
0
  6
CONTINUOUS
 10
261.875793
 20
29.482080
 11
261.875793
 21
23.294590
  0
LINE
  8
0
  6
CONTINUOUS
 10
262.792511
 20
26.200830
 11
262.792511
 21
23.294590
  0
LINE
  8
0
  6
CONTINUOUS
 10
249.547897
 20
29.398750
 11
246.977997
 21
29.398750
  0
LINE
  8
0
  6
CONTINUOUS
 10
246.977997
 20
29.398750
 11
246.375793
 21
28.652090
  0
LINE
  8
0
  6
CONTINUOUS
 10
246.448196
 20
30.461250
 11
245.479996
 21
29.221420
  0
LINE
  8
0
  6
CONTINUOUS
 10
246.375793
 20
24.043200
 11
246.987595
 21
23.398760
  0
LINE
  8
0
  6
CONTINUOUS
 10
245.479996
 20
23.499359
 11
246.508804
 21
22.461260
  0
LINE
  8
0
  6
CONTINUOUS
 10
245.479996
 20
29.221420
 11
245.479996
 21
23.499359
  0
LINE
  8
0
  6
CONTINUOUS
 10
246.375793
 20
28.652090
 11
246.375793
 21
24.043200
  0
LINE
  8
0
  6
CONTINUOUS
 10
250.042496
 20
28.920691
 11
249.537796
 21
29.398750
  0
LINE
  8
0
  6
CONTINUOUS
 10
250.034500
 20
30.461250
 11
250.813293
 21
29.596939
  0
LINE
  8
0
  6
CONTINUOUS
 10
250.042496
 20
28.794580
 11
250.813293
 21
28.794580
  0
LINE
  8
0
  6
CONTINUOUS
 10
246.448196
 20
30.461250
 11
250.034500
 21
30.461250
  0
LINE
  8
0
  6
CONTINUOUS
 10
250.042496
 20
26.232080
 11
248.646698
 21
26.232080
  0
LINE
  8
0
  6
CONTINUOUS
 10
250.042496
 20
25.398750
 11
250.042496
 21
26.065420
  0
LINE
  8
0
  6
CONTINUOUS
 10
248.375793
 20
23.398760
 11
246.987595
 21
23.398760
  0
ARC
  8
0
  6
CONTINUOUS
 10
248.375793
 20
25.065411
 40
1.666667
 50
-89.999786
 51
0.000109
  0
LINE
  8
0
  6
CONTINUOUS
 10
250.042496
 20
23.098961
 11
250.042496
 21
22.461260
  0
LINE
  8
0
  6
CONTINUOUS
 10
250.813293
 20
29.596939
 11
250.813293
 21
28.794580
  0
LINE
  8
0
  6
CONTINUOUS
 10
250.042496
 20
26.232080
 11
250.042496
 21
25.065430
  0
LINE
  8
0
  6
CONTINUOUS
 10
248.646698
 20
27.107080
 11
248.646698
 21
26.232080
  0
LINE
  8
0
  6
CONTINUOUS
 10
250.042496
 20
22.461260
 11
250.813293
 21
22.461260
  0
LINE
  8
0
  6
CONTINUOUS
 10
250.042496
 20
23.098961
 11
249.282394
 21
22.461260
  0
LINE
  8
0
  6
CONTINUOUS
 10
256.625793
 20
23.336260
 11
256.959198
 21
23.336260
  0
LINE
  8
0
  6
CONTINUOUS
 10
255.229996
 20
23.336260
 11
255.229996
 21
22.461260
  0
LINE
  8
0
  6
CONTINUOUS
 10
256.959198
 20
23.336260
 11
256.959198
 21
22.461260
  0
LINE
  8
0
  6
CONTINUOUS
 10
258.256989
 20
28.794580
 11
258.813293
 21
28.794580
  0
LINE
  8
0
  6
CONTINUOUS
 10
253.479996
 20
28.794580
 11
254.072006
 21
28.794580
  0
LINE
  8
0
  6
CONTINUOUS
 10
253.479996
 20
30.461250
 11
258.813293
 21
30.461250
  0
LINE
  8
0
  6
CONTINUOUS
 10
255.229996
 20
22.461260
 11
256.959198
 21
22.461260
  0
LINE
  8
0
  6
CONTINUOUS
 10
255.229996
 20
23.336260
 11
255.625793
 21
23.336260
  0
ARC
  8
0
  6
CONTINUOUS
 10
264.677887
 20
28.325830
 40
2.135417
 50
-73.981873
 51
90.003510
  0
ARC
  8
0
  6
CONTINUOUS
 10
264.677887
 20
28.325830
 40
1.302750
 50
-82.585274
 51
62.411850
  0
LINE
  8
0
  6
CONTINUOUS
 10
261.480011
 20
30.461250
 11
264.677887
 21
30.461250
  0
LINE
  8
0
  6
CONTINUOUS
 10
261.480011
 20
30.461250
 11
261.480011
 21
29.482080
  0
LINE
  8
0
  6
CONTINUOUS
 10
262.792511
 20
29.482080
 11
262.792511
 21
27.033991
  0
LINE
  8
0
  6
CONTINUOUS
 10
265.267212
 20
26.273340
 11
266.588806
 21
23.294590
  0
LINE
  8
0
  6
CONTINUOUS
 10
264.499512
 20
26.200830
 11
265.750305
 21
23.294590
  0
LINE
  8
0
  6
CONTINUOUS
 10
261.480011
 20
23.294590
 11
261.875793
 21
23.294590
  0
LINE
  8
0
  6
CONTINUOUS
 10
262.792511
 20
23.294590
 11
263.157013
 21
23.294590
  0
LINE
  8
0
  6
CONTINUOUS
 10
263.157013
 20
22.461260
 11
261.480011
 21
22.461260
  0
LINE
  8
0
  6
CONTINUOUS
 10
265.584198
 20
23.294590
 11
265.750305
 21
23.294590
  0
LINE
  8
0
  6
CONTINUOUS
 10
266.588806
 20
23.294590
 11
266.813293
 21
23.294590
  0
LINE
  8
0
  6
CONTINUOUS
 10
265.584198
 20
22.461260
 11
266.813293
 21
22.461260
  0
LINE
  8
0
  6
CONTINUOUS
 10
266.813293
 20
23.294590
 11
266.813293
 21
22.461260
  0
LINE
  8
0
  6
CONTINUOUS
 10
265.584198
 20
23.294590
 11
265.584198
 21
22.461260
  0
LINE
  8
0
  6
CONTINUOUS
 10
263.157013
 20
23.294590
 11
263.157013
 21
22.461260
  0
LINE
  8
0
  6
CONTINUOUS
 10
261.480011
 20
23.294590
 11
261.480011
 21
22.461260
  0
LINE
  8
0
  6
CONTINUOUS
 10
254.358505
 20
29.482080
 11
254.072006
 21
28.794580
  0
LINE
  8
0
  6
CONTINUOUS
 10
258.015411
 20
29.482080
 11
258.256989
 21
28.794580
  0
LINE
  8
0
  6
CONTINUOUS
 10
256.625793
 20
29.482080
 11
258.015411
 21
29.482080
  0
LINE
  8
0
  6
CONTINUOUS
 10
255.625793
 20
29.482080
 11
254.358505
 21
29.482080
  0
LINE
  8
0
  6
CONTINUOUS
 10
261.480011
 20
29.482080
 11
261.875793
 21
29.482080
  0
LINE
  8
0
  6
CONTINUOUS
 10
262.792511
 20
29.482080
 11
265.281189
 21
29.480471
  0
LINE
  8
0
  6
CONTINUOUS
 10
250.042496
 20
28.920691
 11
250.042496
 21
28.794580
  0
LINE
  8
0
  6
CONTINUOUS
 10
246.508804
 20
22.461260
 11
249.282394
 21
22.461260
  0
LINE
  8
0
  6
CONTINUOUS
 10
262.792511
 20
27.033991
 11
264.846008
 21
27.033991
  0
LINE
  8
0
  6
CONTINUOUS
 10
262.792511
 20
26.200830
 11
264.499512
 21
26.200830
  0
LINE
  8
0
  6
CONTINUOUS
 10
248.646698
 20
27.107080
 11
250.813293
 21
27.107080
  0
LINE
  8
0
  6
CONTINUOUS
 10
289.980011
 20
53.293449
 11
289.980011
 21
29.629101
  0
LINE
  8
0
  6
CONTINUOUS
 10
221.979996
 20
29.629080
 11
221.979996
 21
53.293449
  0
ARC
  8
0
  6
CONTINUOUS
 10
255.979996
 20
41.461250
 40
36.000000
 50
19.188120
 51
160.811905
  0
ARC
  8
0
  6
CONTINUOUS
 10
255.979996
 20
41.461250
 40
36.000000
 50
199.188095
 51
340.811890
  0
CIRCLE
  8
0
  6
CONTINUOUS
 10
255.979996
 20
52.461250
 40
17.500000
  0
LINE
  8
0
  6
CONTINUOUS
 10
283.980011
 20
-2.538730
 11
282.980011
 21
-1.538730
  0
LINE
  8
0
  6
CONTINUOUS
 10
227.979996
 20
-2.538730
 11
228.979996
 21
-1.538730
  0
LINE
  8
0
  6
CENTER
 10
-7.244375
 20
222.466248
 11
173.005630
 21
222.466248
  0
LINE
  8
0
  6
CONTINUOUS
 10
136.755630
 20
79.461250
 11
136.755630
 21
-2.538750
  0
LINE
  8
0
  6
CONTINUOUS
 10
63.755615
 20
245.466248
 11
136.755630
 21
245.466248
  0
LINE
  8
0
  6
CONTINUOUS
 10
63.755619
 20
199.466248
 11
136.755630
 21
199.466248
  0
LINE
  8
0
  6
CONTINUOUS
 10
22.755625
 20
260.466248
 11
136.755630
 21
260.466248
  0
LINE
  8
0
  6
CONTINUOUS
 10
22.755625
 20
184.466248
 11
136.755630
 21
184.466248
  0
LINE
  8
0
  6
CONTINUOUS
 10
164.255630
 20
214.966248
 11
164.255630
 21
228.466248
  0
LINE
  8
0
  6
CONTINUOUS
 10
142.255630
 20
228.466248
 11
164.255630
 21
228.466248
  0
LINE
  8
0
  6
CONTINUOUS
 10
142.255630
 20
216.466248
 11
144.255630
 21
216.466248
  0
LINE
  8
0
  6
CONTINUOUS
 10
142.255630
 20
229.966248
 11
142.255630
 21
214.966248
  0
LINE
  8
0
  6
CONTINUOUS
 10
139.255630
 20
239.966248
 11
136.755630
 21
239.966248
  0
LINE
  8
0
  6
CONTINUOUS
 10
139.255630
 20
204.966248
 11
136.755630
 21
204.966248
  0
LINE
  8
0
  6
CONTINUOUS
 10
140.255630
 20
205.966248
 11
140.255630
 21
238.966248
  0
ARC
  8
0
  6
CONTINUOUS
 10
139.255630
 20
238.966248
 40
1.000000
 50
0.000000
 51
90.000000
  0
ARC
  8
0
  6
CONTINUOUS
 10
139.255630
 20
205.966248
 40
1.000000
 50
-90.000000
 51
0.000000
  0
LINE
  8
0
  6
CONTINUOUS
 10
140.255630
 20
229.966248
 11
142.255630
 21
229.966248
  0
LINE
  8
0
  6
CONTINUOUS
 10
140.255630
 20
214.966248
 11
142.255630
 21
214.966248
  0
LINE
  8
0
  6
CONTINUOUS
 10
144.255630
 20
214.966248
 11
164.255630
 21
214.966248
  0
LINE
  8
0
  6
CONTINUOUS
 10
144.255630
 20
216.809250
 11
144.255630
 21
214.966248
  0
LINE
  8
0
  6
CONTINUOUS
 10
144.255630
 20
216.809250
 11
164.255630
 21
216.809250
  0
LINE
  8
0
  6
CONTINUOUS
 10
22.755625
 20
260.466248
 11
22.755625
 21
247.466248
  0
LINE
  8
0
  6
CONTINUOUS
 10
88.755623
 20
267.466248
 11
134.755630
 21
267.466248
  0
LINE
  8
0
  6
CONTINUOUS
 10
88.755623
 20
177.466248
 11
134.755630
 21
177.466248
  0
LINE
  8
0
  6
CONTINUOUS
 10
86.755623
 20
265.466248
 11
86.755623
 21
260.466248
  0
LINE
  8
0
  6
CONTINUOUS
 10
86.755623
 20
179.466248
 11
86.755623
 21
184.466248
  0
LINE
  8
0
  6
CENTER
 10
129.255630
 20
266.591248
 11
129.255630
 21
254.216248
  0
LINE
  8
0
  6
CENTER
 10
94.255623
 20
266.091248
 11
94.255623
 21
255.216248
  0
ARC
  8
0
  6
CONTINUOUS
 10
129.255630
 20
260.466248
 40
3.250000
 50
0.000000
 51
180.000000
  0
ARC
  8
0
  6
CONTINUOUS
 10
94.255623
 20
260.466248
 40
3.250000
 50
0.000000
 51
180.000000
  0
LINE
  8
0
  6
CENTER
 10
129.255630
 20
178.341248
 11
129.255630
 21
189.966248
  0
LINE
  8
0
  6
CENTER
 10
94.255623
 20
178.341248
 11
94.255623
 21
190.091248
  0
ARC
  8
0
  6
CONTINUOUS
 10
129.255630
 20
184.466248
 40
3.250000
 50
-180.000000
 51
0.000000
  0
ARC
  8
0
  6
CONTINUOUS
 10
94.255623
 20
184.466248
 40
3.250000
 50
-180.000000
 51
0.000000
  0
LINE
  8
0
  6
CONTINUOUS
 10
119.255623
 20
178.091248
 11
119.255623
 21
184.466248
  0
LINE
  8
0
  6
CONTINUOUS
 10
104.255623
 20
178.091248
 11
104.255623
 21
184.466248
  0
LINE
  8
0
  6
CONTINUOUS
 10
22.755625
 20
260.466248
 11
6.219735
 21
260.466248
  0
LINE
  8
0
  6
CONTINUOUS
 10
2.755625
 20
257.466248
 11
2.755625
 21
187.466248
  0
LINE
  8
0
  6
CONTINUOUS
 10
22.755625
 20
184.466248
 11
6.219735
 21
184.466248
  0
LINE
  8
0
  6
CONTINUOUS
 10
13.755625
 20
199.466248
 11
4.337255
 21
199.466248
  0
LINE
  8
0
  6
CONTINUOUS
 10
13.755625
 20
245.466248
 11
4.337255
 21
245.466248
  0
LINE
  8
0
  6
CONTINUOUS
 10
3.621645
 20
258.966248
 11
2.755625
 21
257.466248
  0
ARC
  8
0
  6
CONTINUOUS
 10
6.219735
 20
257.466248
 40
3.000000
 50
90.000000
 51
150.000397
  0
LINE
  8
0
  6
CONTINUOUS
 10
3.621645
 20
185.966248
 11
2.755625
 21
187.466248
  0
ARC
  8
0
  6
CONTINUOUS
 10
6.219735
 20
187.466248
 40
3.000000
 50
-150.000397
 51
-90.000000
  0
LINE
  8
0
  6
CONTINUOUS
 10
2.255625
 20
254.466248
 11
2.255625
 21
190.466248
  0
LINE
  8
0
  6
CONTINUOUS
 10
2.255625
 20
254.466248
 11
2.755625
 21
254.966248
  0
LINE
  8
0
  6
CONTINUOUS
 10
2.255625
 20
190.466248
 11
2.755625
 21
189.966248
  0
ARC
  8
0
  6
DASHED
 10
129.255630
 20
184.466248
 40
3.250000
 50
0.000000
 51
180.000000
  0
ARC
  8
0
  6
DASHED
 10
94.255623
 20
184.466248
 40
3.250000
 50
0.000000
 51
180.000000
  0
ARC
  8
0
  6
DASHED
 10
94.255623
 20
260.466248
 40
3.250000
 50
-180.000000
 51
0.000000
  0
ARC
  8
0
  6
DASHED
 10
129.255630
 20
260.466248
 40
3.250000
 50
-180.000000
 51
0.000000
  0
LINE
  8
0
  6
CENTER
 10
89.005623
 20
260.466248
 11
99.255623
 21
260.466248
  0
LINE
  8
0
  6
CENTER
 10
124.005623
 20
260.466248
 11
134.630630
 21
260.466248
  0
LINE
  8
0
  6
CENTER
 10
88.880623
 20
184.466248
 11
99.630623
 21
184.466248
  0
LINE
  8
0
  6
CENTER
 10
123.880623
 20
184.466248
 11
134.630630
 21
184.466248
  0
LINE
  8
0
  6
CONTINUOUS
 10
119.255623
 20
266.841248
 11
119.255623
 21
260.466248
  0
LINE
  8
0
  6
CONTINUOUS
 10
104.255623
 20
266.841248
 11
104.255623
 21
260.466248
  0
ARC
  8
0
  6
CONTINUOUS
 10
134.755630
 20
179.466248
 40
2.000000
 50
-90.000000
 51
0.000000
  0
ARC
  8
0
  6
CONTINUOUS
 10
88.755623
 20
179.466248
 40
2.000000
 50
180.000000
 51
270.000000
  0
ARC
  8
0
  6
CONTINUOUS
 10
134.755630
 20
265.466248
 40
2.000000
 50
0.000000
 51
90.000000
  0
ARC
  8
0
  6
CONTINUOUS
 10
88.755623
 20
265.466248
 40
2.000000
 50
90.000000
 51
180.000000
  0
LINE
  8
0
  6
CONTINUOUS
 10
22.755625
 20
197.466248
 11
22.755625
 21
184.466248
  0
LINE
  8
0
  6
CONTINUOUS
 10
13.755625
 20
199.466248
 11
13.755625
 21
245.466248
  0
LINE
  8
0
  6
CONTINUOUS
 10
15.755625
 20
247.466248
 11
13.755625
 21
245.466248
  0
LINE
  8
0
  6
CONTINUOUS
 10
15.755625
 20
247.466248
 11
61.755615
 21
247.466248
  0
LINE
  8
0
  6
CONTINUOUS
 10
56.255627
 20
242.966248
 11
56.255627
 21
247.466248
  0
ARC
  8
0
  6
CONTINUOUS
 10
59.255627
 20
242.966248
 40
3.000000
 50
180.000000
 51
270.000000
  0
LINE
  8
0
  6
CONTINUOUS
 10
59.255627
 20
239.966248
 11
63.755615
 21
239.966248
  0
CIRCLE
  8
0
  6
CONTINUOUS
 10
60.255627
 20
243.966248
 40
2.250000
  0
LINE
  8
0
  6
CONTINUOUS
 10
63.755619
 20
199.466248
 11
63.755615
 21
245.466248
  0
LINE
  8
0
  6
CONTINUOUS
 10
61.755615
 20
247.466248
 11
63.755615
 21
245.466248
  0
LINE
  8
0
  6
CONTINUOUS
 10
61.755619
 20
197.466248
 11
63.755619
 21
199.466248
  0
LINE
  8
0
  6
CONTINUOUS
 10
61.755619
 20
197.466248
 11
15.755625
 21
197.466248
  0
LINE
  8
0
  6
CONTINUOUS
 10
13.755625
 20
199.466248
 11
15.755625
 21
197.466248
  0
LINE
  8
0
  6
CONTINUOUS
 10
18.255625
 20
204.966248
 11
13.755635
 21
204.966248
  0
CIRCLE
  8
0
  6
CONTINUOUS
 10
17.255625
 20
200.966248
 40
2.250000
  0
ARC
  8
0
  6
CONTINUOUS
 10
18.255625
 20
201.966248
 40
3.000000
 50
0.000000
 51
90.000000
  0
LINE
  8
0
  6
CONTINUOUS
 10
21.255625
 20
201.966248
 11
21.255625
 21
197.466248
  0
LINE
  8
0
  6
CENTER
 10
38.755627
 20
190.000473
 11
38.755627
 21
254.132507
  0
LINE
  8
0
  6
CONTINUOUS
 10
14.755631
 20
204.966248
 11
14.755631
 21
239.966248
  0
LINE
  8
0
  6
CONTINUOUS
 10
56.255627
 20
246.466248
 11
21.255625
 21
246.466248
  0
LINE
  8
0
  6
CONTINUOUS
 10
62.755619
 20
239.966248
 11
62.755619
 21
204.966248
  0
LINE
  8
0
  6
CONTINUOUS
 10
21.255625
 20
198.466248
 11
56.255627
 21
198.466248
  0
LINE
  8
0
  6
CONTINUOUS
 10
18.255625
 20
239.966248
 11
13.755625
 21
239.966248
  0
ARC
  8
0
  6
CONTINUOUS
 10
18.255625
 20
242.966248
 40
3.000000
 50
-90.000000
 51
0.000000
  0
LINE
  8
0
  6
CONTINUOUS
 10
21.255625
 20
242.966248
 11
21.255625
 21
247.466248
  0
CIRCLE
  8
0
  6
CONTINUOUS
 10
17.255625
 20
243.966248
 40
2.250000
  0
ARC
  8
0
  6
CONTINUOUS
 10
59.255627
 20
201.966248
 40
3.000000
 50
90.000000
 51
180.000000
  0
LINE
  8
0
  6
CONTINUOUS
 10
56.255627
 20
201.966248
 11
56.255627
 21
197.466263
  0
LINE
  8
0
  6
CONTINUOUS
 10
59.255627
 20
204.966248
 11
63.755627
 21
204.966248
  0
CIRCLE
  8
0
  6
CONTINUOUS
 10
60.255627
 20
200.966248
 40
2.250000
  0
LINE
  8
0
  6
CONTINUOUS
 10
15.255625
 20
80.961250
 11
61.755627
 21
80.961250
  0
LINE
  8
0
  6
CONTINUOUS
 10
63.755604
 20
124.961250
 11
63.755627
 21
82.961250
  0
LINE
  8
0
  6
CONTINUOUS
 10
13.755625
 20
124.961250
 11
13.755625
 21
82.961250
  0
LINE
  8
0
  6
CONTINUOUS
 10
13.755625
 20
92.961250
 11
63.755627
 21
92.961250
  0
LINE
  8
0
  6
CONTINUOUS
 10
61.755627
 20
80.961250
 11
63.755627
 21
82.961250
  0
LINE
  8
0
  6
CONTINUOUS
 10
13.755625
 20
82.961250
 11
15.755625
 21
80.961250
  0
LINE
  8
0
  6
CONTINUOUS
 10
13.755625
 20
82.961250
 11
63.755627
 21
82.961250
  0
LINE
  8
0
  6
CONTINUOUS
 10
13.755625
 20
93.961250
 11
63.755604
 21
93.961250
  0
LINE
  8
0
  6
CONTINUOUS
 10
14.755625
 20
125.961250
 11
62.755604
 21
125.961250
  0
LINE
  8
0
  6
CONTINUOUS
 10
62.755604
 20
125.961250
 11
63.755604
 21
124.961250
  0
LINE
  8
0
  6
CONTINUOUS
 10
14.755625
 20
125.961250
 11
13.755625
 21
124.961250
  0
LINE
  8
0
  6
CONTINUOUS
 10
13.755625
 20
124.961250
 11
63.755604
 21
124.961250
  0
LINE
  8
0
  6
CENTER
 10
38.755627
 20
74.571739
 11
38.755627
 21
132.263748
  0
LINE
  8
0
  6
CENTER
 10
11.380625
 20
108.961250
 11
16.005625
 21
108.961250
  0
LINE
  8
0
  6
CONTINUOUS
 10
15.255625
 20
80.961250
 11
15.255625
 21
79.461250
  0
LINE
  8
0
  6
CONTINUOUS
 10
61.255627
 20
80.961250
 11
61.255627
 21
79.461250
  0
LINE
  8
0
  6
CONTINUOUS
 10
12.880625
 20
119.461250
 11
14.880625
 21
119.461250
  0
LINE
  8
0
  6
CONTINUOUS
 10
12.880625
 20
98.461250
 11
14.880625
 21
98.461250
  0
LINE
  8
0
  6
CONTINUOUS
 10
232.979996
 20
80.961243
 11
278.980011
 21
80.961243
  0
LINE
  8
0
  6
CONTINUOUS
 10
280.980011
 20
124.961243
 11
280.980011
 21
82.961243
  0
LINE
  8
0
  6
CONTINUOUS
 10
230.979996
 20
124.961243
 11
230.979996
 21
82.961243
  0
LINE
  8
0
  6
CONTINUOUS
 10
230.979996
 20
92.961243
 11
280.980011
 21
92.961243
  0
LINE
  8
0
  6
CONTINUOUS
 10
278.980011
 20
80.961243
 11
280.980011
 21
82.961243
  0
LINE
  8
0
  6
CONTINUOUS
 10
230.979996
 20
82.961243
 11
232.979996
 21
80.961243
  0
LINE
  8
0
  6
CONTINUOUS
 10
230.979996
 20
82.961243
 11
280.980011
 21
82.961243
  0
LINE
  8
0
  6
CONTINUOUS
 10
230.979996
 20
93.961243
 11
280.980011
 21
93.961243
  0
LINE
  8
0
  6
CONTINUOUS
 10
231.979996
 20
125.961243
 11
279.980011
 21
125.961243
  0
LINE
  8
0
  6
CONTINUOUS
 10
279.980011
 20
125.961243
 11
280.980011
 21
124.961243
  0
LINE
  8
0
  6
CONTINUOUS
 10
231.979996
 20
125.961243
 11
230.979996
 21
124.961243
  0
LINE
  8
0
  6
CONTINUOUS
 10
230.979996
 20
124.961243
 11
280.980011
 21
124.961243
  0
LINE
  8
0
  6
CONTINUOUS
 10
233.479996
 20
80.961243
 11
233.479996
 21
78.417252
  0
LINE
  8
0
  6
CONTINUOUS
 10
278.480011
 20
80.961243
 11
278.480011
 21
78.417259
  0
TEXT
  8
0
 10
-8.000000
 20
-7.000000
 40
4.000000
 41
1.000000
  1
GLM-12-5~240-T15WK
 50
0.000000
  0
ENDSEC
  0
EOF
