  0
SECTION
  2
HEADER
  9
$CLAYER
  8
1
  9
$LTSCALE
 40
3.0
  0
ENDSEC
  0
SECTION
  2
TABLES
  0
TABLE
  2
LTYPE
 70
     4
  0
LTYPE
  2
CONTINUOUS
  3
solid line
 70
    64
 72
    65
 73
     0
 40
0.0
  0
LTYPE
  2
DASHED
  3
__ __ __ __ __ __ __ __ __ __ __ __ __ __ __
 70
    64
 72
    65
 73
     2
 40
0.75
 49
0.5
 49
-0.25
  0
LTYPE
  2
CENTER
  3
____ _ ____ _ ____ _ ____ _ ____ _ ____ _ ____
 70
    64
 72
    65
 73
     4
 40
2.0
 49
1.25
 49
-0.25
 49
0.25
 49
-0.25
  0
LTYPE
  2
PHANTOM
  3
_____ _ _ _____ _ _ _____ _ _ _____ _ _ ____
 70
    64
 72
    65
 73
     6
 40
2.5
 49
1.25
 49
-0.25
 49
0.25
 49
-0.25
 49
0.25
 49
-0.25
  0
ENDTAB
  0
TABLE
  2
LAYER
 70
     1
  0
LAYER
  2
0
 70
    64
 62
     7
  6
CONTINUOUS
  0
ENDTAB
  0
TABLE
  2
STYLE
 70
     1
  0
STYLE
  2
STANDARD
 70
     0
 40
0.000000
 41
1.000000
 50
0.000000
 71
     0
 42
3.000000
  3
txt
  4
BIGFONT
  0
ENDTAB
  0
ENDSEC
  0
SECTION
  2
BLOCKS
  0
ENDSEC
  0
SECTION
  2
ENTITIES
  0
LINE
  8
0
  6
CONTINUOUS
 10
5.793750
 20
19.891251
 11
5.793750
 21
83.891251
  0
LINE
  8
0
  6
CONTINUOUS
 10
9.757850
 20
89.891251
 11
26.293751
 21
89.891251
  0
LINE
  8
0
  6
CONTINUOUS
 10
9.757850
 20
13.891250
 11
26.293751
 21
13.891250
  0
LINE
  8
0
  6
CONTINUOUS
 10
6.293750
 20
16.891251
 11
6.293750
 21
86.891251
  0
LINE
  8
0
  6
CONTINUOUS
 10
5.793750
 20
83.891251
 11
6.293750
 21
84.391251
  0
LINE
  8
0
  6
CONTINUOUS
 10
5.793750
 20
19.891251
 11
6.293750
 21
19.391251
  0
LINE
  8
0
  6
CONTINUOUS
 10
7.159770
 20
88.391251
 11
6.293750
 21
86.891251
  0
ARC
  8
0
  6
CONTINUOUS
 10
9.757860
 20
86.891251
 40
3.000000
 50
90.000000
 51
150.000397
  0
LINE
  8
0
  6
CONTINUOUS
 10
7.159770
 20
15.391260
 11
6.293750
 21
16.891251
  0
ARC
  8
0
  6
CONTINUOUS
 10
9.757860
 20
16.891230
 40
3.000000
 50
-150.000397
 51
-90.000000
  0
LINE
  8
0
  6
CONTINUOUS
 10
7.875380
 20
82.140251
 11
26.293751
 21
82.140251
  0
LINE
  8
0
  6
CONTINUOUS
 10
26.293751
 20
21.642250
 11
7.875380
 21
21.642250
  0
LINE
  8
0
  6
CONTINUOUS
 10
26.293751
 20
13.891270
 11
26.293751
 21
89.891251
  0
LINE
  8
0
  6
CENTER
 10
-5.331250
 20
51.891251
 11
147.311249
 21
51.891251
  0
LINE
  8
0
  6
CONTINUOUS
 10
140.293747
 20
275.896240
 11
140.293747
 21
189.896255
  0
LINE
  8
0
  6
CONTINUOUS
 10
90.293747
 20
7.891250
 11
90.293747
 21
25.335190
  0
LINE
  8
0
  6
CENTER
 10
113.704247
 20
62.891251
 11
177.543747
 21
62.891251
  0
LINE
  8
0
  6
CONTINUOUS
 10
90.293747
 20
7.891250
 11
140.293747
 21
7.891250
  0
LINE
  8
0
  6
CENTER
 10
132.793747
 20
18.266251
 11
132.793747
 21
4.141250
  0
LINE
  8
0
  6
CENTER
 10
97.793747
 20
17.266251
 11
97.793747
 21
4.516250
  0
LINE
  8
0
  6
CONTINUOUS
 10
92.293747
 20
14.891250
 11
138.293747
 21
14.891250
  0
LINE
  8
0
  6
DASHED
 10
136.043747
 20
14.891250
 11
136.043747
 21
7.891250
  0
LINE
  8
0
  6
DASHED
 10
129.543747
 20
14.891250
 11
129.543747
 21
7.891250
  0
LINE
  8
0
  6
DASHED
 10
101.043747
 20
14.891250
 11
101.043747
 21
7.891250
  0
LINE
  8
0
  6
DASHED
 10
94.543747
 20
14.891250
 11
94.543747
 21
7.891250
  0
ARC
  8
0
  6
CONTINUOUS
 10
138.293747
 20
12.891240
 40
2.000000
 50
0.000000
 51
90.000000
  0
ARC
  8
0
  6
CONTINUOUS
 10
92.293747
 20
12.891260
 40
2.000000
 50
90.000000
 51
180.000000
  0
LINE
  8
0
  6
CONTINUOUS
 10
122.793747
 20
16.891230
 11
122.793747
 21
29.320551
  0
LINE
  8
0
  6
CONTINUOUS
 10
107.793747
 20
16.891251
 11
107.793747
 21
29.320539
  0
LINE
  8
0
  6
CONTINUOUS
 10
26.293751
 20
89.891251
 11
140.293747
 21
89.891251
  0
LINE
  8
0
  6
CONTINUOUS
 10
26.293751
 20
13.891270
 11
90.293747
 21
13.891270
  0
LINE
  8
0
  6
CONTINUOUS
 10
26.293751
 20
82.140251
 11
140.293747
 21
82.140251
  0
LINE
  8
0
  6
CONTINUOUS
 10
26.293751
 20
21.642281
 11
90.293747
 21
21.642281
  0
LINE
  8
0
  6
CONTINUOUS
 10
167.793747
 20
56.891251
 11
167.793747
 21
68.891251
  0
LINE
  8
0
  6
CONTINUOUS
 10
145.793747
 20
68.891251
 11
167.793747
 21
68.891251
  0
LINE
  8
0
  6
CONTINUOUS
 10
145.793747
 20
56.891251
 11
167.793747
 21
56.891251
  0
LINE
  8
0
  6
CONTINUOUS
 10
145.793747
 20
70.391251
 11
145.793747
 21
55.391251
  0
LINE
  8
0
  6
CONTINUOUS
 10
149.793747
 20
64.891251
 11
167.793747
 21
64.891251
  0
LINE
  8
0
  6
CONTINUOUS
 10
149.793747
 20
60.891251
 11
167.793747
 21
60.891251
  0
ARC
  8
0
  6
CONTINUOUS
 10
149.793747
 20
62.891251
 40
2.000000
 50
90.000000
 51
180.000000
  0
ARC
  8
0
  6
CONTINUOUS
 10
149.793747
 20
62.891251
 40
2.000000
 50
180.000000
 51
270.000000
  0
LINE
  8
0
  6
CONTINUOUS
 10
108.700050
 20
29.320539
 11
121.950050
 21
29.320539
  0
ARC
  8
0
  6
CONTINUOUS
 10
105.793747
 20
16.891251
 40
2.000000
 50
-90.000000
 51
0.000000
  0
ARC
  8
0
  6
CONTINUOUS
 10
124.793747
 20
16.891251
 40
2.000000
 50
180.000000
 51
270.000000
  0
ARC
  8
0
  6
CONTINUOUS
 10
92.293747
 20
25.335199
 40
2.000000
 50
90.000000
 51
180.000000
  0
LINE
  8
0
  6
CONTINUOUS
 10
92.543747
 20
27.335190
 11
107.168747
 21
27.335190
  0
LINE
  8
0
  6
CONTINUOUS
 10
139.918747
 20
27.335190
 11
123.043747
 21
27.335190
  0
ARC
  8
0
  6
CONTINUOUS
 10
124.793747
 20
29.320551
 40
2.000000
 50
90.000000
 51
180.000000
  0
ARC
  8
0
  6
CONTINUOUS
 10
105.793747
 20
29.320539
 40
2.000000
 50
0.000000
 51
90.000000
  0
LINE
  8
0
  6
CONTINUOUS
 10
142.793747
 20
80.391251
 11
140.293747
 21
80.391251
  0
LINE
  8
0
  6
CONTINUOUS
 10
142.793747
 20
45.391251
 11
140.293747
 21
45.391251
  0
LINE
  8
0
  6
CONTINUOUS
 10
143.793747
 20
46.391251
 11
143.793747
 21
79.391251
  0
ARC
  8
0
  6
CONTINUOUS
 10
142.793747
 20
79.391251
 40
1.000000
 50
0.000000
 51
90.000000
  0
ARC
  8
0
  6
CONTINUOUS
 10
142.793747
 20
46.391251
 40
1.000000
 50
-90.000000
 51
0.000000
  0
LINE
  8
0
  6
CONTINUOUS
 10
143.793747
 20
70.391251
 11
145.793747
 21
70.391251
  0
LINE
  8
0
  6
CONTINUOUS
 10
143.793747
 20
55.391251
 11
145.793747
 21
55.391251
  0
LINE
  8
0
  6
CENTER
 10
278.666260
 20
2.641270
 11
278.666260
 21
130.937347
  0
LINE
  8
0
  6
CENTER
 10
235.666245
 20
51.891251
 11
323.166260
 21
51.891251
  0
LINE
  8
0
  6
CENTER
 10
255.827499
 20
62.891251
 11
302.793762
 21
62.891251
  0
LINE
  8
0
  6
CONTINUOUS
 10
306.666260
 20
7.891270
 11
323.666260
 21
7.891270
  0
LINE
  8
0
  6
CONTINUOUS
 10
305.666260
 20
8.891270
 11
251.666245
 21
8.891270
  0
LINE
  8
0
  6
CENTER
 10
316.666260
 20
18.391270
 11
316.666260
 21
3.516270
  0
LINE
  8
0
  6
DASHED
 10
319.916260
 20
14.891270
 11
319.916260
 21
7.891270
  0
LINE
  8
0
  6
DASHED
 10
313.416260
 20
14.891270
 11
313.416260
 21
7.891270
  0
LINE
  8
0
  6
CONTINUOUS
 10
301.666260
 20
87.524353
 11
301.666260
 21
82.140221
  0
LINE
  8
0
  6
CONTINUOUS
 10
299.701141
 20
89.524147
 11
278.666260
 21
89.891251
  0
ARC
  8
0
  6
CONTINUOUS
 10
299.666260
 20
87.524353
 40
2.000000
 50
0.000000
 51
89.000137
  0
LINE
  8
0
  6
CONTINUOUS
 10
250.666245
 20
7.891270
 11
233.666245
 21
7.891270
  0
LINE
  8
0
  6
CONTINUOUS
 10
233.666245
 20
12.891270
 11
233.666245
 21
7.891270
  0
LINE
  8
0
  6
CENTER
 10
240.666245
 20
18.391270
 11
240.666245
 21
3.516270
  0
LINE
  8
0
  6
DASHED
 10
237.416245
 20
14.891270
 11
237.416245
 21
7.891270
  0
LINE
  8
0
  6
DASHED
 10
243.916245
 20
14.891270
 11
243.916245
 21
7.891270
  0
LINE
  8
0
  6
CONTINUOUS
 10
255.666245
 20
87.524353
 11
255.666245
 21
82.140221
  0
LINE
  8
0
  6
CONTINUOUS
 10
257.631348
 20
89.524147
 11
278.666260
 21
89.891251
  0
ARC
  8
0
  6
CONTINUOUS
 10
257.666260
 20
87.524353
 40
2.000000
 50
90.999863
 51
180.000000
  0
ARC
  8
0
  6
CONTINUOUS
 10
278.666260
 20
51.891251
 40
38.000000
 50
-40.256561
 51
52.752220
  0
ARC
  8
0
  6
CONTINUOUS
 10
278.666260
 20
51.891251
 40
38.000000
 50
127.247780
 51
220.256607
  0
LINE
  8
0
  6
CONTINUOUS
 10
271.166260
 20
60.891251
 11
271.166260
 21
64.891251
  0
LINE
  8
0
  6
CONTINUOUS
 10
275.166260
 20
64.891251
 11
271.166260
 21
64.891251
  0
LINE
  8
0
  6
CONTINUOUS
 10
271.166260
 20
60.891251
 11
275.166260
 21
60.891251
  0
LINE
  8
0
  6
CONTINUOUS
 10
275.166260
 20
64.891251
 11
275.166260
 21
60.891251
  0
ARC
  8
0
  6
CONTINUOUS
 10
278.666260
 20
62.891251
 40
6.000000
 50
-160.528793
 51
160.528793
  0
LINE
  8
0
  6
CONTINUOUS
 10
307.666260
 20
17.891230
 11
307.666260
 21
27.335199
  0
LINE
  8
0
  6
CONTINUOUS
 10
249.666245
 20
17.891270
 11
249.666245
 21
27.335199
  0
ARC
  8
0
  6
CONTINUOUS
 10
321.666260
 20
12.891270
 40
2.000000
 50
0.000000
 51
90.000000
  0
ARC
  8
0
  6
CONTINUOUS
 10
235.666245
 20
12.891280
 40
2.000000
 50
90.000000
 51
180.000000
  0
ARC
  8
0
  6
CONTINUOUS
 10
246.666245
 20
17.891270
 40
3.000000
 50
-90.000000
 51
0.000000
  0
ARC
  8
0
  6
CONTINUOUS
 10
310.666260
 20
17.891270
 40
3.000000
 50
180.000000
 51
270.000000
  0
LINE
  8
0
  6
CONTINUOUS
 10
234.252045
 20
14.305480
 11
248.599747
 21
28.653191
  0
LINE
  8
0
  6
CONTINUOUS
 10
323.080444
 20
14.305480
 11
308.732758
 21
28.653219
  0
LINE
  8
0
  6
CONTINUOUS
 10
235.666245
 20
14.891270
 11
246.666245
 21
14.891270
  0
LINE
  8
0
  6
CONTINUOUS
 10
321.666138
 20
14.891270
 11
310.666260
 21
14.891270
  0
LINE
  8
0
  6
CONTINUOUS
 10
323.666260
 20
7.891270
 11
323.666260
 21
12.891270
  0
LINE
  8
0
  6
CONTINUOUS
 10
273.499542
 20
37.537079
 11
273.499542
 21
32.891258
  0
LINE
  8
0
  6
CONTINUOUS
 10
276.166260
 20
39.224579
 11
276.166260
 21
40.891251
  0
LINE
  8
0
  6
CONTINUOUS
 10
281.499542
 20
39.224579
 11
281.499542
 21
40.891251
  0
LINE
  8
0
  6
CONTINUOUS
 10
278.312042
 20
39.912079
 11
278.312042
 21
33.766258
  0
LINE
  8
0
  6
CONTINUOUS
 10
279.312042
 20
39.912079
 11
279.312042
 21
33.766258
  0
LINE
  8
0
  6
CONTINUOUS
 10
284.562042
 20
39.912079
 11
284.562042
 21
33.724590
  0
LINE
  8
0
  6
CONTINUOUS
 10
285.478760
 20
36.630829
 11
285.478760
 21
33.724590
  0
LINE
  8
0
  6
CONTINUOUS
 10
272.234161
 20
39.828751
 11
269.664246
 21
39.828751
  0
LINE
  8
0
  6
CONTINUOUS
 10
269.664246
 20
39.828751
 11
269.062042
 21
39.082088
  0
LINE
  8
0
  6
CONTINUOUS
 10
269.134460
 20
40.891251
 11
268.166260
 21
39.651421
  0
LINE
  8
0
  6
CONTINUOUS
 10
269.062042
 20
34.473202
 11
269.673859
 21
33.828758
  0
LINE
  8
0
  6
CONTINUOUS
 10
268.166260
 20
33.929359
 11
269.195038
 21
32.891258
  0
LINE
  8
0
  6
CONTINUOUS
 10
268.166260
 20
39.651421
 11
268.166260
 21
33.929359
  0
LINE
  8
0
  6
CONTINUOUS
 10
269.062042
 20
39.082088
 11
269.062042
 21
34.473202
  0
LINE
  8
0
  6
CONTINUOUS
 10
272.728760
 20
39.350689
 11
272.224060
 21
39.828751
  0
LINE
  8
0
  6
CONTINUOUS
 10
272.720764
 20
40.891251
 11
273.499542
 21
40.026939
  0
LINE
  8
0
  6
CONTINUOUS
 10
272.728760
 20
39.224579
 11
273.499542
 21
39.224579
  0
LINE
  8
0
  6
CONTINUOUS
 10
269.134460
 20
40.891251
 11
272.720764
 21
40.891251
  0
LINE
  8
0
  6
CONTINUOUS
 10
272.728760
 20
36.662079
 11
271.332947
 21
36.662079
  0
LINE
  8
0
  6
CONTINUOUS
 10
272.728760
 20
35.828751
 11
272.728760
 21
36.495419
  0
LINE
  8
0
  6
CONTINUOUS
 10
271.062042
 20
33.828758
 11
269.673859
 21
33.828758
  0
ARC
  8
0
  6
CONTINUOUS
 10
271.062042
 20
35.495411
 40
1.666667
 50
-89.999786
 51
0.000109
  0
LINE
  8
0
  6
CONTINUOUS
 10
272.728760
 20
33.528961
 11
272.728760
 21
32.891258
  0
LINE
  8
0
  6
CONTINUOUS
 10
273.499542
 20
40.026939
 11
273.499542
 21
39.224579
  0
LINE
  8
0
  6
CONTINUOUS
 10
272.728760
 20
36.662079
 11
272.728760
 21
35.495430
  0
LINE
  8
0
  6
CONTINUOUS
 10
271.332947
 20
37.537079
 11
271.332947
 21
36.662079
  0
LINE
  8
0
  6
CONTINUOUS
 10
272.728760
 20
32.891258
 11
273.499542
 21
32.891258
  0
LINE
  8
0
  6
CONTINUOUS
 10
272.728760
 20
33.528961
 11
271.968658
 21
32.891258
  0
LINE
  8
0
  6
CONTINUOUS
 10
279.312042
 20
33.766258
 11
279.645447
 21
33.766258
  0
LINE
  8
0
  6
CONTINUOUS
 10
277.916260
 20
33.766258
 11
277.916260
 21
32.891258
  0
LINE
  8
0
  6
CONTINUOUS
 10
279.645447
 20
33.766258
 11
279.645447
 21
32.891258
  0
LINE
  8
0
  6
CONTINUOUS
 10
280.943237
 20
39.224579
 11
281.499542
 21
39.224579
  0
LINE
  8
0
  6
CONTINUOUS
 10
276.166260
 20
39.224579
 11
276.758240
 21
39.224579
  0
LINE
  8
0
  6
CONTINUOUS
 10
276.166260
 20
40.891251
 11
281.499542
 21
40.891251
  0
LINE
  8
0
  6
CONTINUOUS
 10
277.916260
 20
32.891258
 11
279.645447
 21
32.891258
  0
LINE
  8
0
  6
CONTINUOUS
 10
277.916260
 20
33.766258
 11
278.312042
 21
33.766258
  0
ARC
  8
0
  6
CONTINUOUS
 10
287.364136
 20
38.755829
 40
2.135417
 50
-73.981873
 51
90.003510
  0
ARC
  8
0
  6
CONTINUOUS
 10
287.364136
 20
38.755829
 40
1.302750
 50
-82.585274
 51
62.411850
  0
LINE
  8
0
  6
CONTINUOUS
 10
284.166260
 20
40.891251
 11
287.364136
 21
40.891251
  0
LINE
  8
0
  6
CONTINUOUS
 10
284.166260
 20
40.891251
 11
284.166260
 21
39.912079
  0
LINE
  8
0
  6
CONTINUOUS
 10
285.478760
 20
39.912079
 11
285.478760
 21
37.463989
  0
LINE
  8
0
  6
CONTINUOUS
 10
287.953461
 20
36.703339
 11
289.275055
 21
33.724590
  0
LINE
  8
0
  6
CONTINUOUS
 10
287.185760
 20
36.630829
 11
288.436554
 21
33.724590
  0
LINE
  8
0
  6
CONTINUOUS
 10
284.166260
 20
33.724590
 11
284.562042
 21
33.724590
  0
LINE
  8
0
  6
CONTINUOUS
 10
285.478760
 20
33.724590
 11
285.843262
 21
33.724590
  0
LINE
  8
0
  6
CONTINUOUS
 10
285.843262
 20
32.891258
 11
284.166260
 21
32.891258
  0
LINE
  8
0
  6
CONTINUOUS
 10
288.270447
 20
33.724590
 11
288.436554
 21
33.724590
  0
LINE
  8
0
  6
CONTINUOUS
 10
289.275055
 20
33.724590
 11
289.499542
 21
33.724590
  0
LINE
  8
0
  6
CONTINUOUS
 10
288.270447
 20
32.891258
 11
289.499542
 21
32.891258
  0
LINE
  8
0
  6
CONTINUOUS
 10
289.499542
 20
33.724590
 11
289.499542
 21
32.891258
  0
LINE
  8
0
  6
CONTINUOUS
 10
288.270447
 20
33.724590
 11
288.270447
 21
32.891258
  0
LINE
  8
0
  6
CONTINUOUS
 10
285.843262
 20
33.724590
 11
285.843262
 21
32.891258
  0
LINE
  8
0
  6
CONTINUOUS
 10
284.166260
 20
33.724590
 11
284.166260
 21
32.891258
  0
LINE
  8
0
  6
CONTINUOUS
 10
277.044739
 20
39.912079
 11
276.758240
 21
39.224579
  0
LINE
  8
0
  6
CONTINUOUS
 10
280.701660
 20
39.912079
 11
280.943237
 21
39.224579
  0
LINE
  8
0
  6
CONTINUOUS
 10
279.312042
 20
39.912079
 11
280.701660
 21
39.912079
  0
LINE
  8
0
  6
CONTINUOUS
 10
278.312042
 20
39.912079
 11
277.044739
 21
39.912079
  0
LINE
  8
0
  6
CONTINUOUS
 10
284.166260
 20
39.912079
 11
284.562042
 21
39.912079
  0
LINE
  8
0
  6
CONTINUOUS
 10
285.478760
 20
39.912079
 11
287.967438
 21
39.910469
  0
LINE
  8
0
  6
CONTINUOUS
 10
272.728760
 20
39.350689
 11
272.728760
 21
39.224579
  0
LINE
  8
0
  6
CONTINUOUS
 10
269.195038
 20
32.891258
 11
271.968658
 21
32.891258
  0
LINE
  8
0
  6
CONTINUOUS
 10
285.478760
 20
37.463989
 11
287.532257
 21
37.463989
  0
LINE
  8
0
  6
CONTINUOUS
 10
285.478760
 20
36.630829
 11
287.185760
 21
36.630829
  0
LINE
  8
0
  6
CONTINUOUS
 10
271.332947
 20
37.537079
 11
273.499542
 21
37.537079
  0
LINE
  8
0
  6
CONTINUOUS
 10
312.666260
 20
63.723450
 11
312.666260
 21
40.059101
  0
LINE
  8
0
  6
CONTINUOUS
 10
244.666245
 20
40.059078
 11
244.666245
 21
63.723450
  0
ARC
  8
0
  6
CONTINUOUS
 10
278.666260
 20
51.891251
 40
36.000000
 50
19.188120
 51
160.811905
  0
ARC
  8
0
  6
CONTINUOUS
 10
278.666260
 20
51.891251
 40
36.000000
 50
199.188095
 51
340.811890
  0
CIRCLE
  8
0
  6
CONTINUOUS
 10
278.666260
 20
62.891251
 40
17.500000
  0
LINE
  8
0
  6
CONTINUOUS
 10
306.666260
 20
7.891270
 11
305.666260
 21
8.891270
  0
LINE
  8
0
  6
CONTINUOUS
 10
250.666245
 20
7.891270
 11
251.666245
 21
8.891270
  0
LINE
  8
0
  6
CENTER
 10
-3.706250
 20
232.896255
 11
176.543747
 21
232.896255
  0
LINE
  8
0
  6
CONTINUOUS
 10
140.293747
 20
89.891251
 11
140.293747
 21
7.891250
  0
LINE
  8
0
  6
CONTINUOUS
 10
67.293739
 20
255.896255
 11
140.293747
 21
255.896255
  0
LINE
  8
0
  6
CONTINUOUS
 10
67.293747
 20
209.896255
 11
140.293747
 21
209.896255
  0
LINE
  8
0
  6
CONTINUOUS
 10
26.293751
 20
270.896240
 11
140.293747
 21
270.896240
  0
LINE
  8
0
  6
CONTINUOUS
 10
26.293751
 20
194.896255
 11
140.293747
 21
194.896255
  0
LINE
  8
0
  6
CONTINUOUS
 10
167.793747
 20
225.396255
 11
167.793747
 21
238.896255
  0
LINE
  8
0
  6
CONTINUOUS
 10
145.793747
 20
238.896255
 11
167.793747
 21
238.896255
  0
LINE
  8
0
  6
CONTINUOUS
 10
145.793747
 20
226.896255
 11
147.793747
 21
226.896255
  0
LINE
  8
0
  6
CONTINUOUS
 10
145.793747
 20
240.396255
 11
145.793747
 21
225.396255
  0
LINE
  8
0
  6
CONTINUOUS
 10
142.793747
 20
250.396255
 11
140.293747
 21
250.396255
  0
LINE
  8
0
  6
CONTINUOUS
 10
142.793747
 20
215.396255
 11
140.293747
 21
215.396255
  0
LINE
  8
0
  6
CONTINUOUS
 10
143.793747
 20
216.396255
 11
143.793747
 21
249.396255
  0
ARC
  8
0
  6
CONTINUOUS
 10
142.793747
 20
249.396255
 40
1.000000
 50
0.000000
 51
90.000000
  0
ARC
  8
0
  6
CONTINUOUS
 10
142.793747
 20
216.396255
 40
1.000000
 50
-90.000000
 51
0.000000
  0
LINE
  8
0
  6
CONTINUOUS
 10
143.793747
 20
240.396255
 11
145.793747
 21
240.396255
  0
LINE
  8
0
  6
CONTINUOUS
 10
143.793747
 20
225.396255
 11
145.793747
 21
225.396255
  0
LINE
  8
0
  6
CONTINUOUS
 10
147.793747
 20
225.396255
 11
167.793747
 21
225.396255
  0
LINE
  8
0
  6
CONTINUOUS
 10
147.793747
 20
227.239243
 11
147.793747
 21
225.396255
  0
LINE
  8
0
  6
CONTINUOUS
 10
147.793747
 20
227.239243
 11
167.793747
 21
227.239243
  0
LINE
  8
0
  6
CONTINUOUS
 10
26.293751
 20
270.896240
 11
26.293751
 21
257.896240
  0
LINE
  8
0
  6
CONTINUOUS
 10
92.293747
 20
277.896240
 11
138.293747
 21
277.896240
  0
LINE
  8
0
  6
CONTINUOUS
 10
92.293747
 20
187.896255
 11
138.293747
 21
187.896255
  0
LINE
  8
0
  6
CONTINUOUS
 10
90.293747
 20
275.896240
 11
90.293747
 21
270.896240
  0
LINE
  8
0
  6
CONTINUOUS
 10
90.293747
 20
189.896255
 11
90.293747
 21
194.896255
  0
LINE
  8
0
  6
CENTER
 10
132.793747
 20
277.021240
 11
132.793747
 21
264.646240
  0
LINE
  8
0
  6
CENTER
 10
97.793747
 20
276.521240
 11
97.793747
 21
265.646240
  0
ARC
  8
0
  6
CONTINUOUS
 10
132.793747
 20
270.896240
 40
3.250000
 50
0.000000
 51
180.000000
  0
ARC
  8
0
  6
CONTINUOUS
 10
97.793747
 20
270.896240
 40
3.250000
 50
0.000000
 51
180.000000
  0
LINE
  8
0
  6
CENTER
 10
132.793747
 20
188.771255
 11
132.793747
 21
200.396255
  0
LINE
  8
0
  6
CENTER
 10
97.793747
 20
188.771255
 11
97.793747
 21
200.521255
  0
ARC
  8
0
  6
CONTINUOUS
 10
132.793747
 20
194.896255
 40
3.250000
 50
-180.000000
 51
0.000000
  0
ARC
  8
0
  6
CONTINUOUS
 10
97.793747
 20
194.896255
 40
3.250000
 50
-180.000000
 51
0.000000
  0
LINE
  8
0
  6
CONTINUOUS
 10
122.793747
 20
188.521255
 11
122.793747
 21
194.896255
  0
LINE
  8
0
  6
CONTINUOUS
 10
107.793747
 20
188.521255
 11
107.793747
 21
194.896255
  0
LINE
  8
0
  6
CONTINUOUS
 10
26.293751
 20
270.896240
 11
9.757860
 21
270.896240
  0
LINE
  8
0
  6
CONTINUOUS
 10
6.293750
 20
267.896240
 11
6.293750
 21
197.896255
  0
LINE
  8
0
  6
CONTINUOUS
 10
26.293751
 20
194.896255
 11
9.757860
 21
194.896255
  0
LINE
  8
0
  6
CONTINUOUS
 10
17.293751
 20
209.896255
 11
7.875380
 21
209.896255
  0
LINE
  8
0
  6
CONTINUOUS
 10
17.293751
 20
255.896255
 11
7.875380
 21
255.896255
  0
LINE
  8
0
  6
CONTINUOUS
 10
7.159770
 20
269.396240
 11
6.293750
 21
267.896240
  0
ARC
  8
0
  6
CONTINUOUS
 10
9.757860
 20
267.896240
 40
3.000000
 50
90.000000
 51
150.000397
  0
LINE
  8
0
  6
CONTINUOUS
 10
7.159770
 20
196.396255
 11
6.293750
 21
197.896255
  0
ARC
  8
0
  6
CONTINUOUS
 10
9.757860
 20
197.896255
 40
3.000000
 50
-150.000397
 51
-90.000000
  0
LINE
  8
0
  6
CONTINUOUS
 10
5.793750
 20
264.896240
 11
5.793750
 21
200.896255
  0
LINE
  8
0
  6
CONTINUOUS
 10
5.793750
 20
264.896240
 11
6.293750
 21
265.396240
  0
LINE
  8
0
  6
CONTINUOUS
 10
5.793750
 20
200.896255
 11
6.293750
 21
200.396255
  0
ARC
  8
0
  6
DASHED
 10
132.793747
 20
194.896255
 40
3.250000
 50
0.000000
 51
180.000000
  0
ARC
  8
0
  6
DASHED
 10
97.793747
 20
194.896255
 40
3.250000
 50
0.000000
 51
180.000000
  0
ARC
  8
0
  6
DASHED
 10
97.793747
 20
270.896240
 40
3.250000
 50
-180.000000
 51
0.000000
  0
ARC
  8
0
  6
DASHED
 10
132.793747
 20
270.896240
 40
3.250000
 50
-180.000000
 51
0.000000
  0
LINE
  8
0
  6
CENTER
 10
92.543747
 20
270.896240
 11
102.793747
 21
270.896240
  0
LINE
  8
0
  6
CENTER
 10
127.543747
 20
270.896240
 11
138.168747
 21
270.896240
  0
LINE
  8
0
  6
CENTER
 10
92.418747
 20
194.896255
 11
103.168747
 21
194.896255
  0
LINE
  8
0
  6
CENTER
 10
127.418747
 20
194.896255
 11
138.168747
 21
194.896255
  0
LINE
  8
0
  6
CONTINUOUS
 10
122.793747
 20
277.271240
 11
122.793747
 21
270.896240
  0
LINE
  8
0
  6
CONTINUOUS
 10
107.793747
 20
277.271240
 11
107.793747
 21
270.896240
  0
ARC
  8
0
  6
CONTINUOUS
 10
138.293747
 20
189.896255
 40
2.000000
 50
-90.000000
 51
0.000000
  0
ARC
  8
0
  6
CONTINUOUS
 10
92.293747
 20
189.896255
 40
2.000000
 50
180.000000
 51
270.000000
  0
ARC
  8
0
  6
CONTINUOUS
 10
138.293747
 20
275.896240
 40
2.000000
 50
0.000000
 51
90.000000
  0
ARC
  8
0
  6
CONTINUOUS
 10
92.293747
 20
275.896240
 40
2.000000
 50
90.000000
 51
180.000000
  0
LINE
  8
0
  6
CONTINUOUS
 10
26.293751
 20
207.896255
 11
26.293751
 21
194.896255
  0
LINE
  8
0
  6
CONTINUOUS
 10
18.793751
 20
91.391251
 11
65.293747
 21
91.391251
  0
LINE
  8
0
  6
CONTINUOUS
 10
67.293739
 20
121.391251
 11
67.293747
 21
93.391251
  0
LINE
  8
0
  6
CONTINUOUS
 10
17.293751
 20
121.391251
 11
17.293751
 21
93.391251
  0
LINE
  8
0
  6
CONTINUOUS
 10
15.293750
 20
103.391251
 11
67.293747
 21
103.391251
  0
LINE
  8
0
  6
CONTINUOUS
 10
65.293747
 20
91.391251
 11
67.293747
 21
93.391251
  0
LINE
  8
0
  6
CONTINUOUS
 10
17.293751
 20
93.391251
 11
19.293751
 21
91.391251
  0
LINE
  8
0
  6
CONTINUOUS
 10
17.293751
 20
93.391251
 11
67.293747
 21
93.391251
  0
LINE
  8
0
  6
CONTINUOUS
 10
18.293751
 20
122.391251
 11
66.293739
 21
122.391251
  0
LINE
  8
0
  6
CONTINUOUS
 10
66.293739
 20
122.391251
 11
67.293739
 21
121.391251
  0
LINE
  8
0
  6
CONTINUOUS
 10
18.293751
 20
122.391251
 11
17.293751
 21
121.391251
  0
LINE
  8
0
  6
CONTINUOUS
 10
17.293751
 20
121.391251
 11
67.293739
 21
121.391251
  0
LINE
  8
0
  6
CENTER
 10
9.349994
 20
112.891251
 11
21.424999
 21
112.891251
  0
LINE
  8
0
  6
CONTINUOUS
 10
15.293765
 20
119.391251
 11
15.293750
 21
103.391251
  0
LINE
  8
0
  6
CONTINUOUS
 10
16.293751
 20
120.391251
 11
17.293751
 21
120.391251
  0
ARC
  8
0
  6
CONTINUOUS
 10
16.293770
 20
119.391251
 40
1.000000
 50
90.000000
 51
180.000000
  0
LINE
  8
0
  6
CONTINUOUS
 10
11.793765
 20
116.891251
 11
11.793765
 21
108.891251
  0
LINE
  8
0
  6
CONTINUOUS
 10
11.793765
 20
116.891251
 11
15.293765
 21
118.391251
  0
LINE
  8
0
  6
CONTINUOUS
 10
11.793750
 20
108.891251
 11
15.293750
 21
107.391251
  0
LINE
  8
0
  6
CENTER
 10
42.293751
 20
86.697502
 11
42.293751
 21
127.778748
  0
LINE
  8
0
  6
CONTINUOUS
 10
18.793751
 20
91.391251
 11
18.793751
 21
89.891251
  0
LINE
  8
0
  6
CONTINUOUS
 10
64.793747
 20
91.391251
 11
64.793747
 21
89.891251
  0
LINE
  8
0
  6
CONTINUOUS
 10
255.666245
 20
91.391243
 11
301.666260
 21
91.391243
  0
LINE
  8
0
  6
CONTINUOUS
 10
303.666260
 20
121.391243
 11
303.666260
 21
93.391243
  0
LINE
  8
0
  6
CONTINUOUS
 10
253.666245
 20
121.391243
 11
253.666245
 21
93.391243
  0
LINE
  8
0
  6
CONTINUOUS
 10
253.666245
 20
103.391243
 11
303.666260
 21
103.391243
  0
LINE
  8
0
  6
CONTINUOUS
 10
301.666260
 20
91.391243
 11
303.666260
 21
93.391243
  0
LINE
  8
0
  6
CONTINUOUS
 10
253.666245
 20
93.391243
 11
255.666245
 21
91.391243
  0
LINE
  8
0
  6
CONTINUOUS
 10
253.666245
 20
93.391243
 11
303.666260
 21
93.391243
  0
LINE
  8
0
  6
CONTINUOUS
 10
254.666245
 20
122.391243
 11
302.666260
 21
122.391243
  0
LINE
  8
0
  6
CONTINUOUS
 10
302.666260
 20
122.391243
 11
303.666260
 21
121.391243
  0
LINE
  8
0
  6
CONTINUOUS
 10
254.666245
 20
122.391243
 11
253.666245
 21
121.391243
  0
LINE
  8
0
  6
CONTINUOUS
 10
253.666245
 20
121.391243
 11
303.666260
 21
121.391243
  0
LINE
  8
0
  6
CONTINUOUS
 10
301.166260
 20
91.391243
 11
301.166260
 21
88.847260
  0
LINE
  8
0
  6
CONTINUOUS
 10
256.166260
 20
91.391243
 11
256.166260
 21
88.847252
  0
LINE
  8
0
  6
CONTINUOUS
 10
16.293751
 20
240.396255
 11
17.293751
 21
240.396255
  0
ARC
  8
0
  6
CONTINUOUS
 10
16.293770
 20
239.396255
 40
1.000000
 50
90.000000
 51
180.000000
  0
LINE
  8
0
  6
CONTINUOUS
 10
11.793765
 20
236.896255
 11
11.793765
 21
228.896255
  0
LINE
  8
0
  6
CONTINUOUS
 10
11.793765
 20
236.896255
 11
15.293765
 21
238.396255
  0
LINE
  8
0
  6
CONTINUOUS
 10
11.793750
 20
228.896255
 11
15.293750
 21
227.396255
  0
LINE
  8
0
  6
CONTINUOUS
 10
15.293765
 20
239.396255
 11
15.293765
 21
226.396255
  0
LINE
  8
0
  6
CONTINUOUS
 10
16.293751
 20
225.396255
 11
17.293751
 21
225.396255
  0
ARC
  8
0
  6
CONTINUOUS
 10
16.293770
 20
226.396255
 40
1.000000
 50
-180.000000
 51
-90.000000
  0
LINE
  8
0
  6
CONTINUOUS
 10
17.293751
 20
209.896255
 11
17.293751
 21
255.896255
  0
LINE
  8
0
  6
CONTINUOUS
 10
19.293751
 20
257.896240
 11
17.293751
 21
255.896255
  0
LINE
  8
0
  6
CONTINUOUS
 10
19.293751
 20
257.896240
 11
65.293739
 21
257.896240
  0
LINE
  8
0
  6
CONTINUOUS
 10
59.793751
 20
253.396255
 11
59.793751
 21
257.896240
  0
ARC
  8
0
  6
CONTINUOUS
 10
62.793751
 20
253.396255
 40
3.000000
 50
180.000000
 51
270.000000
  0
LINE
  8
0
  6
CONTINUOUS
 10
62.793751
 20
250.396255
 11
67.293739
 21
250.396255
  0
CIRCLE
  8
0
  6
CONTINUOUS
 10
63.793751
 20
254.396255
 40
2.250000
  0
LINE
  8
0
  6
CONTINUOUS
 10
67.293747
 20
209.896255
 11
67.293739
 21
255.896255
  0
LINE
  8
0
  6
CONTINUOUS
 10
65.293739
 20
257.896240
 11
67.293739
 21
255.896255
  0
LINE
  8
0
  6
CONTINUOUS
 10
65.293747
 20
207.896255
 11
67.293747
 21
209.896255
  0
LINE
  8
0
  6
CONTINUOUS
 10
65.293747
 20
207.896255
 11
19.293751
 21
207.896255
  0
LINE
  8
0
  6
CONTINUOUS
 10
17.293751
 20
209.896255
 11
19.293751
 21
207.896255
  0
LINE
  8
0
  6
CONTINUOUS
 10
21.793751
 20
215.396255
 11
17.293760
 21
215.396255
  0
CIRCLE
  8
0
  6
CONTINUOUS
 10
20.793751
 20
211.396255
 40
2.250000
  0
ARC
  8
0
  6
CONTINUOUS
 10
21.793751
 20
212.396255
 40
3.000000
 50
0.000000
 51
90.000000
  0
LINE
  8
0
  6
CONTINUOUS
 10
24.793751
 20
212.396255
 11
24.793751
 21
207.896255
  0
LINE
  8
0
  6
CENTER
 10
42.293751
 20
200.430466
 11
42.293751
 21
264.562500
  0
LINE
  8
0
  6
CONTINUOUS
 10
19.707970
 20
256.896240
 11
18.293756
 21
255.482040
  0
LINE
  8
0
  6
CONTINUOUS
 10
18.293756
 20
215.396255
 11
18.293756
 21
255.482040
  0
LINE
  8
0
  6
CONTINUOUS
 10
59.793751
 20
256.896240
 11
19.707970
 21
256.896240
  0
LINE
  8
0
  6
CONTINUOUS
 10
66.293747
 20
250.396255
 11
66.293747
 21
210.310471
  0
LINE
  8
0
  6
CONTINUOUS
 10
24.793751
 20
208.896255
 11
64.879532
 21
208.896255
  0
LINE
  8
0
  6
CONTINUOUS
 10
64.879532
 20
208.896255
 11
66.293747
 21
210.310471
  0
TEXT
  8
0
 10
-5.000000
 20
2.000000
 40
4.000000
 41
1.000000
  1
GLM-12-5~60-T40T
 50
0.000000
  0
ENDSEC
  0
EOF
