  0
SECTION
  2
HEADER
  9
$CLAYER
  8
1
  9
$LTSCALE
 40
3.0
  0
ENDSEC
  0
SECTION
  2
TABLES
  0
TABLE
  2
LTYPE
 70
     4
  0
LTYPE
  2
CONTINUOUS
  3
solid line
 70
    64
 72
    65
 73
     0
 40
0.0
  0
LTYPE
  2
DASHED
  3
__ __ __ __ __ __ __ __ __ __ __ __ __ __ __
 70
    64
 72
    65
 73
     2
 40
0.75
 49
0.5
 49
-0.25
  0
LTYPE
  2
CENTER
  3
____ _ ____ _ ____ _ ____ _ ____ _ ____ _ ____
 70
    64
 72
    65
 73
     4
 40
2.0
 49
1.25
 49
-0.25
 49
0.25
 49
-0.25
  0
LTYPE
  2
PHANTOM
  3
_____ _ _ _____ _ _ _____ _ _ _____ _ _ ____
 70
    64
 72
    65
 73
     6
 40
2.5
 49
1.25
 49
-0.25
 49
0.25
 49
-0.25
 49
0.25
 49
-0.25
  0
ENDTAB
  0
TABLE
  2
LAYER
 70
     1
  0
LAYER
  2
0
 70
    64
 62
     7
  6
CONTINUOUS
  0
ENDTAB
  0
TABLE
  2
STYLE
 70
     1
  0
STYLE
  2
STANDARD
 70
     0
 40
0.000000
 41
1.000000
 50
0.000000
 71
     0
 42
3.000000
  3
txt
  4
BIGFONT
  0
ENDTAB
  0
ENDSEC
  0
SECTION
  2
BLOCKS
  0
ENDSEC
  0
SECTION
  2
ENTITIES
  0
LINE
  8
0
  6
CONTINUOUS
 10
54.637501
 20
89.605003
 11
64.137497
 21
89.605003
  0
LINE
  8
0
  6
CONTINUOUS
 10
54.637501
 20
13.605000
 11
64.137497
 21
13.605000
  0
LINE
  8
0
  6
CONTINUOUS
 10
54.637501
 20
11.605000
 11
54.637501
 21
91.605003
  0
LINE
  8
0
  6
CONTINUOUS
 10
54.637501
 20
81.853996
 11
64.137497
 21
81.853996
  0
LINE
  8
0
  6
CONTINUOUS
 10
54.637501
 20
21.356001
 11
64.137497
 21
21.356001
  0
LINE
  8
0
  6
CONTINUOUS
 10
10.637500
 20
91.605003
 11
54.637501
 21
91.605003
  0
LINE
  8
0
  6
CONTINUOUS
 10
10.637500
 20
11.605000
 11
54.637501
 21
11.605000
  0
LINE
  8
0
  6
CONTINUOUS
 10
5.637500
 20
16.605000
 11
5.637500
 21
86.605003
  0
ARC
  8
0
  6
CONTINUOUS
 10
10.637500
 20
86.605003
 40
5.000000
 50
90.000000
 51
180.000000
  0
ARC
  8
0
  6
CONTINUOUS
 10
10.637500
 20
16.605000
 40
5.000000
 50
180.000000
 51
270.000000
  0
LINE
  8
0
  6
CONTINUOUS
 10
8.137500
 20
77.605003
 11
54.637501
 21
77.605003
  0
LINE
  8
0
  6
CONTINUOUS
 10
8.137500
 20
27.605000
 11
54.637501
 21
27.605000
  0
LINE
  8
0
  6
CONTINUOUS
 10
64.137497
 20
13.605020
 11
64.137497
 21
89.605003
  0
LINE
  8
0
  6
CENTER
 10
-7.737656
 20
51.605000
 11
185.154999
 21
51.605000
  0
LINE
  8
0
  6
CONTINUOUS
 10
178.137497
 20
89.605003
 11
178.137497
 21
7.605000
  0
LINE
  8
0
  6
CONTINUOUS
 10
128.137497
 20
7.605000
 11
128.137497
 21
25.048941
  0
LINE
  8
0
  6
CENTER
 10
151.548004
 20
62.605000
 11
215.387497
 21
62.605000
  0
LINE
  8
0
  6
CONTINUOUS
 10
128.137497
 20
7.605000
 11
178.137497
 21
7.605000
  0
LINE
  8
0
  6
CENTER
 10
170.637497
 20
17.980000
 11
170.637497
 21
3.855000
  0
LINE
  8
0
  6
CENTER
 10
135.637497
 20
16.980000
 11
135.637497
 21
4.230000
  0
LINE
  8
0
  6
CONTINUOUS
 10
130.137497
 20
14.605000
 11
176.137497
 21
14.605000
  0
LINE
  8
0
  6
DASHED
 10
173.887497
 20
14.605000
 11
173.887497
 21
7.605000
  0
LINE
  8
0
  6
DASHED
 10
167.387497
 20
14.605000
 11
167.387497
 21
7.605000
  0
LINE
  8
0
  6
DASHED
 10
138.887497
 20
14.605000
 11
138.887497
 21
7.605000
  0
LINE
  8
0
  6
DASHED
 10
132.387497
 20
14.605000
 11
132.387497
 21
7.605000
  0
ARC
  8
0
  6
CONTINUOUS
 10
176.137497
 20
12.604980
 40
2.000000
 50
0.000000
 51
90.000000
  0
ARC
  8
0
  6
CONTINUOUS
 10
130.137497
 20
12.605010
 40
2.000000
 50
90.000000
 51
180.000000
  0
LINE
  8
0
  6
CONTINUOUS
 10
160.637497
 20
16.604980
 11
160.637497
 21
29.034290
  0
LINE
  8
0
  6
CONTINUOUS
 10
145.637497
 20
16.605000
 11
145.637497
 21
29.034290
  0
LINE
  8
0
  6
CONTINUOUS
 10
64.137497
 20
89.605003
 11
178.137497
 21
89.605003
  0
LINE
  8
0
  6
CONTINUOUS
 10
64.137497
 20
13.605020
 11
128.137497
 21
13.605020
  0
LINE
  8
0
  6
CONTINUOUS
 10
64.137497
 20
81.853996
 11
178.137497
 21
81.853996
  0
LINE
  8
0
  6
CONTINUOUS
 10
64.137497
 20
21.356030
 11
128.137497
 21
21.356030
  0
LINE
  8
0
  6
CONTINUOUS
 10
205.637497
 20
56.605000
 11
205.637497
 21
68.605003
  0
LINE
  8
0
  6
CONTINUOUS
 10
183.637497
 20
68.605003
 11
205.637497
 21
68.605003
  0
LINE
  8
0
  6
CONTINUOUS
 10
183.637497
 20
56.605000
 11
205.637497
 21
56.605000
  0
LINE
  8
0
  6
CONTINUOUS
 10
183.637497
 20
70.105003
 11
183.637497
 21
55.105000
  0
LINE
  8
0
  6
CONTINUOUS
 10
187.637497
 20
64.605003
 11
205.637497
 21
64.605003
  0
LINE
  8
0
  6
CONTINUOUS
 10
187.637497
 20
60.605000
 11
205.637497
 21
60.605000
  0
ARC
  8
0
  6
CONTINUOUS
 10
187.637497
 20
62.605000
 40
2.000000
 50
90.000000
 51
180.000000
  0
ARC
  8
0
  6
CONTINUOUS
 10
187.637497
 20
62.605000
 40
2.000000
 50
180.000000
 51
270.000000
  0
LINE
  8
0
  6
CONTINUOUS
 10
146.543793
 20
29.034290
 11
159.793793
 21
29.034290
  0
ARC
  8
0
  6
CONTINUOUS
 10
143.637497
 20
16.605000
 40
2.000000
 50
-90.000000
 51
0.000000
  0
ARC
  8
0
  6
CONTINUOUS
 10
162.637497
 20
16.605000
 40
2.000000
 50
180.000000
 51
270.000000
  0
ARC
  8
0
  6
CONTINUOUS
 10
130.137497
 20
25.048950
 40
2.000000
 50
90.000000
 51
180.000000
  0
LINE
  8
0
  6
CONTINUOUS
 10
130.387497
 20
27.048941
 11
145.012497
 21
27.048941
  0
LINE
  8
0
  6
CONTINUOUS
 10
177.762497
 20
27.048941
 11
160.887497
 21
27.048941
  0
ARC
  8
0
  6
CONTINUOUS
 10
162.637497
 20
29.034300
 40
2.000000
 50
90.000000
 51
180.000000
  0
ARC
  8
0
  6
CONTINUOUS
 10
143.637497
 20
29.034290
 40
2.000000
 50
0.000000
 51
90.000000
  0
LINE
  8
0
  6
CONTINUOUS
 10
180.637497
 20
80.105003
 11
178.137497
 21
80.105003
  0
LINE
  8
0
  6
CONTINUOUS
 10
180.637497
 20
45.105000
 11
178.137497
 21
45.105000
  0
LINE
  8
0
  6
CONTINUOUS
 10
181.637497
 20
46.105000
 11
181.637497
 21
79.105003
  0
ARC
  8
0
  6
CONTINUOUS
 10
180.637497
 20
79.105003
 40
1.000000
 50
0.000000
 51
90.000000
  0
ARC
  8
0
  6
CONTINUOUS
 10
180.637497
 20
46.105000
 40
1.000000
 50
-90.000000
 51
0.000000
  0
LINE
  8
0
  6
CONTINUOUS
 10
181.637497
 20
70.105003
 11
183.637497
 21
70.105003
  0
LINE
  8
0
  6
CONTINUOUS
 10
181.637497
 20
55.105000
 11
183.637497
 21
55.105000
  0
LINE
  8
0
  6
CENTER
 10
305.637512
 20
2.355020
 11
305.637512
 21
140.372421
  0
LINE
  8
0
  6
CENTER
 10
258.887512
 20
51.605000
 11
353.637512
 21
51.605000
  0
LINE
  8
0
  6
CENTER
 10
281.649994
 20
62.605000
 11
329.145935
 21
62.605000
  0
LINE
  8
0
  6
CONTINUOUS
 10
333.637512
 20
7.605020
 11
350.637512
 21
7.605020
  0
LINE
  8
0
  6
CONTINUOUS
 10
332.637512
 20
8.605020
 11
278.637512
 21
8.605020
  0
LINE
  8
0
  6
CENTER
 10
343.637512
 20
18.105021
 11
343.637512
 21
3.230020
  0
LINE
  8
0
  6
DASHED
 10
346.887512
 20
14.605020
 11
346.887512
 21
7.605020
  0
LINE
  8
0
  6
DASHED
 10
340.387512
 20
14.605020
 11
340.387512
 21
7.605020
  0
LINE
  8
0
  6
CONTINUOUS
 10
328.637512
 20
87.238098
 11
328.637512
 21
81.853996
  0
LINE
  8
0
  6
CONTINUOUS
 10
326.672394
 20
89.237900
 11
305.637512
 21
89.605003
  0
ARC
  8
0
  6
CONTINUOUS
 10
326.637512
 20
87.238098
 40
2.000000
 50
0.000000
 51
89.000137
  0
LINE
  8
0
  6
CONTINUOUS
 10
277.637512
 20
7.605020
 11
260.637512
 21
7.605020
  0
LINE
  8
0
  6
CONTINUOUS
 10
260.637512
 20
12.605020
 11
260.637512
 21
7.605020
  0
LINE
  8
0
  6
CENTER
 10
267.637512
 20
18.105021
 11
267.637512
 21
3.230020
  0
LINE
  8
0
  6
DASHED
 10
264.387512
 20
14.605020
 11
264.387512
 21
7.605020
  0
LINE
  8
0
  6
DASHED
 10
270.887512
 20
14.605020
 11
270.887512
 21
7.605020
  0
LINE
  8
0
  6
CONTINUOUS
 10
282.637512
 20
87.238098
 11
282.637512
 21
81.853996
  0
LINE
  8
0
  6
CONTINUOUS
 10
284.602600
 20
89.237900
 11
305.637512
 21
89.605003
  0
ARC
  8
0
  6
CONTINUOUS
 10
284.637512
 20
87.238098
 40
2.000000
 50
90.999863
 51
180.000000
  0
ARC
  8
0
  6
CONTINUOUS
 10
305.637512
 20
51.605000
 40
38.000000
 50
-40.256561
 51
52.752159
  0
ARC
  8
0
  6
CONTINUOUS
 10
305.637512
 20
51.605000
 40
38.000000
 50
127.247803
 51
220.256607
  0
LINE
  8
0
  6
CONTINUOUS
 10
298.137512
 20
60.605000
 11
298.137512
 21
64.605003
  0
LINE
  8
0
  6
CONTINUOUS
 10
302.137512
 20
64.605003
 11
298.137512
 21
64.605003
  0
LINE
  8
0
  6
CONTINUOUS
 10
298.137512
 20
60.605000
 11
302.137512
 21
60.605000
  0
LINE
  8
0
  6
CONTINUOUS
 10
302.137512
 20
64.605003
 11
302.137512
 21
60.605000
  0
ARC
  8
0
  6
CONTINUOUS
 10
305.637512
 20
62.605000
 40
6.000000
 50
-160.528793
 51
160.528793
  0
LINE
  8
0
  6
CONTINUOUS
 10
334.637512
 20
17.604980
 11
334.637512
 21
27.048950
  0
LINE
  8
0
  6
CONTINUOUS
 10
276.637512
 20
17.605021
 11
276.637512
 21
27.048950
  0
ARC
  8
0
  6
CONTINUOUS
 10
348.637512
 20
12.605020
 40
2.000000
 50
0.000000
 51
90.000000
  0
ARC
  8
0
  6
CONTINUOUS
 10
262.637512
 20
12.605030
 40
2.000000
 50
90.000000
 51
180.000000
  0
ARC
  8
0
  6
CONTINUOUS
 10
273.637512
 20
17.605021
 40
3.000000
 50
-90.000000
 51
0.000000
  0
ARC
  8
0
  6
CONTINUOUS
 10
337.637512
 20
17.605021
 40
3.000000
 50
180.000000
 51
270.000000
  0
LINE
  8
0
  6
CONTINUOUS
 10
261.223297
 20
14.019230
 11
275.571014
 21
28.366940
  0
LINE
  8
0
  6
CONTINUOUS
 10
350.051697
 20
14.019230
 11
335.704010
 21
28.366970
  0
LINE
  8
0
  6
CONTINUOUS
 10
262.637512
 20
14.605020
 11
273.637512
 21
14.605020
  0
LINE
  8
0
  6
CONTINUOUS
 10
348.637390
 20
14.605020
 11
337.637512
 21
14.605020
  0
LINE
  8
0
  6
CONTINUOUS
 10
350.637512
 20
7.605020
 11
350.637512
 21
12.605020
  0
LINE
  8
0
  6
CONTINUOUS
 10
339.637512
 20
63.437199
 11
339.637512
 21
39.772850
  0
LINE
  8
0
  6
CONTINUOUS
 10
271.637512
 20
39.772831
 11
271.637512
 21
63.437199
  0
ARC
  8
0
  6
CONTINUOUS
 10
305.637512
 20
51.605000
 40
36.000000
 50
19.188120
 51
160.811905
  0
ARC
  8
0
  6
CONTINUOUS
 10
305.637512
 20
51.605000
 40
36.000000
 50
199.188095
 51
340.811890
  0
LINE
  8
0
  6
CONTINUOUS
 10
332.637512
 20
8.605020
 11
333.637512
 21
7.605020
  0
LINE
  8
0
  6
CONTINUOUS
 10
277.637512
 20
7.605020
 11
278.637512
 21
8.605020
  0
CIRCLE
  8
0
  6
CONTINUOUS
 10
305.637512
 20
62.605000
 40
17.500000
  0
LINE
  8
0
  6
CONTINUOUS
 10
300.387512
 20
37.178249
 11
300.387512
 21
32.605000
  0
LINE
  8
0
  6
CONTINUOUS
 10
303.012512
 20
38.839378
 11
303.012512
 21
40.480000
  0
LINE
  8
0
  6
CONTINUOUS
 10
308.262512
 20
38.839378
 11
308.262512
 21
40.480000
  0
LINE
  8
0
  6
CONTINUOUS
 10
305.124786
 20
39.516140
 11
305.124786
 21
33.466331
  0
LINE
  8
0
  6
CONTINUOUS
 10
306.109192
 20
39.516140
 11
306.109192
 21
33.466331
  0
LINE
  8
0
  6
CONTINUOUS
 10
311.277100
 20
39.516140
 11
311.277100
 21
33.425320
  0
LINE
  8
0
  6
CONTINUOUS
 10
312.179504
 20
36.286160
 11
312.179504
 21
33.425320
  0
LINE
  8
0
  6
CONTINUOUS
 10
299.141907
 20
39.434109
 11
296.612091
 21
39.434109
  0
LINE
  8
0
  6
CONTINUOUS
 10
296.612091
 20
39.434109
 11
296.019287
 21
38.699108
  0
LINE
  8
0
  6
CONTINUOUS
 10
296.090607
 20
40.480000
 11
295.137512
 21
39.259541
  0
LINE
  8
0
  6
CONTINUOUS
 10
296.019287
 20
34.162231
 11
296.621613
 21
33.527859
  0
LINE
  8
0
  6
CONTINUOUS
 10
295.137512
 20
33.626881
 11
296.150299
 21
32.605000
  0
LINE
  8
0
  6
CONTINUOUS
 10
295.137512
 20
39.259541
 11
295.137512
 21
33.626881
  0
LINE
  8
0
  6
CONTINUOUS
 10
296.019287
 20
38.699108
 11
296.019287
 21
34.162231
  0
LINE
  8
0
  6
CONTINUOUS
 10
299.628693
 20
38.963509
 11
299.131989
 21
39.434109
  0
LINE
  8
0
  6
CONTINUOUS
 10
299.620789
 20
40.480000
 11
300.387512
 21
39.629181
  0
LINE
  8
0
  6
CONTINUOUS
 10
299.628693
 20
38.839378
 11
300.387512
 21
38.839378
  0
LINE
  8
0
  6
CONTINUOUS
 10
296.090607
 20
40.480000
 11
299.620789
 21
40.480000
  0
LINE
  8
0
  6
CONTINUOUS
 10
299.628693
 20
36.316921
 11
298.254700
 21
36.316921
  0
LINE
  8
0
  6
CONTINUOUS
 10
299.628693
 20
35.496609
 11
299.628693
 21
36.152859
  0
LINE
  8
0
  6
CONTINUOUS
 10
297.988098
 20
33.527859
 11
296.621613
 21
33.527859
  0
ARC
  8
0
  6
CONTINUOUS
 10
297.988098
 20
35.168491
 40
1.640625
 50
-89.999786
 51
0.000109
  0
LINE
  8
0
  6
CONTINUOUS
 10
299.628693
 20
33.232761
 11
299.628693
 21
32.605000
  0
LINE
  8
0
  6
CONTINUOUS
 10
300.387512
 20
39.629181
 11
300.387512
 21
38.839378
  0
LINE
  8
0
  6
CONTINUOUS
 10
299.628693
 20
36.316921
 11
299.628693
 21
35.168491
  0
LINE
  8
0
  6
CONTINUOUS
 10
298.254700
 20
37.178249
 11
298.254700
 21
36.316921
  0
LINE
  8
0
  6
CONTINUOUS
 10
299.628693
 20
32.605000
 11
300.387512
 21
32.605000
  0
LINE
  8
0
  6
CONTINUOUS
 10
299.628693
 20
33.232761
 11
298.880493
 21
32.605000
  0
LINE
  8
0
  6
CONTINUOUS
 10
306.109192
 20
33.466331
 11
306.437286
 21
33.466331
  0
LINE
  8
0
  6
CONTINUOUS
 10
304.735199
 20
33.466331
 11
304.735199
 21
32.605000
  0
LINE
  8
0
  6
CONTINUOUS
 10
306.437286
 20
33.466331
 11
306.437286
 21
32.605000
  0
LINE
  8
0
  6
CONTINUOUS
 10
307.714905
 20
38.839378
 11
308.262512
 21
38.839378
  0
LINE
  8
0
  6
CONTINUOUS
 10
303.012512
 20
38.839378
 11
303.595306
 21
38.839378
  0
LINE
  8
0
  6
CONTINUOUS
 10
303.012512
 20
40.480000
 11
308.262512
 21
40.480000
  0
LINE
  8
0
  6
CONTINUOUS
 10
304.735199
 20
32.605000
 11
306.437286
 21
32.605000
  0
LINE
  8
0
  6
CONTINUOUS
 10
304.735199
 20
33.466331
 11
305.124786
 21
33.466331
  0
ARC
  8
0
  6
CONTINUOUS
 10
314.035400
 20
38.377949
 40
2.102051
 50
-73.981873
 51
90.003510
  0
ARC
  8
0
  6
CONTINUOUS
 10
314.035400
 20
38.377949
 40
1.282395
 50
-82.585274
 51
62.411850
  0
LINE
  8
0
  6
CONTINUOUS
 10
310.887512
 20
40.480000
 11
314.035400
 21
40.480000
  0
LINE
  8
0
  6
CONTINUOUS
 10
310.887512
 20
40.480000
 11
310.887512
 21
39.516140
  0
LINE
  8
0
  6
CONTINUOUS
 10
312.179504
 20
39.516140
 11
312.179504
 21
37.106281
  0
LINE
  8
0
  6
CONTINUOUS
 10
314.615509
 20
36.357521
 11
315.916504
 21
33.425320
  0
LINE
  8
0
  6
CONTINUOUS
 10
313.859802
 20
36.286160
 11
315.091095
 21
33.425320
  0
LINE
  8
0
  6
CONTINUOUS
 10
310.887512
 20
33.425320
 11
311.277100
 21
33.425320
  0
LINE
  8
0
  6
CONTINUOUS
 10
312.179504
 20
33.425320
 11
312.538391
 21
33.425320
  0
LINE
  8
0
  6
CONTINUOUS
 10
312.538391
 20
32.605000
 11
310.887512
 21
32.605000
  0
LINE
  8
0
  6
CONTINUOUS
 10
314.927490
 20
33.425320
 11
315.091095
 21
33.425320
  0
LINE
  8
0
  6
CONTINUOUS
 10
315.916504
 20
33.425320
 11
316.137512
 21
33.425320
  0
LINE
  8
0
  6
CONTINUOUS
 10
314.927490
 20
32.605000
 11
316.137512
 21
32.605000
  0
LINE
  8
0
  6
CONTINUOUS
 10
316.137512
 20
33.425320
 11
316.137512
 21
32.605000
  0
LINE
  8
0
  6
CONTINUOUS
 10
314.927490
 20
33.425320
 11
314.927490
 21
32.605000
  0
LINE
  8
0
  6
CONTINUOUS
 10
312.538391
 20
33.425320
 11
312.538391
 21
32.605000
  0
LINE
  8
0
  6
CONTINUOUS
 10
310.887512
 20
33.425320
 11
310.887512
 21
32.605000
  0
LINE
  8
0
  6
CONTINUOUS
 10
303.877197
 20
39.516140
 11
303.595306
 21
38.839378
  0
LINE
  8
0
  6
CONTINUOUS
 10
307.477112
 20
39.516140
 11
307.714905
 21
38.839378
  0
LINE
  8
0
  6
CONTINUOUS
 10
306.109192
 20
39.516140
 11
307.477112
 21
39.516140
  0
LINE
  8
0
  6
CONTINUOUS
 10
305.124786
 20
39.516140
 11
303.877197
 21
39.516140
  0
LINE
  8
0
  6
CONTINUOUS
 10
310.887512
 20
39.516140
 11
311.277100
 21
39.516140
  0
LINE
  8
0
  6
CONTINUOUS
 10
312.179504
 20
39.516140
 11
314.629395
 21
39.514542
  0
LINE
  8
0
  6
CONTINUOUS
 10
299.628693
 20
38.963509
 11
299.628693
 21
38.839378
  0
LINE
  8
0
  6
CONTINUOUS
 10
296.150299
 20
32.605000
 11
298.880493
 21
32.605000
  0
LINE
  8
0
  6
CONTINUOUS
 10
312.179504
 20
37.106281
 11
314.200897
 21
37.106281
  0
LINE
  8
0
  6
CONTINUOUS
 10
312.179504
 20
36.286160
 11
313.859802
 21
36.286160
  0
LINE
  8
0
  6
CONTINUOUS
 10
298.254700
 20
37.178249
 11
300.387512
 21
37.178249
  0
LINE
  8
0
  6
CONTINUOUS
 10
345.637512
 20
28.605009
 11
345.637512
 21
73.533897
  0
LINE
  8
0
  6
CONTINUOUS
 10
265.637512
 20
74.605003
 11
265.637512
 21
29.676121
  0
LINE
  8
0
  6
CONTINUOUS
 10
279.637512
 20
88.605003
 11
279.637512
 21
85.001999
  0
LINE
  8
0
  6
CONTINUOUS
 10
342.637512
 20
25.605009
 11
339.034393
 21
25.605009
  0
LINE
  8
0
  6
CONTINUOUS
 10
268.637512
 20
77.605003
 11
272.240601
 21
77.605003
  0
LINE
  8
0
  6
CONTINUOUS
 10
344.173004
 20
77.069504
 11
331.101929
 21
90.140465
  0
LINE
  8
0
  6
CONTINUOUS
 10
267.101959
 20
26.140587
 11
270.223297
 21
23.019230
  0
ARC
  8
0
  6
CONTINUOUS
 10
327.566498
 20
86.605003
 40
5.000000
 50
45.000179
 51
74.008041
  0
ARC
  8
0
  6
CONTINUOUS
 10
340.637512
 20
73.533897
 40
5.000000
 50
0.000000
 51
45.000179
  0
ARC
  8
0
  6
CONTINUOUS
 10
270.637512
 20
29.676121
 40
5.000000
 50
180.000000
 51
225.000397
  0
ARC
  8
0
  6
CONTINUOUS
 10
268.637512
 20
74.605003
 40
3.000000
 50
90.000000
 51
180.000000
  0
ARC
  8
0
  6
CONTINUOUS
 10
282.637512
 20
88.605003
 40
3.000000
 50
98.895966
 51
180.000000
  0
ARC
  8
0
  6
CONTINUOUS
 10
342.637512
 20
28.605000
 40
3.000000
 50
-90.000000
 51
0.000000
  0
LINE
  8
0
  6
CONTINUOUS
 10
279.637512
 20
85.001999
 11
272.240601
 21
77.605003
  0
LINE
  8
0
  6
CONTINUOUS
 10
339.034393
 20
25.605009
 11
338.750214
 21
25.320761
  0
LINE
  8
0
  6
CONTINUOUS
 10
178.137497
 20
261.644989
 11
178.137497
 21
175.645004
  0
LINE
  8
0
  6
CENTER
 10
-8.668750
 20
218.645004
 11
214.387497
 21
218.645004
  0
LINE
  8
0
  6
CONTINUOUS
 10
105.137489
 20
241.645004
 11
178.137497
 21
241.645004
  0
LINE
  8
0
  6
CONTINUOUS
 10
105.137497
 20
195.645004
 11
178.137497
 21
195.645004
  0
LINE
  8
0
  6
CONTINUOUS
 10
64.137497
 20
256.644989
 11
178.137497
 21
256.644989
  0
LINE
  8
0
  6
CONTINUOUS
 10
64.137497
 20
180.645004
 11
178.137497
 21
180.645004
  0
LINE
  8
0
  6
CONTINUOUS
 10
205.637497
 20
211.145004
 11
205.637497
 21
224.645004
  0
LINE
  8
0
  6
CONTINUOUS
 10
183.637497
 20
224.645004
 11
205.637497
 21
224.645004
  0
LINE
  8
0
  6
CONTINUOUS
 10
183.637497
 20
212.645004
 11
185.637497
 21
212.645004
  0
LINE
  8
0
  6
CONTINUOUS
 10
183.637497
 20
226.145004
 11
183.637497
 21
211.145004
  0
LINE
  8
0
  6
CONTINUOUS
 10
180.637497
 20
236.145004
 11
178.137497
 21
236.145004
  0
LINE
  8
0
  6
CONTINUOUS
 10
180.637497
 20
201.145004
 11
178.137497
 21
201.145004
  0
LINE
  8
0
  6
CONTINUOUS
 10
181.637497
 20
202.145004
 11
181.637497
 21
235.145004
  0
ARC
  8
0
  6
CONTINUOUS
 10
180.637497
 20
235.145004
 40
1.000000
 50
0.000000
 51
90.000000
  0
ARC
  8
0
  6
CONTINUOUS
 10
180.637497
 20
202.145004
 40
1.000000
 50
-90.000000
 51
0.000000
  0
LINE
  8
0
  6
CONTINUOUS
 10
181.637497
 20
226.145004
 11
183.637497
 21
226.145004
  0
LINE
  8
0
  6
CONTINUOUS
 10
181.637497
 20
211.145004
 11
183.637497
 21
211.145004
  0
LINE
  8
0
  6
CONTINUOUS
 10
185.637497
 20
211.145004
 11
205.637497
 21
211.145004
  0
LINE
  8
0
  6
CONTINUOUS
 10
185.637497
 20
212.988007
 11
185.637497
 21
211.145004
  0
LINE
  8
0
  6
CONTINUOUS
 10
185.637497
 20
212.988007
 11
205.637497
 21
212.988007
  0
LINE
  8
0
  6
CONTINUOUS
 10
64.137497
 20
256.644989
 11
64.137497
 21
243.645004
  0
LINE
  8
0
  6
CONTINUOUS
 10
130.137497
 20
263.644989
 11
176.137497
 21
263.644989
  0
LINE
  8
0
  6
CONTINUOUS
 10
130.137497
 20
173.645004
 11
176.137497
 21
173.645004
  0
LINE
  8
0
  6
CONTINUOUS
 10
128.137497
 20
261.644989
 11
128.137497
 21
256.644989
  0
LINE
  8
0
  6
CONTINUOUS
 10
128.137497
 20
175.645004
 11
128.137497
 21
180.645004
  0
LINE
  8
0
  6
CENTER
 10
170.637497
 20
262.769989
 11
170.637497
 21
250.395004
  0
LINE
  8
0
  6
CENTER
 10
135.637497
 20
262.269989
 11
135.637497
 21
251.395004
  0
ARC
  8
0
  6
CONTINUOUS
 10
170.637497
 20
256.644989
 40
3.250000
 50
0.000000
 51
180.000000
  0
ARC
  8
0
  6
CONTINUOUS
 10
135.637497
 20
256.644989
 40
3.250000
 50
0.000000
 51
180.000000
  0
LINE
  8
0
  6
CENTER
 10
170.637497
 20
174.520004
 11
170.637497
 21
186.145004
  0
LINE
  8
0
  6
CENTER
 10
135.637497
 20
174.520004
 11
135.637497
 21
186.270004
  0
ARC
  8
0
  6
CONTINUOUS
 10
170.637497
 20
180.645004
 40
3.250000
 50
-180.000000
 51
0.000000
  0
ARC
  8
0
  6
CONTINUOUS
 10
135.637497
 20
180.645004
 40
3.250000
 50
-180.000000
 51
0.000000
  0
LINE
  8
0
  6
CONTINUOUS
 10
160.637497
 20
174.270004
 11
160.637497
 21
180.645004
  0
LINE
  8
0
  6
CONTINUOUS
 10
145.637497
 20
174.270004
 11
145.637497
 21
180.645004
  0
LINE
  8
0
  6
CONTINUOUS
 10
64.137497
 20
256.644989
 11
54.637501
 21
256.644989
  0
LINE
  8
0
  6
CONTINUOUS
 10
64.137497
 20
180.645004
 11
54.637501
 21
180.645004
  0
LINE
  8
0
  6
CONTINUOUS
 10
55.137501
 20
195.645004
 11
54.637501
 21
195.645004
  0
LINE
  8
0
  6
CONTINUOUS
 10
55.137501
 20
241.645004
 11
54.637501
 21
241.645004
  0
ARC
  8
0
  6
DASHED
 10
170.637497
 20
180.645004
 40
3.250000
 50
0.000000
 51
180.000000
  0
ARC
  8
0
  6
DASHED
 10
135.637497
 20
180.645004
 40
3.250000
 50
0.000000
 51
180.000000
  0
ARC
  8
0
  6
DASHED
 10
135.637497
 20
256.644989
 40
3.250000
 50
-180.000000
 51
0.000000
  0
ARC
  8
0
  6
DASHED
 10
170.637497
 20
256.644989
 40
3.250000
 50
-180.000000
 51
0.000000
  0
LINE
  8
0
  6
CENTER
 10
130.387497
 20
256.644989
 11
140.637497
 21
256.644989
  0
LINE
  8
0
  6
CENTER
 10
165.387497
 20
256.644989
 11
176.012497
 21
256.644989
  0
LINE
  8
0
  6
CENTER
 10
130.262497
 20
180.645004
 11
141.012497
 21
180.645004
  0
LINE
  8
0
  6
CENTER
 10
165.262497
 20
180.645004
 11
176.012497
 21
180.645004
  0
LINE
  8
0
  6
CONTINUOUS
 10
160.637497
 20
263.019989
 11
160.637497
 21
256.644989
  0
LINE
  8
0
  6
CONTINUOUS
 10
145.637497
 20
263.019989
 11
145.637497
 21
256.644989
  0
ARC
  8
0
  6
CONTINUOUS
 10
176.137497
 20
175.645004
 40
2.000000
 50
-90.000000
 51
0.000000
  0
ARC
  8
0
  6
CONTINUOUS
 10
130.137497
 20
175.645004
 40
2.000000
 50
180.000000
 51
270.000000
  0
ARC
  8
0
  6
CONTINUOUS
 10
176.137497
 20
261.644989
 40
2.000000
 50
0.000000
 51
90.000000
  0
ARC
  8
0
  6
CONTINUOUS
 10
130.137497
 20
261.644989
 40
2.000000
 50
90.000000
 51
180.000000
  0
LINE
  8
0
  6
CONTINUOUS
 10
64.137497
 20
193.645004
 11
64.137497
 21
180.645004
  0
LINE
  8
0
  6
CONTINUOUS
 10
54.637501
 20
178.645004
 11
54.637501
 21
218.645004
  0
LINE
  8
0
  6
CONTINUOUS
 10
10.637500
 20
258.644989
 11
54.637501
 21
258.644989
  0
LINE
  8
0
  6
CONTINUOUS
 10
10.637500
 20
178.645004
 11
54.637501
 21
178.645004
  0
LINE
  8
0
  6
CONTINUOUS
 10
5.637500
 20
183.645004
 11
5.637500
 21
253.645004
  0
ARC
  8
0
  6
CONTINUOUS
 10
10.637500
 20
253.645004
 40
5.000000
 50
90.000000
 51
180.000000
  0
ARC
  8
0
  6
CONTINUOUS
 10
10.637500
 20
183.645004
 40
5.000000
 50
180.000000
 51
270.000000
  0
LINE
  8
0
  6
CONTINUOUS
 10
8.137500
 20
242.645004
 11
54.637501
 21
242.645004
  0
LINE
  8
0
  6
CONTINUOUS
 10
8.137500
 20
192.645004
 11
54.637501
 21
192.645004
  0
LINE
  8
0
  6
CONTINUOUS
 10
105.137497
 20
195.645004
 11
105.137489
 21
241.645004
  0
LINE
  8
0
  6
CONTINUOUS
 10
55.137501
 20
195.645004
 11
55.137501
 21
241.645004
  0
LINE
  8
0
  6
CENTER
 10
80.137497
 20
186.179214
 11
80.137497
 21
250.311249
  0
LINE
  8
0
  6
CONTINUOUS
 10
57.137501
 20
243.645004
 11
103.137489
 21
243.645004
  0
LINE
  8
0
  6
CONTINUOUS
 10
103.137497
 20
193.645004
 11
57.137501
 21
193.645004
  0
LINE
  8
0
  6
CONTINUOUS
 10
54.637501
 20
218.645004
 11
54.637501
 21
258.644989
  0
LINE
  8
0
  6
CONTINUOUS
 10
103.137489
 20
243.645004
 11
105.137489
 21
241.645004
  0
LINE
  8
0
  6
CONTINUOUS
 10
57.137501
 20
243.645004
 11
55.137501
 21
241.645004
  0
LINE
  8
0
  6
CONTINUOUS
 10
55.137501
 20
195.645004
 11
57.137501
 21
193.645004
  0
LINE
  8
0
  6
CONTINUOUS
 10
103.137497
 20
193.645004
 11
105.137497
 21
195.645004
  0
CIRCLE
  8
0
  6
CONTINUOUS
 10
101.637497
 20
240.145004
 40
2.250000
  0
LINE
  8
0
  6
CONTINUOUS
 10
100.637497
 20
236.145004
 11
105.137489
 21
236.145004
  0
LINE
  8
0
  6
CONTINUOUS
 10
97.637497
 20
239.145004
 11
97.637497
 21
243.645004
  0
ARC
  8
0
  6
CONTINUOUS
 10
100.637497
 20
239.145004
 40
3.000000
 50
180.000000
 51
270.000000
  0
CIRCLE
  8
0
  6
CONTINUOUS
 10
58.637501
 20
197.145004
 40
2.250000
  0
LINE
  8
0
  6
CONTINUOUS
 10
59.637501
 20
201.145004
 11
55.137508
 21
201.145004
  0
LINE
  8
0
  6
CONTINUOUS
 10
62.637501
 20
198.145004
 11
62.637501
 21
193.645004
  0
ARC
  8
0
  6
CONTINUOUS
 10
59.637501
 20
198.145004
 40
3.000000
 50
0.000000
 51
90.000000
  0
LINE
  8
0
  6
CONTINUOUS
 10
62.637501
 20
194.645004
 11
97.637497
 21
194.645004
  0
LINE
  8
0
  6
CONTINUOUS
 10
104.137497
 20
236.145004
 11
104.137497
 21
201.145004
  0
LINE
  8
0
  6
CONTINUOUS
 10
97.637497
 20
242.645004
 11
62.637501
 21
242.645004
  0
LINE
  8
0
  6
CONTINUOUS
 10
56.137505
 20
201.145004
 11
56.137505
 21
236.145004
  0
CIRCLE
  8
0
  6
CONTINUOUS
 10
58.637501
 20
240.145004
 40
2.250000
  0
LINE
  8
0
  6
CONTINUOUS
 10
62.637501
 20
239.145004
 11
62.637501
 21
243.644989
  0
LINE
  8
0
  6
CONTINUOUS
 10
59.637501
 20
236.145004
 11
55.137501
 21
236.145004
  0
ARC
  8
0
  6
CONTINUOUS
 10
59.637501
 20
239.145004
 40
3.000000
 50
-90.000000
 51
0.000000
  0
ARC
  8
0
  6
CONTINUOUS
 10
100.637497
 20
198.145004
 40
3.000000
 50
90.000000
 51
180.000000
  0
LINE
  8
0
  6
CONTINUOUS
 10
97.637497
 20
198.145004
 11
97.637497
 21
193.645004
  0
LINE
  8
0
  6
CONTINUOUS
 10
100.637497
 20
201.145004
 11
105.137497
 21
201.145004
  0
CIRCLE
  8
0
  6
CONTINUOUS
 10
101.637497
 20
197.145004
 40
2.250000
  0
LINE
  8
0
  6
CONTINUOUS
 10
56.637501
 20
91.105003
 11
103.137497
 21
91.105003
  0
LINE
  8
0
  6
CONTINUOUS
 10
105.137482
 20
135.104996
 11
105.137497
 21
93.105003
  0
LINE
  8
0
  6
CONTINUOUS
 10
55.137501
 20
135.104996
 11
55.137501
 21
93.105003
  0
LINE
  8
0
  6
CONTINUOUS
 10
55.137501
 20
103.105003
 11
105.137497
 21
103.105003
  0
LINE
  8
0
  6
CONTINUOUS
 10
103.137497
 20
91.105003
 11
105.137497
 21
93.105003
  0
LINE
  8
0
  6
CONTINUOUS
 10
55.137501
 20
93.105003
 11
57.137501
 21
91.105003
  0
LINE
  8
0
  6
CONTINUOUS
 10
55.137501
 20
93.105003
 11
105.137497
 21
93.105003
  0
LINE
  8
0
  6
CONTINUOUS
 10
55.137501
 20
104.105003
 11
105.137482
 21
104.105003
  0
LINE
  8
0
  6
CONTINUOUS
 10
56.137501
 20
136.104996
 11
104.137482
 21
136.104996
  0
LINE
  8
0
  6
CONTINUOUS
 10
104.137482
 20
136.104996
 11
105.137482
 21
135.104996
  0
LINE
  8
0
  6
CONTINUOUS
 10
56.137501
 20
136.104996
 11
55.137501
 21
135.104996
  0
LINE
  8
0
  6
CONTINUOUS
 10
55.137501
 20
135.104996
 11
105.137482
 21
135.104996
  0
LINE
  8
0
  6
CENTER
 10
80.137497
 20
84.715492
 11
80.137497
 21
142.407501
  0
LINE
  8
0
  6
CENTER
 10
52.762501
 20
119.105003
 11
57.387501
 21
119.105003
  0
LINE
  8
0
  6
CONTINUOUS
 10
56.637501
 20
91.105003
 11
56.637501
 21
89.605003
  0
LINE
  8
0
  6
CONTINUOUS
 10
102.637497
 20
91.105003
 11
102.637497
 21
89.605003
  0
LINE
  8
0
  6
CONTINUOUS
 10
54.262501
 20
129.604996
 11
56.262501
 21
129.604996
  0
LINE
  8
0
  6
CONTINUOUS
 10
54.262501
 20
108.605003
 11
56.262501
 21
108.605003
  0
LINE
  8
0
  6
CONTINUOUS
 10
282.637512
 20
91.104988
 11
328.637512
 21
91.104988
  0
LINE
  8
0
  6
CONTINUOUS
 10
330.637512
 20
135.104996
 11
330.637512
 21
93.104988
  0
LINE
  8
0
  6
CONTINUOUS
 10
280.637512
 20
135.104996
 11
280.637512
 21
93.104988
  0
LINE
  8
0
  6
CONTINUOUS
 10
280.637512
 20
103.104988
 11
330.637512
 21
103.104988
  0
LINE
  8
0
  6
CONTINUOUS
 10
328.637512
 20
91.104988
 11
330.637512
 21
93.104988
  0
LINE
  8
0
  6
CONTINUOUS
 10
280.637512
 20
93.104988
 11
282.637512
 21
91.104988
  0
LINE
  8
0
  6
CONTINUOUS
 10
280.637512
 20
93.104988
 11
330.637512
 21
93.104988
  0
LINE
  8
0
  6
CONTINUOUS
 10
280.637512
 20
104.104988
 11
330.637512
 21
104.104988
  0
LINE
  8
0
  6
CONTINUOUS
 10
281.637512
 20
136.104996
 11
329.637512
 21
136.104996
  0
LINE
  8
0
  6
CONTINUOUS
 10
329.637512
 20
136.104996
 11
330.637512
 21
135.104996
  0
LINE
  8
0
  6
CONTINUOUS
 10
281.637512
 20
136.104996
 11
280.637512
 21
135.104996
  0
LINE
  8
0
  6
CONTINUOUS
 10
280.637512
 20
135.104996
 11
330.637512
 21
135.104996
  0
LINE
  8
0
  6
CONTINUOUS
 10
283.137512
 20
91.104988
 11
283.137512
 21
88.560997
  0
LINE
  8
0
  6
CONTINUOUS
 10
328.137512
 20
91.104988
 11
328.137512
 21
88.561012
  0
TEXT
  8
0
 10
-8.000000
 20
2.000000
 40
4.000000
 41
1.000000
  1
GLM-12-5~60-T40WK
 50
0.000000
  0
ENDSEC
  0
EOF
