  0
SECTION
  2
HEADER
  9
$CLAYER
  8
1
  9
$LTSCALE
 40
3.0
  0
ENDSEC
  0
SECTION
  2
TABLES
  0
TABLE
  2
LTYPE
 70
     4
  0
LTYPE
  2
CONTINUOUS
  3
solid line
 70
    64
 72
    65
 73
     0
 40
0.0
  0
LTYPE
  2
DASHED
  3
__ __ __ __ __ __ __ __ __ __ __ __ __ __ __
 70
    64
 72
    65
 73
     2
 40
0.75
 49
0.5
 49
-0.25
  0
LTYPE
  2
CENTER
  3
____ _ ____ _ ____ _ ____ _ ____ _ ____ _ ____
 70
    64
 72
    65
 73
     4
 40
2.0
 49
1.25
 49
-0.25
 49
0.25
 49
-0.25
  0
LTYPE
  2
PHANTOM
  3
_____ _ _ _____ _ _ _____ _ _ _____ _ _ ____
 70
    64
 72
    65
 73
     6
 40
2.5
 49
1.25
 49
-0.25
 49
0.25
 49
-0.25
 49
0.25
 49
-0.25
  0
ENDTAB
  0
TABLE
  2
LAYER
 70
     1
  0
LAYER
  2
0
 70
    64
 62
     7
  6
CONTINUOUS
  0
ENDTAB
  0
TABLE
  2
STYLE
 70
     1
  0
STYLE
  2
STANDARD
 70
     0
 40
0.000000
 41
1.000000
 50
0.000000
 71
     0
 42
3.000000
  3
txt
  4
BIGFONT
  0
ENDTAB
  0
ENDSEC
  0
SECTION
  2
BLOCKS
  0
ENDSEC
  0
SECTION
  2
ENTITIES
  0
LINE
  8
0
  6
CONTINUOUS
 10
55.036251
 20
87.817497
 11
64.536247
 21
87.817497
  0
LINE
  8
0
  6
CONTINUOUS
 10
55.036251
 20
11.817500
 11
64.536247
 21
11.817500
  0
LINE
  8
0
  6
CONTINUOUS
 10
55.036251
 20
9.817500
 11
55.036251
 21
89.817497
  0
LINE
  8
0
  6
CONTINUOUS
 10
55.036251
 20
80.066498
 11
64.536247
 21
80.066498
  0
LINE
  8
0
  6
CONTINUOUS
 10
55.036251
 20
19.568501
 11
64.536247
 21
19.568501
  0
LINE
  8
0
  6
CONTINUOUS
 10
11.036250
 20
89.817497
 11
55.036251
 21
89.817497
  0
LINE
  8
0
  6
CONTINUOUS
 10
11.036250
 20
9.817500
 11
55.036251
 21
9.817500
  0
LINE
  8
0
  6
CONTINUOUS
 10
6.036250
 20
14.817500
 11
6.036250
 21
84.817497
  0
ARC
  8
0
  6
CONTINUOUS
 10
11.036250
 20
84.817497
 40
5.000000
 50
90.000000
 51
180.000000
  0
ARC
  8
0
  6
CONTINUOUS
 10
11.036250
 20
14.817500
 40
5.000000
 50
180.000000
 51
270.000000
  0
LINE
  8
0
  6
CONTINUOUS
 10
8.536250
 20
75.817497
 11
55.036251
 21
75.817497
  0
LINE
  8
0
  6
CONTINUOUS
 10
8.536250
 20
25.817499
 11
55.036251
 21
25.817499
  0
LINE
  8
0
  6
CONTINUOUS
 10
64.536247
 20
11.817520
 11
64.536247
 21
87.817497
  0
LINE
  8
0
  6
CENTER
 10
-7.338906
 20
49.817501
 11
185.553757
 21
49.817501
  0
LINE
  8
0
  6
CONTINUOUS
 10
178.536255
 20
87.817497
 11
178.536255
 21
5.817500
  0
LINE
  8
0
  6
CONTINUOUS
 10
128.536255
 20
5.817500
 11
128.536255
 21
23.261440
  0
LINE
  8
0
  6
CENTER
 10
151.946747
 20
60.817501
 11
215.786255
 21
60.817501
  0
LINE
  8
0
  6
CONTINUOUS
 10
128.536255
 20
5.817500
 11
178.536255
 21
5.817500
  0
LINE
  8
0
  6
CENTER
 10
171.036255
 20
16.192499
 11
171.036255
 21
2.067500
  0
LINE
  8
0
  6
CENTER
 10
136.036255
 20
15.192500
 11
136.036255
 21
2.442500
  0
LINE
  8
0
  6
CONTINUOUS
 10
130.536255
 20
12.817500
 11
176.536255
 21
12.817500
  0
LINE
  8
0
  6
DASHED
 10
174.286255
 20
12.817500
 11
174.286255
 21
5.817500
  0
LINE
  8
0
  6
DASHED
 10
167.786255
 20
12.817500
 11
167.786255
 21
5.817500
  0
LINE
  8
0
  6
DASHED
 10
139.286255
 20
12.817500
 11
139.286255
 21
5.817500
  0
LINE
  8
0
  6
DASHED
 10
132.786255
 20
12.817500
 11
132.786255
 21
5.817500
  0
ARC
  8
0
  6
CONTINUOUS
 10
176.536255
 20
10.817480
 40
2.000000
 50
0.000000
 51
90.000000
  0
ARC
  8
0
  6
CONTINUOUS
 10
130.536255
 20
10.817510
 40
2.000000
 50
90.000000
 51
180.000000
  0
LINE
  8
0
  6
CONTINUOUS
 10
161.036255
 20
14.817480
 11
161.036255
 21
27.246790
  0
LINE
  8
0
  6
CONTINUOUS
 10
146.036255
 20
14.817500
 11
146.036255
 21
27.246790
  0
LINE
  8
0
  6
CONTINUOUS
 10
64.536247
 20
87.817497
 11
178.536255
 21
87.817497
  0
LINE
  8
0
  6
CONTINUOUS
 10
64.536247
 20
11.817520
 11
128.536255
 21
11.817520
  0
LINE
  8
0
  6
CONTINUOUS
 10
64.536247
 20
80.066498
 11
178.536255
 21
80.066498
  0
LINE
  8
0
  6
CONTINUOUS
 10
64.536247
 20
19.568529
 11
128.536255
 21
19.568529
  0
LINE
  8
0
  6
CONTINUOUS
 10
206.036255
 20
54.817501
 11
206.036255
 21
66.817497
  0
LINE
  8
0
  6
CONTINUOUS
 10
184.036255
 20
66.817497
 11
206.036255
 21
66.817497
  0
LINE
  8
0
  6
CONTINUOUS
 10
184.036255
 20
54.817501
 11
206.036255
 21
54.817501
  0
LINE
  8
0
  6
CONTINUOUS
 10
184.036255
 20
68.317497
 11
184.036255
 21
53.317501
  0
LINE
  8
0
  6
CONTINUOUS
 10
188.036255
 20
62.817501
 11
206.036255
 21
62.817501
  0
LINE
  8
0
  6
CONTINUOUS
 10
188.036255
 20
58.817501
 11
206.036255
 21
58.817501
  0
ARC
  8
0
  6
CONTINUOUS
 10
188.036255
 20
60.817501
 40
2.000000
 50
90.000000
 51
180.000000
  0
ARC
  8
0
  6
CONTINUOUS
 10
188.036255
 20
60.817501
 40
2.000000
 50
180.000000
 51
270.000000
  0
LINE
  8
0
  6
CONTINUOUS
 10
146.942551
 20
27.246790
 11
160.192551
 21
27.246790
  0
ARC
  8
0
  6
CONTINUOUS
 10
144.036255
 20
14.817500
 40
2.000000
 50
-90.000000
 51
0.000000
  0
ARC
  8
0
  6
CONTINUOUS
 10
163.036255
 20
14.817500
 40
2.000000
 50
180.000000
 51
270.000000
  0
ARC
  8
0
  6
CONTINUOUS
 10
130.536255
 20
23.261450
 40
2.000000
 50
90.000000
 51
180.000000
  0
LINE
  8
0
  6
CONTINUOUS
 10
130.786255
 20
25.261440
 11
145.411255
 21
25.261440
  0
LINE
  8
0
  6
CONTINUOUS
 10
178.161255
 20
25.261440
 11
161.286255
 21
25.261440
  0
ARC
  8
0
  6
CONTINUOUS
 10
163.036255
 20
27.246799
 40
2.000000
 50
90.000000
 51
180.000000
  0
ARC
  8
0
  6
CONTINUOUS
 10
144.036255
 20
27.246790
 40
2.000000
 50
0.000000
 51
90.000000
  0
LINE
  8
0
  6
CONTINUOUS
 10
181.036255
 20
78.317497
 11
178.536255
 21
78.317497
  0
LINE
  8
0
  6
CONTINUOUS
 10
181.036255
 20
43.317501
 11
178.536255
 21
43.317501
  0
LINE
  8
0
  6
CONTINUOUS
 10
182.036255
 20
44.317501
 11
182.036255
 21
77.317497
  0
ARC
  8
0
  6
CONTINUOUS
 10
181.036255
 20
77.317497
 40
1.000000
 50
0.000000
 51
90.000000
  0
ARC
  8
0
  6
CONTINUOUS
 10
181.036255
 20
44.317501
 40
1.000000
 50
-90.000000
 51
0.000000
  0
LINE
  8
0
  6
CONTINUOUS
 10
182.036255
 20
68.317497
 11
184.036255
 21
68.317497
  0
LINE
  8
0
  6
CONTINUOUS
 10
182.036255
 20
53.317501
 11
184.036255
 21
53.317501
  0
LINE
  8
0
  6
CENTER
 10
306.036255
 20
0.567520
 11
306.036255
 21
125.756721
  0
LINE
  8
0
  6
CENTER
 10
259.286255
 20
49.817501
 11
354.036255
 21
49.817501
  0
LINE
  8
0
  6
CENTER
 10
285.536255
 20
60.817501
 11
329.544678
 21
60.817501
  0
LINE
  8
0
  6
CONTINUOUS
 10
334.036255
 20
5.817520
 11
351.036255
 21
5.817520
  0
LINE
  8
0
  6
CONTINUOUS
 10
333.036255
 20
6.817520
 11
279.036255
 21
6.817520
  0
LINE
  8
0
  6
CENTER
 10
344.036255
 20
16.317520
 11
344.036255
 21
1.442520
  0
LINE
  8
0
  6
DASHED
 10
347.286255
 20
12.817520
 11
347.286255
 21
5.817520
  0
LINE
  8
0
  6
DASHED
 10
340.786255
 20
12.817520
 11
340.786255
 21
5.817520
  0
LINE
  8
0
  6
CONTINUOUS
 10
329.036255
 20
85.450600
 11
329.036255
 21
80.066498
  0
LINE
  8
0
  6
CONTINUOUS
 10
327.071136
 20
87.450401
 11
306.036255
 21
87.817497
  0
ARC
  8
0
  6
CONTINUOUS
 10
327.036255
 20
85.450600
 40
2.000000
 50
0.000000
 51
89.000137
  0
LINE
  8
0
  6
CONTINUOUS
 10
278.036255
 20
5.817520
 11
261.036255
 21
5.817520
  0
LINE
  8
0
  6
CONTINUOUS
 10
261.036255
 20
10.817520
 11
261.036255
 21
5.817520
  0
LINE
  8
0
  6
CENTER
 10
268.036255
 20
16.317520
 11
268.036255
 21
1.442520
  0
LINE
  8
0
  6
DASHED
 10
264.786255
 20
12.817520
 11
264.786255
 21
5.817520
  0
LINE
  8
0
  6
DASHED
 10
271.286255
 20
12.817520
 11
271.286255
 21
5.817520
  0
LINE
  8
0
  6
CONTINUOUS
 10
283.036255
 20
85.450600
 11
283.036255
 21
80.066498
  0
LINE
  8
0
  6
CONTINUOUS
 10
285.001343
 20
87.450401
 11
306.036255
 21
87.817497
  0
ARC
  8
0
  6
CONTINUOUS
 10
285.036255
 20
85.450600
 40
2.000000
 50
90.999863
 51
180.000000
  0
ARC
  8
0
  6
CONTINUOUS
 10
306.036255
 20
49.817501
 40
38.000000
 50
-40.256561
 51
52.752159
  0
ARC
  8
0
  6
CONTINUOUS
 10
306.036255
 20
49.817501
 40
38.000000
 50
127.247803
 51
220.256607
  0
LINE
  8
0
  6
CONTINUOUS
 10
298.536255
 20
58.817501
 11
298.536255
 21
62.817501
  0
LINE
  8
0
  6
CONTINUOUS
 10
302.536255
 20
62.817501
 11
298.536255
 21
62.817501
  0
LINE
  8
0
  6
CONTINUOUS
 10
298.536255
 20
58.817501
 11
302.536255
 21
58.817501
  0
LINE
  8
0
  6
CONTINUOUS
 10
302.536255
 20
62.817501
 11
302.536255
 21
58.817501
  0
ARC
  8
0
  6
CONTINUOUS
 10
306.036255
 20
60.817501
 40
6.000000
 50
-160.528793
 51
160.528793
  0
LINE
  8
0
  6
CONTINUOUS
 10
335.036255
 20
15.817480
 11
335.036255
 21
25.261450
  0
LINE
  8
0
  6
CONTINUOUS
 10
277.036255
 20
15.817520
 11
277.036255
 21
25.261450
  0
ARC
  8
0
  6
CONTINUOUS
 10
349.036255
 20
10.817520
 40
2.000000
 50
0.000000
 51
90.000000
  0
ARC
  8
0
  6
CONTINUOUS
 10
263.036255
 20
10.817530
 40
2.000000
 50
90.000000
 51
180.000000
  0
ARC
  8
0
  6
CONTINUOUS
 10
274.036255
 20
15.817520
 40
3.000000
 50
-90.000000
 51
0.000000
  0
ARC
  8
0
  6
CONTINUOUS
 10
338.036255
 20
15.817520
 40
3.000000
 50
180.000000
 51
270.000000
  0
LINE
  8
0
  6
CONTINUOUS
 10
261.622040
 20
12.231730
 11
275.969757
 21
26.579439
  0
LINE
  8
0
  6
CONTINUOUS
 10
350.450439
 20
12.231730
 11
336.102753
 21
26.579470
  0
LINE
  8
0
  6
CONTINUOUS
 10
263.036255
 20
12.817520
 11
274.036255
 21
12.817520
  0
LINE
  8
0
  6
CONTINUOUS
 10
349.036163
 20
12.817520
 11
338.036255
 21
12.817520
  0
LINE
  8
0
  6
CONTINUOUS
 10
351.036255
 20
5.817520
 11
351.036255
 21
10.817520
  0
LINE
  8
0
  6
CONTINUOUS
 10
340.036255
 20
61.649700
 11
340.036255
 21
37.985352
  0
LINE
  8
0
  6
CONTINUOUS
 10
272.036255
 20
37.985329
 11
272.036255
 21
61.649700
  0
ARC
  8
0
  6
CONTINUOUS
 10
306.036255
 20
49.817501
 40
36.000000
 50
19.188120
 51
160.811905
  0
ARC
  8
0
  6
CONTINUOUS
 10
306.036255
 20
49.817501
 40
36.000000
 50
199.188095
 51
340.811890
  0
LINE
  8
0
  6
CONTINUOUS
 10
333.036255
 20
6.817520
 11
334.036255
 21
5.817520
  0
LINE
  8
0
  6
CONTINUOUS
 10
278.036255
 20
5.817520
 11
279.036255
 21
6.817520
  0
CIRCLE
  8
0
  6
CONTINUOUS
 10
306.036255
 20
60.817501
 40
17.500000
  0
LINE
  8
0
  6
CONTINUOUS
 10
300.786255
 20
35.390751
 11
300.786255
 21
30.817499
  0
LINE
  8
0
  6
CONTINUOUS
 10
303.411255
 20
37.051880
 11
303.411255
 21
38.692501
  0
LINE
  8
0
  6
CONTINUOUS
 10
308.661255
 20
37.051880
 11
308.661255
 21
38.692501
  0
LINE
  8
0
  6
CONTINUOUS
 10
305.523560
 20
37.728642
 11
305.523560
 21
31.678829
  0
LINE
  8
0
  6
CONTINUOUS
 10
306.507965
 20
37.728642
 11
306.507965
 21
31.678829
  0
LINE
  8
0
  6
CONTINUOUS
 10
311.675842
 20
37.728642
 11
311.675842
 21
31.637819
  0
LINE
  8
0
  6
CONTINUOUS
 10
312.578247
 20
34.498661
 11
312.578247
 21
31.637819
  0
LINE
  8
0
  6
CONTINUOUS
 10
299.540649
 20
37.646610
 11
297.010864
 21
37.646610
  0
LINE
  8
0
  6
CONTINUOUS
 10
297.010864
 20
37.646610
 11
296.418060
 21
36.911610
  0
LINE
  8
0
  6
CONTINUOUS
 10
296.489349
 20
38.692501
 11
295.536255
 21
37.472038
  0
LINE
  8
0
  6
CONTINUOUS
 10
296.418060
 20
32.374729
 11
297.020355
 21
31.740360
  0
LINE
  8
0
  6
CONTINUOUS
 10
295.536255
 20
31.839380
 11
296.549042
 21
30.817499
  0
LINE
  8
0
  6
CONTINUOUS
 10
295.536255
 20
37.472038
 11
295.536255
 21
31.839380
  0
LINE
  8
0
  6
CONTINUOUS
 10
296.418060
 20
36.911610
 11
296.418060
 21
32.374729
  0
LINE
  8
0
  6
CONTINUOUS
 10
300.027435
 20
37.176010
 11
299.530762
 21
37.646610
  0
LINE
  8
0
  6
CONTINUOUS
 10
300.019562
 20
38.692501
 11
300.786255
 21
37.841679
  0
LINE
  8
0
  6
CONTINUOUS
 10
300.027435
 20
37.051880
 11
300.786255
 21
37.051880
  0
LINE
  8
0
  6
CONTINUOUS
 10
296.489349
 20
38.692501
 11
300.019562
 21
38.692501
  0
LINE
  8
0
  6
CONTINUOUS
 10
300.027435
 20
34.529419
 11
298.653442
 21
34.529419
  0
LINE
  8
0
  6
CONTINUOUS
 10
300.027435
 20
33.709110
 11
300.027435
 21
34.365360
  0
LINE
  8
0
  6
CONTINUOUS
 10
298.386841
 20
31.740360
 11
297.020355
 21
31.740360
  0
ARC
  8
0
  6
CONTINUOUS
 10
298.386841
 20
33.380989
 40
1.640625
 50
-89.999786
 51
0.000109
  0
LINE
  8
0
  6
CONTINUOUS
 10
300.027435
 20
31.445259
 11
300.027435
 21
30.817499
  0
LINE
  8
0
  6
CONTINUOUS
 10
300.786255
 20
37.841679
 11
300.786255
 21
37.051880
  0
LINE
  8
0
  6
CONTINUOUS
 10
300.027435
 20
34.529419
 11
300.027435
 21
33.380989
  0
LINE
  8
0
  6
CONTINUOUS
 10
298.653442
 20
35.390751
 11
298.653442
 21
34.529419
  0
LINE
  8
0
  6
CONTINUOUS
 10
300.027435
 20
30.817499
 11
300.786255
 21
30.817499
  0
LINE
  8
0
  6
CONTINUOUS
 10
300.027435
 20
31.445259
 11
299.279236
 21
30.817499
  0
LINE
  8
0
  6
CONTINUOUS
 10
306.507965
 20
31.678829
 11
306.836060
 21
31.678829
  0
LINE
  8
0
  6
CONTINUOUS
 10
305.133942
 20
31.678829
 11
305.133942
 21
30.817499
  0
LINE
  8
0
  6
CONTINUOUS
 10
306.836060
 20
31.678829
 11
306.836060
 21
30.817499
  0
LINE
  8
0
  6
CONTINUOUS
 10
308.113647
 20
37.051880
 11
308.661255
 21
37.051880
  0
LINE
  8
0
  6
CONTINUOUS
 10
303.411255
 20
37.051880
 11
303.994049
 21
37.051880
  0
LINE
  8
0
  6
CONTINUOUS
 10
303.411255
 20
38.692501
 11
308.661255
 21
38.692501
  0
LINE
  8
0
  6
CONTINUOUS
 10
305.133942
 20
30.817499
 11
306.836060
 21
30.817499
  0
LINE
  8
0
  6
CONTINUOUS
 10
305.133942
 20
31.678829
 11
305.523560
 21
31.678829
  0
ARC
  8
0
  6
CONTINUOUS
 10
314.434143
 20
36.590450
 40
2.102051
 50
-73.981873
 51
90.003510
  0
ARC
  8
0
  6
CONTINUOUS
 10
314.434143
 20
36.590450
 40
1.282395
 50
-82.585274
 51
62.411850
  0
LINE
  8
0
  6
CONTINUOUS
 10
311.286255
 20
38.692501
 11
314.434143
 21
38.692501
  0
LINE
  8
0
  6
CONTINUOUS
 10
311.286255
 20
38.692501
 11
311.286255
 21
37.728642
  0
LINE
  8
0
  6
CONTINUOUS
 10
312.578247
 20
37.728642
 11
312.578247
 21
35.318779
  0
LINE
  8
0
  6
CONTINUOUS
 10
315.014252
 20
34.570019
 11
316.315247
 21
31.637819
  0
LINE
  8
0
  6
CONTINUOUS
 10
314.258545
 20
34.498661
 11
315.489838
 21
31.637819
  0
LINE
  8
0
  6
CONTINUOUS
 10
311.286255
 20
31.637819
 11
311.675842
 21
31.637819
  0
LINE
  8
0
  6
CONTINUOUS
 10
312.578247
 20
31.637819
 11
312.937164
 21
31.637819
  0
LINE
  8
0
  6
CONTINUOUS
 10
312.937164
 20
30.817499
 11
311.286255
 21
30.817499
  0
LINE
  8
0
  6
CONTINUOUS
 10
315.326263
 20
31.637819
 11
315.489838
 21
31.637819
  0
LINE
  8
0
  6
CONTINUOUS
 10
316.315247
 20
31.637819
 11
316.536255
 21
31.637819
  0
LINE
  8
0
  6
CONTINUOUS
 10
315.326263
 20
30.817499
 11
316.536255
 21
30.817499
  0
LINE
  8
0
  6
CONTINUOUS
 10
316.536255
 20
31.637819
 11
316.536255
 21
30.817499
  0
LINE
  8
0
  6
CONTINUOUS
 10
315.326263
 20
31.637819
 11
315.326263
 21
30.817499
  0
LINE
  8
0
  6
CONTINUOUS
 10
312.937164
 20
31.637819
 11
312.937164
 21
30.817499
  0
LINE
  8
0
  6
CONTINUOUS
 10
311.286255
 20
31.637819
 11
311.286255
 21
30.817499
  0
LINE
  8
0
  6
CONTINUOUS
 10
304.275940
 20
37.728642
 11
303.994049
 21
37.051880
  0
LINE
  8
0
  6
CONTINUOUS
 10
307.875854
 20
37.728642
 11
308.113647
 21
37.051880
  0
LINE
  8
0
  6
CONTINUOUS
 10
306.507965
 20
37.728642
 11
307.875854
 21
37.728642
  0
LINE
  8
0
  6
CONTINUOUS
 10
305.523560
 20
37.728642
 11
304.275940
 21
37.728642
  0
LINE
  8
0
  6
CONTINUOUS
 10
311.286255
 20
37.728642
 11
311.675842
 21
37.728642
  0
LINE
  8
0
  6
CONTINUOUS
 10
312.578247
 20
37.728642
 11
315.028137
 21
37.727039
  0
LINE
  8
0
  6
CONTINUOUS
 10
300.027435
 20
37.176010
 11
300.027435
 21
37.051880
  0
LINE
  8
0
  6
CONTINUOUS
 10
296.549042
 20
30.817499
 11
299.279236
 21
30.817499
  0
LINE
  8
0
  6
CONTINUOUS
 10
312.578247
 20
35.318779
 11
314.599640
 21
35.318779
  0
LINE
  8
0
  6
CONTINUOUS
 10
312.578247
 20
34.498661
 11
314.258545
 21
34.498661
  0
LINE
  8
0
  6
CONTINUOUS
 10
298.653442
 20
35.390751
 11
300.786255
 21
35.390751
  0
LINE
  8
0
  6
CONTINUOUS
 10
346.036255
 20
26.817511
 11
346.036255
 21
71.746399
  0
LINE
  8
0
  6
CONTINUOUS
 10
266.036255
 20
72.817497
 11
266.036255
 21
27.888620
  0
LINE
  8
0
  6
CONTINUOUS
 10
280.036255
 20
86.817497
 11
280.036255
 21
83.214500
  0
LINE
  8
0
  6
CONTINUOUS
 10
343.036255
 20
23.817511
 11
339.433136
 21
23.817511
  0
LINE
  8
0
  6
CONTINUOUS
 10
269.036255
 20
75.817497
 11
272.639343
 21
75.817497
  0
LINE
  8
0
  6
CONTINUOUS
 10
344.571747
 20
75.281998
 11
331.500671
 21
88.352966
  0
LINE
  8
0
  6
CONTINUOUS
 10
267.500702
 20
24.353086
 11
270.622040
 21
21.231730
  0
ARC
  8
0
  6
CONTINUOUS
 10
327.965240
 20
84.817497
 40
5.000000
 50
45.000179
 51
74.008041
  0
ARC
  8
0
  6
CONTINUOUS
 10
341.036255
 20
71.746399
 40
5.000000
 50
0.000000
 51
45.000179
  0
ARC
  8
0
  6
CONTINUOUS
 10
271.036255
 20
27.888620
 40
5.000000
 50
180.000000
 51
225.000397
  0
ARC
  8
0
  6
CONTINUOUS
 10
269.036255
 20
72.817497
 40
3.000000
 50
90.000000
 51
180.000000
  0
ARC
  8
0
  6
CONTINUOUS
 10
283.036255
 20
86.817497
 40
3.000000
 50
98.895966
 51
180.000000
  0
ARC
  8
0
  6
CONTINUOUS
 10
343.036255
 20
26.817499
 40
3.000000
 50
-90.000000
 51
0.000000
  0
LINE
  8
0
  6
CONTINUOUS
 10
280.036255
 20
83.214500
 11
272.639343
 21
75.817497
  0
LINE
  8
0
  6
CONTINUOUS
 10
339.433136
 20
23.817511
 11
339.148956
 21
23.533260
  0
LINE
  8
0
  6
CONTINUOUS
 10
178.536255
 20
259.857513
 11
178.536255
 21
173.857498
  0
LINE
  8
0
  6
CENTER
 10
-8.270000
 20
216.857498
 11
214.786255
 21
216.857498
  0
LINE
  8
0
  6
CONTINUOUS
 10
105.536240
 20
239.857498
 11
178.536255
 21
239.857498
  0
LINE
  8
0
  6
CONTINUOUS
 10
105.536247
 20
193.857498
 11
178.536255
 21
193.857498
  0
LINE
  8
0
  6
CONTINUOUS
 10
64.536247
 20
254.857498
 11
178.536255
 21
254.857498
  0
LINE
  8
0
  6
CONTINUOUS
 10
64.536247
 20
178.857498
 11
178.536255
 21
178.857498
  0
LINE
  8
0
  6
CONTINUOUS
 10
206.036255
 20
209.357498
 11
206.036255
 21
222.857498
  0
LINE
  8
0
  6
CONTINUOUS
 10
184.036255
 20
222.857498
 11
206.036255
 21
222.857498
  0
LINE
  8
0
  6
CONTINUOUS
 10
184.036255
 20
210.857498
 11
186.036255
 21
210.857498
  0
LINE
  8
0
  6
CONTINUOUS
 10
184.036255
 20
224.357498
 11
184.036255
 21
209.357498
  0
LINE
  8
0
  6
CONTINUOUS
 10
181.036255
 20
234.357498
 11
178.536255
 21
234.357498
  0
LINE
  8
0
  6
CONTINUOUS
 10
181.036255
 20
199.357498
 11
178.536255
 21
199.357498
  0
LINE
  8
0
  6
CONTINUOUS
 10
182.036255
 20
200.357498
 11
182.036255
 21
233.357498
  0
ARC
  8
0
  6
CONTINUOUS
 10
181.036255
 20
233.357498
 40
1.000000
 50
0.000000
 51
90.000000
  0
ARC
  8
0
  6
CONTINUOUS
 10
181.036255
 20
200.357498
 40
1.000000
 50
-90.000000
 51
0.000000
  0
LINE
  8
0
  6
CONTINUOUS
 10
182.036255
 20
224.357498
 11
184.036255
 21
224.357498
  0
LINE
  8
0
  6
CONTINUOUS
 10
182.036255
 20
209.357498
 11
184.036255
 21
209.357498
  0
LINE
  8
0
  6
CONTINUOUS
 10
186.036255
 20
209.357498
 11
206.036255
 21
209.357498
  0
LINE
  8
0
  6
CONTINUOUS
 10
186.036255
 20
211.200500
 11
186.036255
 21
209.357498
  0
LINE
  8
0
  6
CONTINUOUS
 10
186.036255
 20
211.200500
 11
206.036255
 21
211.200500
  0
LINE
  8
0
  6
CONTINUOUS
 10
64.536247
 20
254.857498
 11
64.536247
 21
241.857498
  0
LINE
  8
0
  6
CONTINUOUS
 10
130.536255
 20
261.857513
 11
176.536255
 21
261.857513
  0
LINE
  8
0
  6
CONTINUOUS
 10
130.536255
 20
171.857498
 11
176.536255
 21
171.857498
  0
LINE
  8
0
  6
CONTINUOUS
 10
128.536255
 20
259.857513
 11
128.536255
 21
254.857498
  0
LINE
  8
0
  6
CONTINUOUS
 10
128.536255
 20
173.857498
 11
128.536255
 21
178.857498
  0
LINE
  8
0
  6
CENTER
 10
171.036255
 20
260.982513
 11
171.036255
 21
248.607498
  0
LINE
  8
0
  6
CENTER
 10
136.036255
 20
260.482513
 11
136.036255
 21
249.607498
  0
ARC
  8
0
  6
CONTINUOUS
 10
171.036255
 20
254.857498
 40
3.250000
 50
0.000000
 51
180.000000
  0
ARC
  8
0
  6
CONTINUOUS
 10
136.036255
 20
254.857498
 40
3.250000
 50
0.000000
 51
180.000000
  0
LINE
  8
0
  6
CENTER
 10
171.036255
 20
172.732498
 11
171.036255
 21
184.357498
  0
LINE
  8
0
  6
CENTER
 10
136.036255
 20
172.732498
 11
136.036255
 21
184.482498
  0
ARC
  8
0
  6
CONTINUOUS
 10
171.036255
 20
178.857498
 40
3.250000
 50
-180.000000
 51
0.000000
  0
ARC
  8
0
  6
CONTINUOUS
 10
136.036255
 20
178.857498
 40
3.250000
 50
-180.000000
 51
0.000000
  0
LINE
  8
0
  6
CONTINUOUS
 10
161.036255
 20
172.482498
 11
161.036255
 21
178.857498
  0
LINE
  8
0
  6
CONTINUOUS
 10
146.036255
 20
172.482498
 11
146.036255
 21
178.857498
  0
LINE
  8
0
  6
CONTINUOUS
 10
64.536247
 20
254.857498
 11
55.036251
 21
254.857498
  0
LINE
  8
0
  6
CONTINUOUS
 10
64.536247
 20
178.857498
 11
55.036251
 21
178.857498
  0
LINE
  8
0
  6
CONTINUOUS
 10
55.536251
 20
193.857498
 11
55.036251
 21
193.857498
  0
LINE
  8
0
  6
CONTINUOUS
 10
55.536251
 20
239.857498
 11
55.036251
 21
239.857498
  0
ARC
  8
0
  6
DASHED
 10
171.036255
 20
178.857498
 40
3.250000
 50
0.000000
 51
180.000000
  0
ARC
  8
0
  6
DASHED
 10
136.036255
 20
178.857498
 40
3.250000
 50
0.000000
 51
180.000000
  0
ARC
  8
0
  6
DASHED
 10
136.036255
 20
254.857498
 40
3.250000
 50
-180.000000
 51
0.000000
  0
ARC
  8
0
  6
DASHED
 10
171.036255
 20
254.857498
 40
3.250000
 50
-180.000000
 51
0.000000
  0
LINE
  8
0
  6
CENTER
 10
130.786255
 20
254.857498
 11
141.036255
 21
254.857498
  0
LINE
  8
0
  6
CENTER
 10
165.786255
 20
254.857498
 11
176.411255
 21
254.857498
  0
LINE
  8
0
  6
CENTER
 10
130.661255
 20
178.857498
 11
141.411255
 21
178.857498
  0
LINE
  8
0
  6
CENTER
 10
165.661255
 20
178.857498
 11
176.411255
 21
178.857498
  0
LINE
  8
0
  6
CONTINUOUS
 10
161.036255
 20
261.232513
 11
161.036255
 21
254.857498
  0
LINE
  8
0
  6
CONTINUOUS
 10
146.036255
 20
261.232513
 11
146.036255
 21
254.857498
  0
ARC
  8
0
  6
CONTINUOUS
 10
176.536255
 20
173.857498
 40
2.000000
 50
-90.000000
 51
0.000000
  0
ARC
  8
0
  6
CONTINUOUS
 10
130.536255
 20
173.857498
 40
2.000000
 50
180.000000
 51
270.000000
  0
ARC
  8
0
  6
CONTINUOUS
 10
176.536255
 20
259.857513
 40
2.000000
 50
0.000000
 51
90.000000
  0
ARC
  8
0
  6
CONTINUOUS
 10
130.536255
 20
259.857513
 40
2.000000
 50
90.000000
 51
180.000000
  0
LINE
  8
0
  6
CONTINUOUS
 10
64.536247
 20
191.857498
 11
64.536247
 21
178.857498
  0
LINE
  8
0
  6
CONTINUOUS
 10
55.036251
 20
176.857498
 11
55.036251
 21
209.357498
  0
LINE
  8
0
  6
CONTINUOUS
 10
11.036250
 20
256.857513
 11
55.036251
 21
256.857513
  0
LINE
  8
0
  6
CONTINUOUS
 10
11.036250
 20
176.857498
 11
55.036251
 21
176.857498
  0
LINE
  8
0
  6
CONTINUOUS
 10
6.036250
 20
181.857498
 11
6.036250
 21
251.857498
  0
ARC
  8
0
  6
CONTINUOUS
 10
11.036250
 20
251.857498
 40
5.000000
 50
90.000000
 51
180.000000
  0
ARC
  8
0
  6
CONTINUOUS
 10
11.036250
 20
181.857498
 40
5.000000
 50
180.000000
 51
270.000000
  0
LINE
  8
0
  6
CONTINUOUS
 10
8.536250
 20
240.857498
 11
55.036251
 21
240.857498
  0
LINE
  8
0
  6
CONTINUOUS
 10
8.536250
 20
190.857498
 11
55.036251
 21
190.857498
  0
LINE
  8
0
  6
CONTINUOUS
 10
57.036251
 20
89.317497
 11
103.536247
 21
89.317497
  0
LINE
  8
0
  6
CONTINUOUS
 10
105.536247
 20
193.857498
 11
105.536240
 21
239.857498
  0
LINE
  8
0
  6
CONTINUOUS
 10
55.536251
 20
193.857498
 11
55.536251
 21
239.857498
  0
LINE
  8
0
  6
CONTINUOUS
 10
53.536251
 20
101.317497
 11
105.536247
 21
101.317497
  0
LINE
  8
0
  6
CONTINUOUS
 10
103.536247
 20
89.317497
 11
105.536247
 21
91.317497
  0
LINE
  8
0
  6
CONTINUOUS
 10
55.536251
 20
91.317497
 11
57.536251
 21
89.317497
  0
LINE
  8
0
  6
CONTINUOUS
 10
55.536251
 20
91.317497
 11
105.536247
 21
91.317497
  0
LINE
  8
0
  6
CONTINUOUS
 10
56.536251
 20
120.317497
 11
104.536240
 21
120.317497
  0
LINE
  8
0
  6
CONTINUOUS
 10
104.536240
 20
120.317497
 11
105.536240
 21
119.317497
  0
LINE
  8
0
  6
CONTINUOUS
 10
56.536251
 20
120.317497
 11
55.536251
 21
119.317497
  0
LINE
  8
0
  6
CONTINUOUS
 10
55.536251
 20
119.317497
 11
105.536240
 21
119.317497
  0
LINE
  8
0
  6
CENTER
 10
47.592495
 20
110.817497
 11
59.667500
 21
110.817497
  0
LINE
  8
0
  6
CONTINUOUS
 10
53.536266
 20
117.317497
 11
53.536251
 21
101.317497
  0
LINE
  8
0
  6
CONTINUOUS
 10
54.536251
 20
118.317497
 11
55.536251
 21
118.317497
  0
ARC
  8
0
  6
CONTINUOUS
 10
54.536270
 20
117.317497
 40
1.000000
 50
90.000000
 51
180.000000
  0
LINE
  8
0
  6
CONTINUOUS
 10
50.036266
 20
114.817497
 11
50.036266
 21
106.817497
  0
LINE
  8
0
  6
CONTINUOUS
 10
50.036266
 20
114.817497
 11
53.536266
 21
116.317497
  0
LINE
  8
0
  6
CONTINUOUS
 10
50.036251
 20
106.817497
 11
53.536251
 21
105.317497
  0
LINE
  8
0
  6
CENTER
 10
80.536247
 20
84.623749
 11
80.536247
 21
129.217819
  0
LINE
  8
0
  6
CONTINUOUS
 10
57.036251
 20
89.317497
 11
57.036251
 21
87.817497
  0
LINE
  8
0
  6
CONTINUOUS
 10
103.036247
 20
89.317497
 11
103.036247
 21
87.817497
  0
LINE
  8
0
  6
CONTINUOUS
 10
283.036255
 20
89.317490
 11
329.036255
 21
89.317490
  0
LINE
  8
0
  6
CONTINUOUS
 10
331.036255
 20
119.317490
 11
331.036255
 21
91.317490
  0
LINE
  8
0
  6
CONTINUOUS
 10
281.036255
 20
119.317490
 11
281.036255
 21
91.317490
  0
LINE
  8
0
  6
CONTINUOUS
 10
281.036255
 20
101.317490
 11
331.036255
 21
101.317490
  0
LINE
  8
0
  6
CONTINUOUS
 10
329.036255
 20
89.317490
 11
331.036255
 21
91.317490
  0
LINE
  8
0
  6
CONTINUOUS
 10
281.036255
 20
91.317490
 11
283.036255
 21
89.317490
  0
LINE
  8
0
  6
CONTINUOUS
 10
281.036255
 20
91.317490
 11
331.036255
 21
91.317490
  0
LINE
  8
0
  6
CONTINUOUS
 10
282.036255
 20
120.317490
 11
330.036255
 21
120.317490
  0
LINE
  8
0
  6
CONTINUOUS
 10
330.036255
 20
120.317490
 11
331.036255
 21
119.317490
  0
LINE
  8
0
  6
CONTINUOUS
 10
282.036255
 20
120.317490
 11
281.036255
 21
119.317490
  0
LINE
  8
0
  6
CONTINUOUS
 10
281.036255
 20
119.317490
 11
331.036255
 21
119.317490
  0
LINE
  8
0
  6
CONTINUOUS
 10
328.536255
 20
89.317490
 11
328.536255
 21
86.773514
  0
LINE
  8
0
  6
CONTINUOUS
 10
283.536255
 20
89.317490
 11
283.536255
 21
86.773499
  0
LINE
  8
0
  6
CENTER
 10
80.536247
 20
184.391724
 11
80.536247
 21
248.523743
  0
LINE
  8
0
  6
CONTINUOUS
 10
105.536240
 20
119.317497
 11
105.536247
 21
91.317497
  0
LINE
  8
0
  6
CONTINUOUS
 10
55.536251
 20
119.317497
 11
55.536251
 21
91.317497
  0
LINE
  8
0
  6
CONTINUOUS
 10
57.536251
 20
241.857498
 11
103.536240
 21
241.857498
  0
LINE
  8
0
  6
CONTINUOUS
 10
103.536247
 20
191.857498
 11
57.536251
 21
191.857498
  0
LINE
  8
0
  6
CONTINUOUS
 10
54.536251
 20
224.357498
 11
55.536251
 21
224.357498
  0
ARC
  8
0
  6
CONTINUOUS
 10
54.536270
 20
223.357498
 40
1.000000
 50
90.000000
 51
180.000000
  0
LINE
  8
0
  6
CONTINUOUS
 10
50.036266
 20
220.857498
 11
50.036266
 21
212.857498
  0
LINE
  8
0
  6
CONTINUOUS
 10
50.036266
 20
220.857498
 11
53.536266
 21
222.357498
  0
LINE
  8
0
  6
CONTINUOUS
 10
50.036251
 20
212.857498
 11
53.536251
 21
211.357498
  0
LINE
  8
0
  6
CONTINUOUS
 10
53.536266
 20
223.357498
 11
53.536266
 21
210.357498
  0
LINE
  8
0
  6
CONTINUOUS
 10
54.536251
 20
209.357498
 11
55.536251
 21
209.357498
  0
ARC
  8
0
  6
CONTINUOUS
 10
54.536270
 20
210.357498
 40
1.000000
 50
-180.000000
 51
-90.000000
  0
LINE
  8
0
  6
CONTINUOUS
 10
55.036251
 20
224.357498
 11
55.036251
 21
256.857513
  0
LINE
  8
0
  6
CONTINUOUS
 10
103.536240
 20
241.857498
 11
105.536240
 21
239.857498
  0
LINE
  8
0
  6
CONTINUOUS
 10
57.536251
 20
241.857498
 11
55.536251
 21
239.857498
  0
LINE
  8
0
  6
CONTINUOUS
 10
55.536251
 20
193.857498
 11
57.536251
 21
191.857498
  0
LINE
  8
0
  6
CONTINUOUS
 10
103.536247
 20
191.857498
 11
105.536247
 21
193.857498
  0
CIRCLE
  8
0
  6
CONTINUOUS
 10
102.036247
 20
238.357498
 40
2.250000
  0
LINE
  8
0
  6
CONTINUOUS
 10
101.036247
 20
234.357498
 11
105.536240
 21
234.357498
  0
LINE
  8
0
  6
CONTINUOUS
 10
98.036247
 20
237.357498
 11
98.036247
 21
241.857498
  0
ARC
  8
0
  6
CONTINUOUS
 10
101.036247
 20
237.357498
 40
3.000000
 50
180.000000
 51
270.000000
  0
CIRCLE
  8
0
  6
CONTINUOUS
 10
59.036251
 20
195.357498
 40
2.250000
  0
LINE
  8
0
  6
CONTINUOUS
 10
60.036251
 20
199.357498
 11
55.536259
 21
199.357498
  0
LINE
  8
0
  6
CONTINUOUS
 10
63.036251
 20
196.357498
 11
63.036251
 21
191.857498
  0
ARC
  8
0
  6
CONTINUOUS
 10
60.036251
 20
196.357498
 40
3.000000
 50
0.000000
 51
90.000000
  0
LINE
  8
0
  6
CONTINUOUS
 10
63.036251
 20
192.857498
 11
103.122032
 21
192.857498
  0
LINE
  8
0
  6
CONTINUOUS
 10
104.536247
 20
234.357498
 11
104.536247
 21
194.271713
  0
LINE
  8
0
  6
CONTINUOUS
 10
103.122032
 20
192.857498
 11
104.536247
 21
194.271713
  0
LINE
  8
0
  6
CONTINUOUS
 10
57.950470
 20
240.857498
 11
56.536255
 21
239.443283
  0
LINE
  8
0
  6
CONTINUOUS
 10
98.036247
 20
240.857498
 11
57.950470
 21
240.857498
  0
LINE
  8
0
  6
CONTINUOUS
 10
56.536255
 20
199.357498
 11
56.536255
 21
239.443283
  0
TEXT
  8
0
 10
-8.000000
 20
0.000000
 40
4.000000
 41
1.000000
  1
GLM-12-5~30-T60T
 50
0.000000
  0
ENDSEC
  0
EOF
