  0
SECTION
  2
HEADER
  9
$CLAYER
  8
1
  9
$LTSCALE
 40
3.0
  0
ENDSEC
  0
SECTION
  2
TABLES
  0
TABLE
  2
LTYPE
 70
     4
  0
LTYPE
  2
CONTINUOUS
  3
solid line
 70
    64
 72
    65
 73
     0
 40
0.0
  0
LTYPE
  2
DASHED
  3
__ __ __ __ __ __ __ __ __ __ __ __ __ __ __
 70
    64
 72
    65
 73
     2
 40
0.75
 49
0.5
 49
-0.25
  0
LTYPE
  2
CENTER
  3
____ _ ____ _ ____ _ ____ _ ____ _ ____ _ ____
 70
    64
 72
    65
 73
     4
 40
2.0
 49
1.25
 49
-0.25
 49
0.25
 49
-0.25
  0
LTYPE
  2
PHANTOM
  3
_____ _ _ _____ _ _ _____ _ _ _____ _ _ ____
 70
    64
 72
    65
 73
     6
 40
2.5
 49
1.25
 49
-0.25
 49
0.25
 49
-0.25
 49
0.25
 49
-0.25
  0
ENDTAB
  0
TABLE
  2
LAYER
 70
     1
  0
LAYER
  2
0
 70
    64
 62
     7
  6
CONTINUOUS
  0
ENDTAB
  0
TABLE
  2
STYLE
 70
     1
  0
STYLE
  2
STANDARD
 70
     0
 40
0.000000
 41
1.000000
 50
0.000000
 71
     0
 42
3.000000
  3
txt
  4
BIGFONT
  0
ENDTAB
  0
ENDSEC
  0
SECTION
  2
BLOCKS
  0
ENDSEC
  0
SECTION
  2
ENTITIES
  0
LINE
  8
0
  6
CONTINUOUS
 10
0.375000
 20
21.568125
 11
0.375000
 21
91.568123
  0
LINE
  8
0
  6
CONTINUOUS
 10
4.916450
 20
101.568123
 11
20.875000
 21
101.568123
  0
LINE
  8
0
  6
CONTINUOUS
 10
0.875000
 20
98.568123
 11
0.875000
 21
14.568125
  0
LINE
  8
0
  6
CONTINUOUS
 10
20.875000
 20
90.977425
 11
2.625000
 21
90.977425
  0
LINE
  8
0
  6
CONTINUOUS
 10
1.452350
 20
99.568123
 11
0.875000
 21
98.568123
  0
ARC
  8
0
  6
CONTINUOUS
 10
4.916470
 20
97.568123
 40
4.000000
 50
90.000000
 51
150.000397
  0
LINE
  8
0
  6
CONTINUOUS
 10
4.916450
 20
11.568125
 11
20.875000
 21
11.568125
  0
LINE
  8
0
  6
CONTINUOUS
 10
20.875000
 20
22.158825
 11
2.625000
 21
22.158825
  0
LINE
  8
0
  6
CONTINUOUS
 10
1.452350
 20
13.568135
 11
0.875000
 21
14.568125
  0
ARC
  8
0
  6
CONTINUOUS
 10
4.916470
 20
15.568115
 40
4.000000
 50
-150.000397
 51
-90.000000
  0
LINE
  8
0
  6
CONTINUOUS
 10
0.375000
 20
91.568123
 11
0.875000
 21
92.068123
  0
LINE
  8
0
  6
CONTINUOUS
 10
0.375000
 20
21.568125
 11
0.875000
 21
21.068146
  0
LINE
  8
0
  6
CONTINUOUS
 10
20.875000
 20
11.568125
 11
20.875000
 21
101.568123
  0
LINE
  8
0
  6
CENTER
 10
-7.775000
 20
56.568127
 11
149.151703
 21
56.568127
  0
LINE
  8
0
  6
CONTINUOUS
 10
139.875000
 20
101.568123
 11
139.875000
 21
4.568125
  0
LINE
  8
0
  6
CONTINUOUS
 10
83.875000
 20
20.158825
 11
83.875000
 21
4.568125
  0
LINE
  8
0
  6
CENTER
 10
118.294701
 20
69.568123
 11
180.375000
 21
69.568123
  0
LINE
  8
0
  6
CONTINUOUS
 10
83.875000
 20
4.568125
 11
139.875000
 21
4.568125
  0
LINE
  8
0
  6
CONTINUOUS
 10
85.875000
 20
12.568125
 11
137.875000
 21
12.568125
  0
LINE
  8
0
  6
CENTER
 10
131.875000
 20
17.263506
 11
131.875000
 21
-2.681875
  0
LINE
  8
0
  6
CENTER
 10
91.875000
 20
17.263506
 11
91.875000
 21
-3.431875
  0
LINE
  8
0
  6
CONTINUOUS
 10
20.875000
 20
101.568123
 11
139.875000
 21
101.568123
  0
LINE
  8
0
  6
CONTINUOUS
 10
20.875000
 20
11.568125
 11
83.875000
 21
11.568125
  0
LINE
  8
0
  6
CONTINUOUS
 10
172.875000
 20
77.068123
 11
172.875000
 21
62.068127
  0
LINE
  8
0
  6
CONTINUOUS
 10
145.875000
 20
78.068123
 11
145.875000
 21
61.068127
  0
LINE
  8
0
  6
CONTINUOUS
 10
145.875000
 20
77.068123
 11
172.875000
 21
77.068123
  0
LINE
  8
0
  6
CONTINUOUS
 10
145.875000
 20
62.068127
 11
172.875000
 21
62.068127
  0
ARC
  8
0
  6
CONTINUOUS
 10
137.875000
 20
10.568115
 40
2.000000
 50
0.000000
 51
90.000000
  0
ARC
  8
0
  6
CONTINUOUS
 10
85.875000
 20
10.568135
 40
2.000000
 50
90.000000
 51
180.000000
  0
LINE
  8
0
  6
DASHED
 10
135.125000
 20
12.568125
 11
135.125000
 21
4.568125
  0
LINE
  8
0
  6
DASHED
 10
128.625000
 20
12.568125
 11
128.625000
 21
4.568125
  0
LINE
  8
0
  6
DASHED
 10
95.125000
 20
12.568125
 11
95.125000
 21
4.568125
  0
LINE
  8
0
  6
DASHED
 10
88.625000
 20
12.568125
 11
88.625000
 21
4.568125
  0
LINE
  8
0
  6
CONTINUOUS
 10
121.875000
 20
14.568115
 11
121.875000
 21
29.568125
  0
LINE
  8
0
  6
CONTINUOUS
 10
101.875000
 20
14.568125
 11
101.875000
 21
29.568115
  0
LINE
  8
0
  6
CONTINUOUS
 10
139.875000
 20
90.977425
 11
20.875000
 21
90.977425
  0
LINE
  8
0
  6
CONTINUOUS
 10
81.875000
 20
22.158834
 11
20.875000
 21
22.158834
  0
LINE
  8
0
  6
CONTINUOUS
 10
121.250000
 20
29.000746
 11
102.375000
 21
29.000746
  0
ARC
  8
0
  6
CONTINUOUS
 10
123.875000
 20
29.568125
 40
2.000000
 50
90.000000
 51
180.000000
  0
ARC
  8
0
  6
CONTINUOUS
 10
99.875000
 20
29.568115
 40
2.000000
 50
0.000000
 51
90.000000
  0
ARC
  8
0
  6
CONTINUOUS
 10
123.875000
 20
14.568125
 40
2.000000
 50
180.000000
 51
270.000000
  0
ARC
  8
0
  6
CONTINUOUS
 10
99.875000
 20
14.568125
 40
2.000000
 50
-90.000000
 51
0.000000
  0
ARC
  8
0
  6
CONTINUOUS
 10
81.875000
 20
20.158825
 40
2.000000
 50
0.000000
 51
90.000000
  0
LINE
  8
0
  6
CONTINUOUS
 10
139.875000
 20
22.158834
 11
122.875000
 21
22.158834
  0
LINE
  8
0
  6
CONTINUOUS
 10
101.250000
 20
22.158834
 11
83.562500
 21
22.158834
  0
LINE
  8
0
  6
CONTINUOUS
 10
151.375000
 20
72.068123
 11
172.875000
 21
72.068123
  0
LINE
  8
0
  6
CONTINUOUS
 10
151.375000
 20
67.068123
 11
172.875000
 21
67.068123
  0
ARC
  8
0
  6
CONTINUOUS
 10
151.375000
 20
69.568123
 40
2.500000
 50
90.000000
 51
180.000000
  0
ARC
  8
0
  6
CONTINUOUS
 10
151.375000
 20
69.568123
 40
2.500000
 50
180.000000
 51
270.000000
  0
LINE
  8
0
  6
CONTINUOUS
 10
142.875000
 20
89.568123
 11
139.875000
 21
89.568123
  0
LINE
  8
0
  6
CONTINUOUS
 10
142.875000
 20
49.568127
 11
139.875000
 21
49.568127
  0
LINE
  8
0
  6
CONTINUOUS
 10
143.875000
 20
50.568127
 11
143.875000
 21
88.568123
  0
ARC
  8
0
  6
CONTINUOUS
 10
142.875000
 20
88.568123
 40
1.000000
 50
0.000000
 51
90.000000
  0
ARC
  8
0
  6
CONTINUOUS
 10
142.875000
 20
50.568127
 40
1.000000
 50
-90.000000
 51
0.000000
  0
LINE
  8
0
  6
CONTINUOUS
 10
143.875000
 20
78.068123
 11
145.875000
 21
78.068123
  0
LINE
  8
0
  6
CONTINUOUS
 10
143.875000
 20
61.068127
 11
145.875000
 21
61.068127
  0
LINE
  8
0
  6
CENTER
 10
274.899994
 20
-2.283915
 11
274.899994
 21
156.912506
  0
LINE
  8
0
  6
CENTER
 10
221.399994
 20
56.568127
 11
328.399994
 21
56.568127
  0
LINE
  8
0
  6
CENTER
 10
252.242706
 20
69.568123
 11
302.367889
 21
69.568123
  0
LINE
  8
0
  6
CONTINUOUS
 10
307.899994
 20
4.568125
 11
326.899994
 21
4.568125
  0
LINE
  8
0
  6
CONTINUOUS
 10
326.899994
 20
10.568125
 11
326.899994
 21
4.568125
  0
LINE
  8
0
  6
CONTINUOUS
 10
324.899994
 20
12.568125
 11
312.899994
 21
12.568125
  0
LINE
  8
0
  6
CONTINUOUS
 10
306.899994
 20
5.568125
 11
274.899994
 21
5.568125
  0
ARC
  8
0
  6
CONTINUOUS
 10
274.899994
 20
56.568127
 40
45.000000
 50
-38.942440
 51
49.875912
  0
LINE
  8
0
  6
CONTINUOUS
 10
301.934906
 20
101.096222
 11
274.899994
 21
101.568123
  0
ARC
  8
0
  6
CONTINUOUS
 10
301.899994
 20
99.096527
 40
2.000000
 50
0.000000
 51
89.000191
  0
LINE
  8
0
  6
CONTINUOUS
 10
303.899994
 20
99.096527
 11
303.899994
 21
90.977425
  0
ARC
  8
0
  6
CONTINUOUS
 10
324.899994
 20
10.568115
 40
2.000000
 50
0.000000
 51
90.000000
  0
LINE
  8
0
  6
CENTER
 10
319.899994
 20
15.943125
 11
319.899994
 21
-1.181875
  0
LINE
  8
0
  6
DASHED
 10
323.149994
 20
12.568125
 11
323.149994
 21
4.568125
  0
LINE
  8
0
  6
DASHED
 10
316.649994
 20
12.568125
 11
316.649994
 21
4.568125
  0
LINE
  8
0
  6
CONTINUOUS
 10
314.899994
 20
70.929527
 11
314.899994
 21
42.206985
  0
ARC
  8
0
  6
CONTINUOUS
 10
274.899994
 20
56.568127
 40
42.500000
 50
270.000000
 51
340.250092
  0
ARC
  8
0
  6
CONTINUOUS
 10
274.899994
 20
56.568127
 40
42.500000
 50
19.749901
 51
90.000000
  0
LINE
  8
0
  6
CONTINUOUS
 10
241.899994
 20
4.568125
 11
222.899994
 21
4.568125
  0
LINE
  8
0
  6
CONTINUOUS
 10
222.899994
 20
10.568125
 11
222.899994
 21
4.568125
  0
LINE
  8
0
  6
CONTINUOUS
 10
224.899994
 20
12.568125
 11
236.899994
 21
12.568125
  0
LINE
  8
0
  6
CONTINUOUS
 10
242.899994
 20
5.568125
 11
274.899994
 21
5.568125
  0
ARC
  8
0
  6
CONTINUOUS
 10
274.899994
 20
56.568127
 40
45.000000
 50
130.124100
 51
218.942398
  0
LINE
  8
0
  6
CONTINUOUS
 10
247.865097
 20
101.096222
 11
274.899994
 21
101.568123
  0
ARC
  8
0
  6
CONTINUOUS
 10
247.899994
 20
99.096527
 40
2.000000
 50
90.999809
 51
180.000000
  0
LINE
  8
0
  6
CONTINUOUS
 10
245.899994
 20
99.096527
 11
245.899994
 21
90.977425
  0
ARC
  8
0
  6
CONTINUOUS
 10
224.899994
 20
10.568115
 40
2.000000
 50
90.000000
 51
180.000000
  0
LINE
  8
0
  6
CENTER
 10
229.899994
 20
15.943125
 11
229.899994
 21
-1.181875
  0
LINE
  8
0
  6
DASHED
 10
226.649994
 20
12.568125
 11
226.649994
 21
4.568125
  0
LINE
  8
0
  6
DASHED
 10
233.149994
 20
12.568125
 11
233.149994
 21
4.568125
  0
LINE
  8
0
  6
CONTINUOUS
 10
234.899994
 20
70.929527
 11
234.899994
 21
42.206985
  0
ARC
  8
0
  6
CONTINUOUS
 10
274.899994
 20
56.568127
 40
42.500000
 50
-160.250107
 51
-90.000000
  0
ARC
  8
0
  6
CONTINUOUS
 10
274.899994
 20
56.568127
 40
42.500000
 50
90.000000
 51
160.250107
  0
CIRCLE
  8
0
  6
CONTINUOUS
 10
274.899994
 20
69.568123
 40
20.000000
  0
LINE
  8
0
  6
CONTINUOUS
 10
265.399994
 20
72.068123
 11
270.399994
 21
72.068123
  0
LINE
  8
0
  6
CONTINUOUS
 10
265.399994
 20
67.068123
 11
270.399994
 21
67.068123
  0
LINE
  8
0
  6
CONTINUOUS
 10
265.399994
 20
67.068123
 11
265.399994
 21
72.068123
  0
ARC
  8
0
  6
CONTINUOUS
 10
274.899994
 20
69.568123
 40
7.500000
 50
-160.528793
 51
160.528793
  0
LINE
  8
0
  6
CONTINUOUS
 10
270.399994
 20
72.068123
 11
270.399994
 21
67.068123
  0
LINE
  8
0
  6
CONTINUOUS
 10
309.899994
 20
28.283855
 11
309.899994
 21
15.568115
  0
LINE
  8
0
  6
CONTINUOUS
 10
239.899994
 20
15.568125
 11
239.899994
 21
28.283855
  0
LINE
  8
0
  6
CONTINUOUS
 10
326.314209
 20
11.982325
 11
309.967407
 21
28.329214
  0
LINE
  8
0
  6
CONTINUOUS
 10
223.485794
 20
11.982325
 11
239.849594
 21
28.346294
  0
ARC
  8
0
  6
CONTINUOUS
 10
312.899994
 20
15.568125
 40
3.000000
 50
180.000000
 51
270.000000
  0
ARC
  8
0
  6
CONTINUOUS
 10
236.899994
 20
15.568125
 40
3.000000
 50
-90.000000
 51
0.000000
  0
LINE
  8
0
  6
CONTINUOUS
 10
307.899994
 20
4.568125
 11
306.899994
 21
5.568125
  0
LINE
  8
0
  6
CONTINUOUS
 10
241.899994
 20
4.568125
 11
242.899994
 21
5.568125
  0
LINE
  8
0
  6
CONTINUOUS
 10
268.524994
 20
39.121346
 11
268.524994
 21
33.568127
  0
LINE
  8
0
  6
CONTINUOUS
 10
271.712494
 20
41.138435
 11
271.712494
 21
43.130627
  0
LINE
  8
0
  6
CONTINUOUS
 10
278.087494
 20
41.138435
 11
278.087494
 21
43.130627
  0
LINE
  8
0
  6
CONTINUOUS
 10
274.277405
 20
41.960217
 11
274.277405
 21
34.614025
  0
LINE
  8
0
  6
CONTINUOUS
 10
275.472809
 20
41.960217
 11
275.472809
 21
34.614025
  0
LINE
  8
0
  6
CONTINUOUS
 10
281.748108
 20
41.960217
 11
281.748108
 21
34.564217
  0
LINE
  8
0
  6
CONTINUOUS
 10
282.843811
 20
38.038094
 11
282.843811
 21
34.564217
  0
LINE
  8
0
  6
CONTINUOUS
 10
267.012512
 20
41.860603
 11
263.940613
 21
41.860603
  0
LINE
  8
0
  6
CONTINUOUS
 10
263.940613
 20
41.860603
 11
263.220795
 21
40.968117
  0
LINE
  8
0
  6
CONTINUOUS
 10
263.307404
 20
43.130627
 11
262.149994
 21
41.648617
  0
LINE
  8
0
  6
CONTINUOUS
 10
263.220795
 20
35.459045
 11
263.952087
 21
34.688736
  0
LINE
  8
0
  6
CONTINUOUS
 10
262.149994
 20
34.808975
 11
263.379791
 21
33.568127
  0
LINE
  8
0
  6
CONTINUOUS
 10
262.149994
 20
41.648617
 11
262.149994
 21
34.808975
  0
LINE
  8
0
  6
CONTINUOUS
 10
263.220795
 20
40.968117
 11
263.220795
 21
35.459045
  0
LINE
  8
0
  6
CONTINUOUS
 10
267.603607
 20
41.289173
 11
267.000397
 21
41.860603
  0
LINE
  8
0
  6
CONTINUOUS
 10
267.593994
 20
43.130627
 11
268.524994
 21
42.097473
  0
LINE
  8
0
  6
CONTINUOUS
 10
267.603607
 20
41.138435
 11
268.524994
 21
41.138435
  0
LINE
  8
0
  6
CONTINUOUS
 10
263.307404
 20
43.130627
 11
267.593994
 21
43.130627
  0
LINE
  8
0
  6
CONTINUOUS
 10
267.603607
 20
38.075443
 11
265.935211
 21
38.075443
  0
LINE
  8
0
  6
CONTINUOUS
 10
267.603607
 20
37.079353
 11
267.603607
 21
37.876236
  0
LINE
  8
0
  6
CONTINUOUS
 10
265.611389
 20
34.688736
 11
263.952087
 21
34.688736
  0
ARC
  8
0
  6
CONTINUOUS
 10
265.611389
 20
36.680916
 40
1.992187
 50
-89.999786
 51
0.000109
  0
LINE
  8
0
  6
CONTINUOUS
 10
267.603607
 20
34.330395
 11
267.603607
 21
33.568127
  0
LINE
  8
0
  6
CONTINUOUS
 10
268.524994
 20
42.097473
 11
268.524994
 21
41.138435
  0
LINE
  8
0
  6
CONTINUOUS
 10
267.603607
 20
38.075443
 11
267.603607
 21
36.680916
  0
LINE
  8
0
  6
CONTINUOUS
 10
265.935211
 20
39.121346
 11
265.935211
 21
38.075443
  0
LINE
  8
0
  6
CONTINUOUS
 10
267.603607
 20
33.568127
 11
268.524994
 21
33.568127
  0
LINE
  8
0
  6
CONTINUOUS
 10
267.603607
 20
34.330395
 11
266.695007
 21
33.568127
  0
LINE
  8
0
  6
CONTINUOUS
 10
275.472809
 20
34.614025
 11
275.871185
 21
34.614025
  0
LINE
  8
0
  6
CONTINUOUS
 10
273.804291
 20
34.614025
 11
273.804291
 21
33.568127
  0
LINE
  8
0
  6
CONTINUOUS
 10
275.871185
 20
34.614025
 11
275.871185
 21
33.568127
  0
LINE
  8
0
  6
CONTINUOUS
 10
277.422607
 20
41.138435
 11
278.087494
 21
41.138435
  0
LINE
  8
0
  6
CONTINUOUS
 10
271.712494
 20
41.138435
 11
272.420105
 21
41.138435
  0
LINE
  8
0
  6
CONTINUOUS
 10
271.712494
 20
43.130627
 11
278.087494
 21
43.130627
  0
LINE
  8
0
  6
CONTINUOUS
 10
273.804291
 20
33.568127
 11
275.871185
 21
33.568127
  0
LINE
  8
0
  6
CONTINUOUS
 10
273.804291
 20
34.614025
 11
274.277405
 21
34.614025
  0
ARC
  8
0
  6
CONTINUOUS
 10
285.097504
 20
40.578136
 40
2.552490
 50
-73.981873
 51
90.003510
  0
ARC
  8
0
  6
CONTINUOUS
 10
285.097504
 20
40.578136
 40
1.557193
 50
-82.585274
 51
62.411850
  0
LINE
  8
0
  6
CONTINUOUS
 10
281.274994
 20
43.130627
 11
285.097504
 21
43.130627
  0
LINE
  8
0
  6
CONTINUOUS
 10
281.274994
 20
43.130627
 11
281.274994
 21
41.960217
  0
LINE
  8
0
  6
CONTINUOUS
 10
282.843811
 20
41.960217
 11
282.843811
 21
39.033966
  0
LINE
  8
0
  6
CONTINUOUS
 10
285.801910
 20
38.124737
 11
287.381714
 21
34.564217
  0
LINE
  8
0
  6
CONTINUOUS
 10
284.884308
 20
38.038094
 11
286.379303
 21
34.564217
  0
LINE
  8
0
  6
CONTINUOUS
 10
281.274994
 20
34.564217
 11
281.748108
 21
34.564217
  0
LINE
  8
0
  6
CONTINUOUS
 10
282.843811
 20
34.564217
 11
283.279602
 21
34.564217
  0
LINE
  8
0
  6
CONTINUOUS
 10
283.279602
 20
33.568127
 11
281.274994
 21
33.568127
  0
LINE
  8
0
  6
CONTINUOUS
 10
286.180786
 20
34.564217
 11
286.379303
 21
34.564217
  0
LINE
  8
0
  6
CONTINUOUS
 10
287.381714
 20
34.564217
 11
287.649994
 21
34.564217
  0
LINE
  8
0
  6
CONTINUOUS
 10
286.180786
 20
33.568127
 11
287.649994
 21
33.568127
  0
LINE
  8
0
  6
CONTINUOUS
 10
287.649994
 20
34.564217
 11
287.649994
 21
33.568127
  0
LINE
  8
0
  6
CONTINUOUS
 10
286.180786
 20
34.564217
 11
286.180786
 21
33.568127
  0
LINE
  8
0
  6
CONTINUOUS
 10
283.279602
 20
34.564217
 11
283.279602
 21
33.568127
  0
LINE
  8
0
  6
CONTINUOUS
 10
281.274994
 20
34.564217
 11
281.274994
 21
33.568127
  0
LINE
  8
0
  6
CONTINUOUS
 10
272.762512
 20
41.960217
 11
272.420105
 21
41.138435
  0
LINE
  8
0
  6
CONTINUOUS
 10
277.133789
 20
41.960217
 11
277.422607
 21
41.138435
  0
LINE
  8
0
  6
CONTINUOUS
 10
275.472809
 20
41.960217
 11
277.133789
 21
41.960217
  0
LINE
  8
0
  6
CONTINUOUS
 10
274.277405
 20
41.960217
 11
272.762512
 21
41.960217
  0
LINE
  8
0
  6
CONTINUOUS
 10
281.274994
 20
41.960217
 11
281.748108
 21
41.960217
  0
LINE
  8
0
  6
CONTINUOUS
 10
282.843811
 20
41.960217
 11
285.818695
 21
41.958275
  0
LINE
  8
0
  6
CONTINUOUS
 10
267.603607
 20
41.289173
 11
267.603607
 21
41.138435
  0
LINE
  8
0
  6
CONTINUOUS
 10
263.379791
 20
33.568127
 11
266.695007
 21
33.568127
  0
LINE
  8
0
  6
CONTINUOUS
 10
282.843811
 20
39.033966
 11
285.298492
 21
39.033966
  0
LINE
  8
0
  6
CONTINUOUS
 10
282.843811
 20
38.038094
 11
284.884308
 21
38.038094
  0
LINE
  8
0
  6
CONTINUOUS
 10
265.935211
 20
39.121346
 11
268.524994
 21
39.121346
  0
LINE
  8
0
  6
CONTINUOUS
 10
139.875000
 20
298.611877
 11
139.875000
 21
200.611877
  0
LINE
  8
0
  6
CENTER
 10
-4.457500
 20
249.611877
 11
180.295319
 21
249.611877
  0
LINE
  8
0
  6
CONTINUOUS
 10
20.875000
 20
278.611877
 11
139.875000
 21
278.611877
  0
LINE
  8
0
  6
CONTINUOUS
 10
20.875000
 20
294.611877
 11
139.875000
 21
294.611877
  0
LINE
  8
0
  6
CONTINUOUS
 10
20.875000
 20
204.611877
 11
139.875000
 21
204.611877
  0
LINE
  8
0
  6
CONTINUOUS
 10
0.375000
 20
214.611877
 11
0.375000
 21
284.611877
  0
LINE
  8
0
  6
CONTINUOUS
 10
4.916450
 20
294.611877
 11
20.875000
 21
294.611877
  0
LINE
  8
0
  6
CONTINUOUS
 10
0.875000
 20
291.611877
 11
0.875000
 21
207.611877
  0
LINE
  8
0
  6
CONTINUOUS
 10
20.875000
 20
278.611877
 11
2.625000
 21
278.611877
  0
LINE
  8
0
  6
CONTINUOUS
 10
1.452350
 20
292.611877
 11
0.875000
 21
291.611877
  0
ARC
  8
0
  6
CONTINUOUS
 10
4.916470
 20
290.611877
 40
4.000000
 50
90.000000
 51
150.000397
  0
LINE
  8
0
  6
CONTINUOUS
 10
4.916450
 20
204.611877
 11
20.875000
 21
204.611877
  0
LINE
  8
0
  6
CONTINUOUS
 10
1.452350
 20
206.611877
 11
0.875000
 21
207.611877
  0
ARC
  8
0
  6
CONTINUOUS
 10
4.916470
 20
208.611862
 40
4.000000
 50
-150.000397
 51
-90.000000
  0
LINE
  8
0
  6
CONTINUOUS
 10
0.375000
 20
284.611877
 11
0.875000
 21
285.111877
  0
LINE
  8
0
  6
CONTINUOUS
 10
0.375000
 20
214.611877
 11
0.875000
 21
214.111893
  0
LINE
  8
0
  6
CONTINUOUS
 10
20.875000
 20
204.611877
 11
20.875000
 21
224.611862
  0
LINE
  8
0
  6
CONTINUOUS
 10
172.875000
 20
257.111877
 11
172.875000
 21
240.111877
  0
LINE
  8
0
  6
CONTINUOUS
 10
145.875000
 20
258.111877
 11
145.875000
 21
241.111877
  0
LINE
  8
0
  6
CONTINUOUS
 10
145.875000
 20
257.111877
 11
172.875000
 21
257.111877
  0
LINE
  8
0
  6
CONTINUOUS
 10
145.875000
 20
242.111877
 11
148.875000
 21
242.111877
  0
LINE
  8
0
  6
CONTINUOUS
 10
142.875000
 20
269.611877
 11
139.875000
 21
269.611877
  0
LINE
  8
0
  6
CONTINUOUS
 10
142.875000
 20
229.611877
 11
139.875000
 21
229.611877
  0
LINE
  8
0
  6
CONTINUOUS
 10
143.875000
 20
230.611877
 11
143.875000
 21
268.611877
  0
ARC
  8
0
  6
CONTINUOUS
 10
142.875000
 20
268.611877
 40
1.000000
 50
0.000000
 51
90.000000
  0
ARC
  8
0
  6
CONTINUOUS
 10
142.875000
 20
230.611877
 40
1.000000
 50
-90.000000
 51
0.000000
  0
LINE
  8
0
  6
CONTINUOUS
 10
143.875000
 20
258.111877
 11
145.875000
 21
258.111877
  0
LINE
  8
0
  6
CONTINUOUS
 10
143.875000
 20
241.111877
 11
145.875000
 21
241.111877
  0
LINE
  8
0
  6
CONTINUOUS
 10
148.875000
 20
242.540878
 11
148.875000
 21
240.111877
  0
LINE
  8
0
  6
CONTINUOUS
 10
148.875000
 20
240.111877
 11
172.875000
 21
240.111877
  0
LINE
  8
0
  6
CONTINUOUS
 10
148.875000
 20
242.540878
 11
172.875000
 21
242.540878
  0
LINE
  8
0
  6
CONTINUOUS
 10
86.875000
 20
301.611877
 11
136.875000
 21
301.611877
  0
LINE
  8
0
  6
CONTINUOUS
 10
83.875000
 20
298.611877
 11
83.875000
 21
294.611877
  0
LINE
  8
0
  6
CENTER
 10
126.093903
 20
294.611877
 11
138.242493
 21
294.611877
  0
LINE
  8
0
  6
CENTER
 10
131.875000
 20
305.212189
 11
131.875000
 21
287.175629
  0
LINE
  8
0
  6
CENTER
 10
91.875000
 20
304.765015
 11
91.875000
 21
288.517181
  0
LINE
  8
0
  6
CENTER
 10
84.878128
 20
294.611877
 11
100.380623
 21
294.611877
  0
ARC
  8
0
  6
DASHED
 10
131.875000
 20
294.611877
 40
3.250000
 50
-180.000000
 51
0.000000
  0
ARC
  8
0
  6
CONTINUOUS
 10
91.875000
 20
294.611877
 40
3.250000
 50
0.000000
 51
180.000000
  0
ARC
  8
0
  6
DASHED
 10
91.875000
 20
294.611877
 40
3.250000
 50
-180.000000
 51
0.000000
  0
ARC
  8
0
  6
CONTINUOUS
 10
131.875000
 20
294.611877
 40
3.250000
 50
0.000000
 51
180.000000
  0
ARC
  8
0
  6
CONTINUOUS
 10
136.875000
 20
298.611877
 40
3.000000
 50
0.000000
 51
90.000000
  0
ARC
  8
0
  6
CONTINUOUS
 10
86.875000
 20
298.611877
 40
3.000000
 50
90.000000
 51
180.000000
  0
LINE
  8
0
  6
CONTINUOUS
 10
86.875000
 20
197.611877
 11
136.875000
 21
197.611877
  0
LINE
  8
0
  6
CONTINUOUS
 10
83.875000
 20
200.611877
 11
83.875000
 21
204.611877
  0
LINE
  8
0
  6
CENTER
 10
126.093903
 20
204.611877
 11
138.242493
 21
204.611877
  0
LINE
  8
0
  6
CENTER
 10
131.875000
 20
194.011566
 11
131.875000
 21
212.048126
  0
LINE
  8
0
  6
CENTER
 10
91.875000
 20
194.458755
 11
91.875000
 21
210.706558
  0
LINE
  8
0
  6
CENTER
 10
84.878128
 20
204.611877
 11
100.380623
 21
204.611877
  0
ARC
  8
0
  6
DASHED
 10
131.875000
 20
204.611877
 40
3.250000
 50
0.000000
 51
180.000000
  0
ARC
  8
0
  6
CONTINUOUS
 10
91.875000
 20
204.611877
 40
3.250000
 50
-180.000000
 51
0.000000
  0
ARC
  8
0
  6
DASHED
 10
91.875000
 20
204.611877
 40
3.250000
 50
0.000000
 51
180.000000
  0
ARC
  8
0
  6
CONTINUOUS
 10
131.875000
 20
204.611877
 40
3.250000
 50
-180.000000
 51
0.000000
  0
ARC
  8
0
  6
CONTINUOUS
 10
136.875000
 20
200.611877
 40
3.000000
 50
-90.000000
 51
0.000000
  0
ARC
  8
0
  6
CONTINUOUS
 10
86.875000
 20
200.611877
 40
3.000000
 50
-180.000000
 51
-90.000000
  0
LINE
  8
0
  6
CONTINUOUS
 10
20.875000
 20
220.611877
 11
139.875000
 21
220.611877
  0
LINE
  8
0
  6
CONTINUOUS
 10
20.875000
 20
220.611877
 11
2.625000
 21
220.611877
  0
LINE
  8
0
  6
CONTINUOUS
 10
20.875000
 20
274.611847
 11
20.875000
 21
294.611877
  0
LINE
  8
0
  6
CONTINUOUS
 10
11.875000
 20
226.611862
 11
11.875000
 21
272.611847
  0
LINE
  8
0
  6
CONTINUOUS
 10
13.875000
 20
274.611847
 11
11.875000
 21
272.611847
  0
LINE
  8
0
  6
CONTINUOUS
 10
13.875000
 20
274.611847
 11
59.874989
 21
274.611847
  0
LINE
  8
0
  6
CONTINUOUS
 10
54.375000
 20
270.111847
 11
54.375000
 21
274.611847
  0
ARC
  8
0
  6
CONTINUOUS
 10
57.375000
 20
270.111847
 40
3.000000
 50
180.000000
 51
270.000000
  0
LINE
  8
0
  6
CONTINUOUS
 10
57.375000
 20
267.111847
 11
61.874989
 21
267.111847
  0
CIRCLE
  8
0
  6
CONTINUOUS
 10
58.375000
 20
271.111847
 40
2.250000
  0
LINE
  8
0
  6
CONTINUOUS
 10
61.874992
 20
226.611862
 11
61.874989
 21
272.611847
  0
LINE
  8
0
  6
CONTINUOUS
 10
59.874989
 20
274.611847
 11
61.874989
 21
272.611847
  0
LINE
  8
0
  6
CONTINUOUS
 10
59.874992
 20
224.611862
 11
61.874992
 21
226.611862
  0
LINE
  8
0
  6
CONTINUOUS
 10
59.874992
 20
224.611862
 11
13.875000
 21
224.611862
  0
LINE
  8
0
  6
CONTINUOUS
 10
11.875000
 20
226.611862
 11
13.875000
 21
224.611862
  0
LINE
  8
0
  6
CONTINUOUS
 10
16.375000
 20
232.111862
 11
11.875010
 21
232.111862
  0
CIRCLE
  8
0
  6
CONTINUOUS
 10
15.375000
 20
228.111862
 40
2.250000
  0
ARC
  8
0
  6
CONTINUOUS
 10
16.375000
 20
229.111862
 40
3.000000
 50
0.000000
 51
90.000000
  0
LINE
  8
0
  6
CONTINUOUS
 10
19.375000
 20
229.111862
 11
19.375000
 21
224.611862
  0
LINE
  8
0
  6
CENTER
 10
36.875000
 20
217.146072
 11
36.875000
 21
281.278107
  0
LINE
  8
0
  6
CONTINUOUS
 10
12.875006
 20
232.111877
 11
12.875006
 21
267.111877
  0
LINE
  8
0
  6
CONTINUOUS
 10
54.375000
 20
273.611877
 11
19.375019
 21
273.611877
  0
LINE
  8
0
  6
CONTINUOUS
 10
60.874992
 20
267.111877
 11
60.874992
 21
232.111877
  0
LINE
  8
0
  6
CONTINUOUS
 10
19.375000
 20
225.611877
 11
54.374981
 21
225.611877
  0
LINE
  8
0
  6
CONTINUOUS
 10
16.375019
 20
267.111877
 11
11.875020
 21
267.111877
  0
ARC
  8
0
  6
CONTINUOUS
 10
16.375019
 20
270.111877
 40
3.000000
 50
-90.000000
 51
0.000000
  0
LINE
  8
0
  6
CONTINUOUS
 10
19.375019
 20
270.111877
 11
19.375019
 21
274.611877
  0
CIRCLE
  8
0
  6
CONTINUOUS
 10
15.375020
 20
271.111877
 40
2.250000
  0
LINE
  8
0
  6
CONTINUOUS
 10
57.374981
 20
232.111877
 11
61.874981
 21
232.111877
  0
ARC
  8
0
  6
CONTINUOUS
 10
57.374981
 20
229.111877
 40
3.000000
 50
90.000000
 51
180.000000
  0
LINE
  8
0
  6
CONTINUOUS
 10
54.374981
 20
229.111877
 11
54.374981
 21
224.611877
  0
CIRCLE
  8
0
  6
CONTINUOUS
 10
58.374981
 20
228.111877
 40
2.250000
  0
LINE
  8
0
  6
CONTINUOUS
 10
13.375000
 20
103.068123
 11
59.875000
 21
103.068123
  0
LINE
  8
0
  6
CONTINUOUS
 10
61.874981
 20
147.068130
 11
61.875000
 21
105.068123
  0
LINE
  8
0
  6
CONTINUOUS
 10
11.875000
 20
147.068130
 11
11.875000
 21
105.068123
  0
LINE
  8
0
  6
CONTINUOUS
 10
11.875000
 20
115.068123
 11
61.875000
 21
115.068123
  0
LINE
  8
0
  6
CONTINUOUS
 10
59.875000
 20
103.068123
 11
61.875000
 21
105.068123
  0
LINE
  8
0
  6
CONTINUOUS
 10
11.875000
 20
105.068123
 11
13.875000
 21
103.068123
  0
LINE
  8
0
  6
CONTINUOUS
 10
11.875000
 20
105.068123
 11
61.875000
 21
105.068123
  0
LINE
  8
0
  6
CONTINUOUS
 10
11.875000
 20
116.068123
 11
61.874989
 21
116.068123
  0
LINE
  8
0
  6
CONTINUOUS
 10
12.875000
 20
148.068130
 11
60.874981
 21
148.068130
  0
LINE
  8
0
  6
CONTINUOUS
 10
60.874981
 20
148.068130
 11
61.874981
 21
147.068130
  0
LINE
  8
0
  6
CONTINUOUS
 10
12.875000
 20
148.068130
 11
11.875000
 21
147.068130
  0
LINE
  8
0
  6
CONTINUOUS
 10
11.875000
 20
147.068130
 11
61.874981
 21
147.068130
  0
LINE
  8
0
  6
CENTER
 10
36.875000
 20
96.678612
 11
36.875000
 21
153.378616
  0
LINE
  8
0
  6
CENTER
 10
9.500000
 20
131.068130
 11
14.125000
 21
131.068130
  0
LINE
  8
0
  6
CONTINUOUS
 10
13.375000
 20
103.068123
 11
13.375000
 21
101.568123
  0
LINE
  8
0
  6
CONTINUOUS
 10
59.375000
 20
103.068123
 11
59.375000
 21
101.568123
  0
LINE
  8
0
  6
CONTINUOUS
 10
11.000000
 20
141.568130
 11
13.000000
 21
141.568130
  0
LINE
  8
0
  6
CONTINUOUS
 10
11.000000
 20
120.568123
 11
13.000000
 21
120.568123
  0
LINE
  8
0
  6
CONTINUOUS
 10
251.899994
 20
103.068123
 11
297.899994
 21
103.068123
  0
LINE
  8
0
  6
CONTINUOUS
 10
299.899994
 20
147.068130
 11
299.899994
 21
105.068123
  0
LINE
  8
0
  6
CONTINUOUS
 10
249.899994
 20
147.068130
 11
249.899994
 21
105.068123
  0
LINE
  8
0
  6
CONTINUOUS
 10
249.899994
 20
115.068123
 11
299.899994
 21
115.068123
  0
LINE
  8
0
  6
CONTINUOUS
 10
297.899994
 20
103.068123
 11
299.899994
 21
105.068123
  0
LINE
  8
0
  6
CONTINUOUS
 10
249.899994
 20
105.068123
 11
251.899994
 21
103.068123
  0
LINE
  8
0
  6
CONTINUOUS
 10
249.899994
 20
105.068123
 11
299.899994
 21
105.068123
  0
LINE
  8
0
  6
CONTINUOUS
 10
249.899994
 20
116.068123
 11
299.899994
 21
116.068123
  0
LINE
  8
0
  6
CONTINUOUS
 10
250.899994
 20
148.068130
 11
298.899994
 21
148.068130
  0
LINE
  8
0
  6
CONTINUOUS
 10
298.899994
 20
148.068130
 11
299.899994
 21
147.068130
  0
LINE
  8
0
  6
CONTINUOUS
 10
250.899994
 20
148.068130
 11
249.899994
 21
147.068130
  0
LINE
  8
0
  6
CONTINUOUS
 10
249.899994
 20
147.068130
 11
299.899994
 21
147.068130
  0
LINE
  8
0
  6
CONTINUOUS
 10
297.399994
 20
103.068123
 11
297.399994
 21
101.175392
  0
LINE
  8
0
  6
CONTINUOUS
 10
252.399994
 20
103.068123
 11
252.399994
 21
101.175392
  0
TEXT
  8
0
 10
-7.000000
 20
-3.000000
 40
4.000000
 41
1.000000
  1
GLM-15-160~240-T25WK
 50
0.000000
  0
ENDSEC
  0
EOF
