  0
SECTION
  2
HEADER
  9
$CLAYER
  8
1
  9
$LTSCALE
 40
3.0
  0
ENDSEC
  0
SECTION
  2
TABLES
  0
TABLE
  2
LTYPE
 70
     4
  0
LTYPE
  2
CONTINUOUS
  3
solid line
 70
    64
 72
    65
 73
     0
 40
0.0
  0
LTYPE
  2
DASHED
  3
__ __ __ __ __ __ __ __ __ __ __ __ __ __ __
 70
    64
 72
    65
 73
     2
 40
0.75
 49
0.5
 49
-0.25
  0
LTYPE
  2
CENTER
  3
____ _ ____ _ ____ _ ____ _ ____ _ ____ _ ____
 70
    64
 72
    65
 73
     4
 40
2.0
 49
1.25
 49
-0.25
 49
0.25
 49
-0.25
  0
LTYPE
  2
PHANTOM
  3
_____ _ _ _____ _ _ _____ _ _ _____ _ _ ____
 70
    64
 72
    65
 73
     6
 40
2.5
 49
1.25
 49
-0.25
 49
0.25
 49
-0.25
 49
0.25
 49
-0.25
  0
ENDTAB
  0
TABLE
  2
LAYER
 70
     1
  0
LAYER
  2
0
 70
    64
 62
     7
  6
CONTINUOUS
  0
ENDTAB
  0
TABLE
  2
STYLE
 70
     1
  0
STYLE
  2
STANDARD
 70
     0
 40
0.000000
 41
1.000000
 50
0.000000
 71
     0
 42
3.000000
  3
txt
  4
BIGFONT
  0
ENDTAB
  0
ENDSEC
  0
SECTION
  2
BLOCKS
  0
ENDSEC
  0
SECTION
  2
ENTITIES
  0
LINE
  8
0
  6
CONTINUOUS
 10
4.291875
 20
18.588751
 11
4.291875
 21
88.588753
  0
LINE
  8
0
  6
CONTINUOUS
 10
8.833325
 20
98.588753
 11
24.791876
 21
98.588753
  0
LINE
  8
0
  6
CONTINUOUS
 10
4.791875
 20
95.588753
 11
4.791875
 21
11.588750
  0
LINE
  8
0
  6
CONTINUOUS
 10
24.791876
 20
87.998047
 11
6.541875
 21
87.998047
  0
LINE
  8
0
  6
CONTINUOUS
 10
5.369225
 20
96.588753
 11
4.791875
 21
95.588753
  0
ARC
  8
0
  6
CONTINUOUS
 10
8.833345
 20
94.588753
 40
4.000000
 50
90.000000
 51
150.000397
  0
LINE
  8
0
  6
CONTINUOUS
 10
8.833325
 20
8.588750
 11
24.791876
 21
8.588750
  0
LINE
  8
0
  6
CONTINUOUS
 10
24.791876
 20
19.179449
 11
6.541875
 21
19.179449
  0
LINE
  8
0
  6
CONTINUOUS
 10
5.369225
 20
10.588760
 11
4.791875
 21
11.588750
  0
ARC
  8
0
  6
CONTINUOUS
 10
8.833345
 20
12.588740
 40
4.000000
 50
-150.000397
 51
-90.000000
  0
LINE
  8
0
  6
CONTINUOUS
 10
4.291875
 20
88.588753
 11
4.791875
 21
89.088753
  0
LINE
  8
0
  6
CONTINUOUS
 10
4.291875
 20
18.588751
 11
4.791875
 21
18.088770
  0
LINE
  8
0
  6
CONTINUOUS
 10
24.791876
 20
8.588750
 11
24.791876
 21
98.588753
  0
LINE
  8
0
  6
CENTER
 10
-3.858125
 20
53.588749
 11
153.068573
 21
53.588749
  0
LINE
  8
0
  6
CONTINUOUS
 10
143.791870
 20
98.588753
 11
143.791870
 21
1.588750
  0
LINE
  8
0
  6
CONTINUOUS
 10
87.791878
 20
17.179449
 11
87.791878
 21
1.588750
  0
LINE
  8
0
  6
CENTER
 10
122.211578
 20
66.588753
 11
184.291870
 21
66.588753
  0
LINE
  8
0
  6
CONTINUOUS
 10
87.791878
 20
1.588750
 11
143.791870
 21
1.588750
  0
LINE
  8
0
  6
CONTINUOUS
 10
89.791878
 20
9.588750
 11
141.791870
 21
9.588750
  0
LINE
  8
0
  6
CENTER
 10
135.791870
 20
14.284130
 11
135.791870
 21
-5.661250
  0
LINE
  8
0
  6
CENTER
 10
95.791878
 20
14.284130
 11
95.791878
 21
-6.411250
  0
LINE
  8
0
  6
CONTINUOUS
 10
24.791876
 20
98.588753
 11
143.791870
 21
98.588753
  0
LINE
  8
0
  6
CONTINUOUS
 10
24.791876
 20
8.588750
 11
87.791878
 21
8.588750
  0
LINE
  8
0
  6
CONTINUOUS
 10
176.791870
 20
74.088753
 11
176.791870
 21
59.088749
  0
LINE
  8
0
  6
CONTINUOUS
 10
149.791870
 20
75.088753
 11
149.791870
 21
58.088749
  0
LINE
  8
0
  6
CONTINUOUS
 10
149.791870
 20
74.088753
 11
176.791870
 21
74.088753
  0
LINE
  8
0
  6
CONTINUOUS
 10
149.791870
 20
59.088749
 11
176.791870
 21
59.088749
  0
ARC
  8
0
  6
CONTINUOUS
 10
141.791870
 20
7.588740
 40
2.000000
 50
0.000000
 51
90.000000
  0
ARC
  8
0
  6
CONTINUOUS
 10
89.791878
 20
7.588760
 40
2.000000
 50
90.000000
 51
180.000000
  0
LINE
  8
0
  6
DASHED
 10
139.041870
 20
9.588750
 11
139.041870
 21
1.588750
  0
LINE
  8
0
  6
DASHED
 10
132.541870
 20
9.588750
 11
132.541870
 21
1.588750
  0
LINE
  8
0
  6
DASHED
 10
99.041878
 20
9.588750
 11
99.041878
 21
1.588750
  0
LINE
  8
0
  6
DASHED
 10
92.541878
 20
9.588750
 11
92.541878
 21
1.588750
  0
LINE
  8
0
  6
CONTINUOUS
 10
125.791878
 20
11.588740
 11
125.791878
 21
26.588751
  0
LINE
  8
0
  6
CONTINUOUS
 10
105.791878
 20
11.588750
 11
105.791878
 21
26.588739
  0
LINE
  8
0
  6
CONTINUOUS
 10
143.791870
 20
87.998047
 11
24.791876
 21
87.998047
  0
LINE
  8
0
  6
CONTINUOUS
 10
85.791878
 20
19.179461
 11
24.791876
 21
19.179461
  0
LINE
  8
0
  6
CONTINUOUS
 10
125.166878
 20
26.021370
 11
106.291878
 21
26.021370
  0
ARC
  8
0
  6
CONTINUOUS
 10
127.791878
 20
26.588751
 40
2.000000
 50
90.000000
 51
180.000000
  0
ARC
  8
0
  6
CONTINUOUS
 10
103.791878
 20
26.588739
 40
2.000000
 50
0.000000
 51
90.000000
  0
ARC
  8
0
  6
CONTINUOUS
 10
127.791878
 20
11.588750
 40
2.000000
 50
180.000000
 51
270.000000
  0
ARC
  8
0
  6
CONTINUOUS
 10
103.791878
 20
11.588750
 40
2.000000
 50
-90.000000
 51
0.000000
  0
ARC
  8
0
  6
CONTINUOUS
 10
85.791878
 20
17.179449
 40
2.000000
 50
0.000000
 51
90.000000
  0
LINE
  8
0
  6
CONTINUOUS
 10
143.791870
 20
19.179461
 11
126.791878
 21
19.179461
  0
LINE
  8
0
  6
CONTINUOUS
 10
105.166878
 20
19.179461
 11
87.479378
 21
19.179461
  0
LINE
  8
0
  6
CONTINUOUS
 10
155.291870
 20
69.088753
 11
176.791870
 21
69.088753
  0
LINE
  8
0
  6
CONTINUOUS
 10
155.291870
 20
64.088753
 11
176.791870
 21
64.088753
  0
ARC
  8
0
  6
CONTINUOUS
 10
155.291870
 20
66.588753
 40
2.500000
 50
90.000000
 51
180.000000
  0
ARC
  8
0
  6
CONTINUOUS
 10
155.291870
 20
66.588753
 40
2.500000
 50
180.000000
 51
270.000000
  0
LINE
  8
0
  6
CONTINUOUS
 10
146.791870
 20
86.588753
 11
143.791870
 21
86.588753
  0
LINE
  8
0
  6
CONTINUOUS
 10
146.791870
 20
46.588749
 11
143.791870
 21
46.588749
  0
LINE
  8
0
  6
CONTINUOUS
 10
147.791870
 20
47.588749
 11
147.791870
 21
85.588753
  0
ARC
  8
0
  6
CONTINUOUS
 10
146.791870
 20
85.588753
 40
1.000000
 50
0.000000
 51
90.000000
  0
ARC
  8
0
  6
CONTINUOUS
 10
146.791870
 20
47.588749
 40
1.000000
 50
-90.000000
 51
0.000000
  0
LINE
  8
0
  6
CONTINUOUS
 10
147.791870
 20
75.088753
 11
149.791870
 21
75.088753
  0
LINE
  8
0
  6
CONTINUOUS
 10
147.791870
 20
58.088749
 11
149.791870
 21
58.088749
  0
LINE
  8
0
  6
CENTER
 10
299.624390
 20
-5.263290
 11
299.624390
 21
140.376877
  0
LINE
  8
0
  6
CENTER
 10
246.124374
 20
53.588749
 11
353.124390
 21
53.588749
  0
LINE
  8
0
  6
CENTER
 10
274.230621
 20
66.588753
 11
327.092285
 21
66.588753
  0
LINE
  8
0
  6
CONTINUOUS
 10
332.624390
 20
1.588750
 11
351.624390
 21
1.588750
  0
LINE
  8
0
  6
CONTINUOUS
 10
351.624390
 20
7.588750
 11
351.624390
 21
1.588750
  0
LINE
  8
0
  6
CONTINUOUS
 10
349.624390
 20
9.588750
 11
337.624390
 21
9.588750
  0
LINE
  8
0
  6
CONTINUOUS
 10
331.624390
 20
2.588750
 11
299.624390
 21
2.588750
  0
ARC
  8
0
  6
CONTINUOUS
 10
299.624390
 20
53.588749
 40
45.000000
 50
-38.942440
 51
49.875912
  0
LINE
  8
0
  6
CONTINUOUS
 10
326.659271
 20
98.116852
 11
299.624390
 21
98.588753
  0
ARC
  8
0
  6
CONTINUOUS
 10
326.624390
 20
96.117149
 40
2.000000
 50
0.000000
 51
89.000191
  0
LINE
  8
0
  6
CONTINUOUS
 10
328.624390
 20
96.117149
 11
328.624390
 21
87.998047
  0
ARC
  8
0
  6
CONTINUOUS
 10
349.624390
 20
7.588740
 40
2.000000
 50
0.000000
 51
90.000000
  0
LINE
  8
0
  6
CENTER
 10
344.624390
 20
12.963750
 11
344.624390
 21
-4.161250
  0
LINE
  8
0
  6
DASHED
 10
347.874390
 20
9.588750
 11
347.874390
 21
1.588750
  0
LINE
  8
0
  6
DASHED
 10
341.374390
 20
9.588750
 11
341.374390
 21
1.588750
  0
LINE
  8
0
  6
CONTINUOUS
 10
339.624390
 20
67.950150
 11
339.624390
 21
39.227612
  0
ARC
  8
0
  6
CONTINUOUS
 10
299.624390
 20
53.588749
 40
42.500000
 50
270.000000
 51
340.250092
  0
ARC
  8
0
  6
CONTINUOUS
 10
299.624390
 20
53.588749
 40
42.500000
 50
19.749901
 51
90.000000
  0
LINE
  8
0
  6
CONTINUOUS
 10
266.624390
 20
1.588750
 11
247.624374
 21
1.588750
  0
LINE
  8
0
  6
CONTINUOUS
 10
247.624374
 20
7.588750
 11
247.624374
 21
1.588750
  0
LINE
  8
0
  6
CONTINUOUS
 10
249.624374
 20
9.588750
 11
261.624390
 21
9.588750
  0
LINE
  8
0
  6
CONTINUOUS
 10
267.624390
 20
2.588750
 11
299.624390
 21
2.588750
  0
ARC
  8
0
  6
CONTINUOUS
 10
299.624390
 20
53.588749
 40
45.000000
 50
130.124100
 51
218.942398
  0
LINE
  8
0
  6
CONTINUOUS
 10
272.589478
 20
98.116852
 11
299.624390
 21
98.588753
  0
ARC
  8
0
  6
CONTINUOUS
 10
272.624390
 20
96.117149
 40
2.000000
 50
90.999809
 51
180.000000
  0
LINE
  8
0
  6
CONTINUOUS
 10
270.624390
 20
96.117149
 11
270.624390
 21
87.998047
  0
ARC
  8
0
  6
CONTINUOUS
 10
249.624374
 20
7.588740
 40
2.000000
 50
90.000000
 51
180.000000
  0
LINE
  8
0
  6
CENTER
 10
254.624374
 20
12.963750
 11
254.624374
 21
-4.161250
  0
LINE
  8
0
  6
DASHED
 10
251.374374
 20
9.588750
 11
251.374374
 21
1.588750
  0
LINE
  8
0
  6
DASHED
 10
257.874390
 20
9.588750
 11
257.874390
 21
1.588750
  0
LINE
  8
0
  6
CONTINUOUS
 10
259.624390
 20
67.950150
 11
259.624390
 21
39.227612
  0
ARC
  8
0
  6
CONTINUOUS
 10
299.624390
 20
53.588749
 40
42.500000
 50
-160.250107
 51
-90.000000
  0
ARC
  8
0
  6
CONTINUOUS
 10
299.624390
 20
53.588749
 40
42.500000
 50
90.000000
 51
160.250107
  0
CIRCLE
  8
0
  6
CONTINUOUS
 10
299.624390
 20
66.588753
 40
20.000000
  0
LINE
  8
0
  6
CONTINUOUS
 10
290.124390
 20
69.088753
 11
295.124390
 21
69.088753
  0
LINE
  8
0
  6
CONTINUOUS
 10
290.124390
 20
64.088753
 11
295.124390
 21
64.088753
  0
LINE
  8
0
  6
CONTINUOUS
 10
290.124390
 20
64.088753
 11
290.124390
 21
69.088753
  0
ARC
  8
0
  6
CONTINUOUS
 10
299.624390
 20
66.588753
 40
7.500000
 50
-160.528793
 51
160.528793
  0
LINE
  8
0
  6
CONTINUOUS
 10
295.124390
 20
69.088753
 11
295.124390
 21
64.088753
  0
LINE
  8
0
  6
CONTINUOUS
 10
334.624390
 20
25.304480
 11
334.624390
 21
12.588740
  0
LINE
  8
0
  6
CONTINUOUS
 10
264.624390
 20
12.588750
 11
264.624390
 21
25.304480
  0
LINE
  8
0
  6
CONTINUOUS
 10
351.038574
 20
9.002950
 11
334.691772
 21
25.349840
  0
LINE
  8
0
  6
CONTINUOUS
 10
248.210175
 20
9.002950
 11
264.573975
 21
25.366920
  0
ARC
  8
0
  6
CONTINUOUS
 10
337.624390
 20
12.588750
 40
3.000000
 50
180.000000
 51
270.000000
  0
ARC
  8
0
  6
CONTINUOUS
 10
261.624390
 20
12.588750
 40
3.000000
 50
-90.000000
 51
0.000000
  0
LINE
  8
0
  6
CONTINUOUS
 10
332.624390
 20
1.588750
 11
331.624390
 21
2.588750
  0
LINE
  8
0
  6
CONTINUOUS
 10
266.624390
 20
1.588750
 11
267.624390
 21
2.588750
  0
LINE
  8
0
  6
CONTINUOUS
 10
293.249390
 20
36.141972
 11
293.249390
 21
30.588751
  0
LINE
  8
0
  6
CONTINUOUS
 10
296.436890
 20
38.159061
 11
296.436890
 21
40.151249
  0
LINE
  8
0
  6
CONTINUOUS
 10
302.811890
 20
38.159061
 11
302.811890
 21
40.151249
  0
LINE
  8
0
  6
CONTINUOUS
 10
299.001770
 20
38.980839
 11
299.001770
 21
31.634649
  0
LINE
  8
0
  6
CONTINUOUS
 10
300.197174
 20
38.980839
 11
300.197174
 21
31.634649
  0
LINE
  8
0
  6
CONTINUOUS
 10
306.472473
 20
38.980839
 11
306.472473
 21
31.584841
  0
LINE
  8
0
  6
CONTINUOUS
 10
307.568176
 20
35.058720
 11
307.568176
 21
31.584841
  0
LINE
  8
0
  6
CONTINUOUS
 10
291.736877
 20
38.881229
 11
288.664978
 21
38.881229
  0
LINE
  8
0
  6
CONTINUOUS
 10
288.664978
 20
38.881229
 11
287.945160
 21
37.988739
  0
LINE
  8
0
  6
CONTINUOUS
 10
288.031769
 20
40.151249
 11
286.874390
 21
38.669239
  0
LINE
  8
0
  6
CONTINUOUS
 10
287.945160
 20
32.479671
 11
288.676483
 21
31.709360
  0
LINE
  8
0
  6
CONTINUOUS
 10
286.874390
 20
31.829599
 11
288.104187
 21
30.588751
  0
LINE
  8
0
  6
CONTINUOUS
 10
286.874390
 20
38.669239
 11
286.874390
 21
31.829599
  0
LINE
  8
0
  6
CONTINUOUS
 10
287.945160
 20
37.988739
 11
287.945160
 21
32.479671
  0
LINE
  8
0
  6
CONTINUOUS
 10
292.327972
 20
38.309799
 11
291.724762
 21
38.881229
  0
LINE
  8
0
  6
CONTINUOUS
 10
292.318390
 20
40.151249
 11
293.249390
 21
39.118099
  0
LINE
  8
0
  6
CONTINUOUS
 10
292.327972
 20
38.159061
 11
293.249390
 21
38.159061
  0
LINE
  8
0
  6
CONTINUOUS
 10
288.031769
 20
40.151249
 11
292.318390
 21
40.151249
  0
LINE
  8
0
  6
CONTINUOUS
 10
292.327972
 20
35.096069
 11
290.659576
 21
35.096069
  0
LINE
  8
0
  6
CONTINUOUS
 10
292.327972
 20
34.099979
 11
292.327972
 21
34.896858
  0
LINE
  8
0
  6
CONTINUOUS
 10
290.335785
 20
31.709360
 11
288.676483
 21
31.709360
  0
ARC
  8
0
  6
CONTINUOUS
 10
290.335785
 20
33.701542
 40
1.992187
 50
-89.999786
 51
0.000109
  0
LINE
  8
0
  6
CONTINUOUS
 10
292.327972
 20
31.351021
 11
292.327972
 21
30.588751
  0
LINE
  8
0
  6
CONTINUOUS
 10
293.249390
 20
39.118099
 11
293.249390
 21
38.159061
  0
LINE
  8
0
  6
CONTINUOUS
 10
292.327972
 20
35.096069
 11
292.327972
 21
33.701542
  0
LINE
  8
0
  6
CONTINUOUS
 10
290.659576
 20
36.141972
 11
290.659576
 21
35.096069
  0
LINE
  8
0
  6
CONTINUOUS
 10
292.327972
 20
30.588751
 11
293.249390
 21
30.588751
  0
LINE
  8
0
  6
CONTINUOUS
 10
292.327972
 20
31.351021
 11
291.419373
 21
30.588751
  0
LINE
  8
0
  6
CONTINUOUS
 10
300.197174
 20
31.634649
 11
300.595581
 21
31.634649
  0
LINE
  8
0
  6
CONTINUOUS
 10
298.528687
 20
31.634649
 11
298.528687
 21
30.588751
  0
LINE
  8
0
  6
CONTINUOUS
 10
300.595581
 20
31.634649
 11
300.595581
 21
30.588751
  0
LINE
  8
0
  6
CONTINUOUS
 10
302.146973
 20
38.159061
 11
302.811890
 21
38.159061
  0
LINE
  8
0
  6
CONTINUOUS
 10
296.436890
 20
38.159061
 11
297.144470
 21
38.159061
  0
LINE
  8
0
  6
CONTINUOUS
 10
296.436890
 20
40.151249
 11
302.811890
 21
40.151249
  0
LINE
  8
0
  6
CONTINUOUS
 10
298.528687
 20
30.588751
 11
300.595581
 21
30.588751
  0
LINE
  8
0
  6
CONTINUOUS
 10
298.528687
 20
31.634649
 11
299.001770
 21
31.634649
  0
ARC
  8
0
  6
CONTINUOUS
 10
309.821869
 20
37.598759
 40
2.552490
 50
-73.981873
 51
90.003510
  0
ARC
  8
0
  6
CONTINUOUS
 10
309.821869
 20
37.598759
 40
1.557193
 50
-82.585274
 51
62.411850
  0
LINE
  8
0
  6
CONTINUOUS
 10
305.999390
 20
40.151249
 11
309.821869
 21
40.151249
  0
LINE
  8
0
  6
CONTINUOUS
 10
305.999390
 20
40.151249
 11
305.999390
 21
38.980839
  0
LINE
  8
0
  6
CONTINUOUS
 10
307.568176
 20
38.980839
 11
307.568176
 21
36.054588
  0
LINE
  8
0
  6
CONTINUOUS
 10
310.526276
 20
35.145359
 11
312.106079
 21
31.584841
  0
LINE
  8
0
  6
CONTINUOUS
 10
309.608673
 20
35.058720
 11
311.103668
 21
31.584841
  0
LINE
  8
0
  6
CONTINUOUS
 10
305.999390
 20
31.584841
 11
306.472473
 21
31.584841
  0
LINE
  8
0
  6
CONTINUOUS
 10
307.568176
 20
31.584841
 11
308.003967
 21
31.584841
  0
LINE
  8
0
  6
CONTINUOUS
 10
308.003967
 20
30.588751
 11
305.999390
 21
30.588751
  0
LINE
  8
0
  6
CONTINUOUS
 10
310.905182
 20
31.584841
 11
311.103668
 21
31.584841
  0
LINE
  8
0
  6
CONTINUOUS
 10
312.106079
 20
31.584841
 11
312.374390
 21
31.584841
  0
LINE
  8
0
  6
CONTINUOUS
 10
310.905182
 20
30.588751
 11
312.374390
 21
30.588751
  0
LINE
  8
0
  6
CONTINUOUS
 10
312.374390
 20
31.584841
 11
312.374390
 21
30.588751
  0
LINE
  8
0
  6
CONTINUOUS
 10
310.905182
 20
31.584841
 11
310.905182
 21
30.588751
  0
LINE
  8
0
  6
CONTINUOUS
 10
308.003967
 20
31.584841
 11
308.003967
 21
30.588751
  0
LINE
  8
0
  6
CONTINUOUS
 10
305.999390
 20
31.584841
 11
305.999390
 21
30.588751
  0
LINE
  8
0
  6
CONTINUOUS
 10
297.486877
 20
38.980839
 11
297.144470
 21
38.159061
  0
LINE
  8
0
  6
CONTINUOUS
 10
301.858185
 20
38.980839
 11
302.146973
 21
38.159061
  0
LINE
  8
0
  6
CONTINUOUS
 10
300.197174
 20
38.980839
 11
301.858185
 21
38.980839
  0
LINE
  8
0
  6
CONTINUOUS
 10
299.001770
 20
38.980839
 11
297.486877
 21
38.980839
  0
LINE
  8
0
  6
CONTINUOUS
 10
305.999390
 20
38.980839
 11
306.472473
 21
38.980839
  0
LINE
  8
0
  6
CONTINUOUS
 10
307.568176
 20
38.980839
 11
310.543060
 21
38.978901
  0
LINE
  8
0
  6
CONTINUOUS
 10
292.327972
 20
38.309799
 11
292.327972
 21
38.159061
  0
LINE
  8
0
  6
CONTINUOUS
 10
288.104187
 20
30.588751
 11
291.419373
 21
30.588751
  0
LINE
  8
0
  6
CONTINUOUS
 10
307.568176
 20
36.054588
 11
310.022888
 21
36.054588
  0
LINE
  8
0
  6
CONTINUOUS
 10
307.568176
 20
35.058720
 11
309.608673
 21
35.058720
  0
LINE
  8
0
  6
CONTINUOUS
 10
290.659576
 20
36.141972
 11
293.249390
 21
36.141972
  0
LINE
  8
0
  6
CONTINUOUS
 10
143.791870
 20
273.101257
 11
143.791870
 21
175.101257
  0
LINE
  8
0
  6
CENTER
 10
-0.540625
 20
224.101257
 11
179.709381
 21
224.101257
  0
LINE
  8
0
  6
CONTINUOUS
 10
24.791876
 20
253.101257
 11
143.791870
 21
253.101257
  0
LINE
  8
0
  6
CONTINUOUS
 10
24.791876
 20
269.101257
 11
143.791870
 21
269.101257
  0
LINE
  8
0
  6
CONTINUOUS
 10
24.791876
 20
179.101257
 11
143.791870
 21
179.101257
  0
LINE
  8
0
  6
CONTINUOUS
 10
4.291875
 20
189.101257
 11
4.291875
 21
259.101257
  0
LINE
  8
0
  6
CONTINUOUS
 10
8.833325
 20
269.101257
 11
24.791876
 21
269.101257
  0
LINE
  8
0
  6
CONTINUOUS
 10
4.791875
 20
266.101257
 11
4.791875
 21
182.101257
  0
LINE
  8
0
  6
CONTINUOUS
 10
24.791876
 20
253.101257
 11
6.541875
 21
253.101257
  0
LINE
  8
0
  6
CONTINUOUS
 10
5.369225
 20
267.101257
 11
4.791875
 21
266.101257
  0
ARC
  8
0
  6
CONTINUOUS
 10
8.833345
 20
265.101257
 40
4.000000
 50
90.000000
 51
150.000397
  0
LINE
  8
0
  6
CONTINUOUS
 10
8.833325
 20
179.101257
 11
24.791876
 21
179.101257
  0
LINE
  8
0
  6
CONTINUOUS
 10
5.369225
 20
181.101257
 11
4.791875
 21
182.101257
  0
ARC
  8
0
  6
CONTINUOUS
 10
8.833345
 20
183.101242
 40
4.000000
 50
-150.000397
 51
-90.000000
  0
LINE
  8
0
  6
CONTINUOUS
 10
4.291875
 20
259.101257
 11
4.791875
 21
259.601257
  0
LINE
  8
0
  6
CONTINUOUS
 10
4.291875
 20
189.101257
 11
4.791875
 21
188.601273
  0
LINE
  8
0
  6
CONTINUOUS
 10
24.791876
 20
179.101257
 11
24.791876
 21
199.101227
  0
LINE
  8
0
  6
CONTINUOUS
 10
176.791870
 20
231.601257
 11
176.791870
 21
214.601257
  0
LINE
  8
0
  6
CONTINUOUS
 10
149.791870
 20
232.601257
 11
149.791870
 21
215.601257
  0
LINE
  8
0
  6
CONTINUOUS
 10
149.791870
 20
231.601257
 11
176.791870
 21
231.601257
  0
LINE
  8
0
  6
CONTINUOUS
 10
149.791870
 20
216.601257
 11
152.791870
 21
216.601257
  0
LINE
  8
0
  6
CONTINUOUS
 10
146.791870
 20
244.101257
 11
143.791870
 21
244.101257
  0
LINE
  8
0
  6
CONTINUOUS
 10
146.791870
 20
204.101257
 11
143.791870
 21
204.101257
  0
LINE
  8
0
  6
CONTINUOUS
 10
147.791870
 20
205.101257
 11
147.791870
 21
243.101257
  0
ARC
  8
0
  6
CONTINUOUS
 10
146.791870
 20
243.101257
 40
1.000000
 50
0.000000
 51
90.000000
  0
ARC
  8
0
  6
CONTINUOUS
 10
146.791870
 20
205.101257
 40
1.000000
 50
-90.000000
 51
0.000000
  0
LINE
  8
0
  6
CONTINUOUS
 10
147.791870
 20
232.601257
 11
149.791870
 21
232.601257
  0
LINE
  8
0
  6
CONTINUOUS
 10
147.791870
 20
215.601257
 11
149.791870
 21
215.601257
  0
LINE
  8
0
  6
CONTINUOUS
 10
152.791870
 20
217.030243
 11
152.791870
 21
214.601257
  0
LINE
  8
0
  6
CONTINUOUS
 10
152.791870
 20
214.601257
 11
176.791870
 21
214.601257
  0
LINE
  8
0
  6
CONTINUOUS
 10
152.791870
 20
217.030243
 11
176.791870
 21
217.030243
  0
LINE
  8
0
  6
CONTINUOUS
 10
90.791878
 20
276.101257
 11
140.791870
 21
276.101257
  0
LINE
  8
0
  6
CONTINUOUS
 10
87.791878
 20
273.101257
 11
87.791878
 21
269.101257
  0
LINE
  8
0
  6
CENTER
 10
130.010788
 20
269.101257
 11
142.159378
 21
269.101257
  0
LINE
  8
0
  6
CENTER
 10
135.791870
 20
279.701569
 11
135.791870
 21
261.665009
  0
LINE
  8
0
  6
CENTER
 10
95.791878
 20
279.254364
 11
95.791878
 21
263.006561
  0
LINE
  8
0
  6
CENTER
 10
88.794998
 20
269.101257
 11
104.297501
 21
269.101257
  0
ARC
  8
0
  6
DASHED
 10
135.791870
 20
269.101257
 40
3.250000
 50
-180.000000
 51
0.000000
  0
ARC
  8
0
  6
CONTINUOUS
 10
95.791878
 20
269.101257
 40
3.250000
 50
0.000000
 51
180.000000
  0
ARC
  8
0
  6
DASHED
 10
95.791878
 20
269.101257
 40
3.250000
 50
-180.000000
 51
0.000000
  0
ARC
  8
0
  6
CONTINUOUS
 10
135.791870
 20
269.101257
 40
3.250000
 50
0.000000
 51
180.000000
  0
ARC
  8
0
  6
CONTINUOUS
 10
140.791870
 20
273.101257
 40
3.000000
 50
0.000000
 51
90.000000
  0
ARC
  8
0
  6
CONTINUOUS
 10
90.791878
 20
273.101257
 40
3.000000
 50
90.000000
 51
180.000000
  0
LINE
  8
0
  6
CONTINUOUS
 10
90.791878
 20
172.101257
 11
140.791870
 21
172.101257
  0
LINE
  8
0
  6
CONTINUOUS
 10
87.791878
 20
175.101257
 11
87.791878
 21
179.101257
  0
LINE
  8
0
  6
CENTER
 10
130.010788
 20
179.101257
 11
142.159378
 21
179.101257
  0
LINE
  8
0
  6
CENTER
 10
135.791870
 20
168.500931
 11
135.791870
 21
186.537506
  0
LINE
  8
0
  6
CENTER
 10
95.791878
 20
168.948120
 11
95.791878
 21
185.195938
  0
LINE
  8
0
  6
CENTER
 10
88.794998
 20
179.101257
 11
104.297501
 21
179.101257
  0
ARC
  8
0
  6
DASHED
 10
135.791870
 20
179.101257
 40
3.250000
 50
0.000000
 51
180.000000
  0
ARC
  8
0
  6
CONTINUOUS
 10
95.791878
 20
179.101257
 40
3.250000
 50
-180.000000
 51
0.000000
  0
ARC
  8
0
  6
DASHED
 10
95.791878
 20
179.101257
 40
3.250000
 50
0.000000
 51
180.000000
  0
ARC
  8
0
  6
CONTINUOUS
 10
135.791870
 20
179.101257
 40
3.250000
 50
-180.000000
 51
0.000000
  0
ARC
  8
0
  6
CONTINUOUS
 10
140.791870
 20
175.101257
 40
3.000000
 50
-90.000000
 51
0.000000
  0
ARC
  8
0
  6
CONTINUOUS
 10
90.791878
 20
175.101257
 40
3.000000
 50
-180.000000
 51
-90.000000
  0
LINE
  8
0
  6
CONTINUOUS
 10
24.791876
 20
195.101257
 11
143.791870
 21
195.101257
  0
LINE
  8
0
  6
CONTINUOUS
 10
24.791876
 20
195.101257
 11
6.541875
 21
195.101257
  0
LINE
  8
0
  6
CONTINUOUS
 10
24.791876
 20
249.101227
 11
24.791876
 21
269.101257
  0
LINE
  8
0
  6
CONTINUOUS
 10
17.291876
 20
100.088753
 11
63.791874
 21
100.088753
  0
LINE
  8
0
  6
CONTINUOUS
 10
65.791862
 20
130.088745
 11
65.791878
 21
102.088753
  0
LINE
  8
0
  6
CONTINUOUS
 10
15.791875
 20
130.088745
 11
15.791875
 21
102.088753
  0
LINE
  8
0
  6
CONTINUOUS
 10
13.791875
 20
112.088753
 11
65.791878
 21
112.088753
  0
LINE
  8
0
  6
CONTINUOUS
 10
63.791874
 20
100.088753
 11
65.791878
 21
102.088753
  0
LINE
  8
0
  6
CONTINUOUS
 10
15.791875
 20
102.088753
 11
17.791876
 21
100.088753
  0
LINE
  8
0
  6
CONTINUOUS
 10
15.791875
 20
102.088753
 11
65.791878
 21
102.088753
  0
LINE
  8
0
  6
CONTINUOUS
 10
16.791876
 20
131.088745
 11
64.791862
 21
131.088745
  0
LINE
  8
0
  6
CONTINUOUS
 10
64.791862
 20
131.088745
 11
65.791862
 21
130.088745
  0
LINE
  8
0
  6
CONTINUOUS
 10
16.791876
 20
131.088745
 11
15.791875
 21
130.088745
  0
LINE
  8
0
  6
CONTINUOUS
 10
15.791875
 20
130.088745
 11
65.791862
 21
130.088745
  0
LINE
  8
0
  6
CENTER
 10
7.848127
 20
121.588753
 11
19.923124
 21
121.588753
  0
LINE
  8
0
  6
CONTINUOUS
 10
13.791883
 20
128.088745
 11
13.791875
 21
112.088753
  0
LINE
  8
0
  6
CONTINUOUS
 10
14.791875
 20
129.088745
 11
15.791875
 21
129.088745
  0
ARC
  8
0
  6
CONTINUOUS
 10
14.791885
 20
128.088745
 40
1.000000
 50
90.000000
 51
180.000000
  0
LINE
  8
0
  6
CONTINUOUS
 10
10.291883
 20
125.588753
 11
10.291883
 21
117.588753
  0
LINE
  8
0
  6
CONTINUOUS
 10
10.291883
 20
125.588753
 11
13.791883
 21
127.088753
  0
LINE
  8
0
  6
CONTINUOUS
 10
10.291875
 20
117.588753
 11
13.791875
 21
116.088753
  0
LINE
  8
0
  6
CENTER
 10
40.791874
 20
95.394997
 11
40.791874
 21
136.476257
  0
LINE
  8
0
  6
CONTINUOUS
 10
17.291876
 20
100.088753
 11
17.291876
 21
98.588753
  0
LINE
  8
0
  6
CONTINUOUS
 10
63.291874
 20
100.088753
 11
63.291874
 21
98.588753
  0
LINE
  8
0
  6
CONTINUOUS
 10
276.624390
 20
100.088753
 11
322.624390
 21
100.088753
  0
LINE
  8
0
  6
CONTINUOUS
 10
324.624390
 20
130.088745
 11
324.624390
 21
102.088753
  0
LINE
  8
0
  6
CONTINUOUS
 10
274.624390
 20
130.088745
 11
274.624390
 21
102.088753
  0
LINE
  8
0
  6
CONTINUOUS
 10
274.624390
 20
112.088753
 11
324.624390
 21
112.088753
  0
LINE
  8
0
  6
CONTINUOUS
 10
322.624390
 20
100.088753
 11
324.624390
 21
102.088753
  0
LINE
  8
0
  6
CONTINUOUS
 10
274.624390
 20
102.088753
 11
276.624390
 21
100.088753
  0
LINE
  8
0
  6
CONTINUOUS
 10
274.624390
 20
102.088753
 11
324.624390
 21
102.088753
  0
LINE
  8
0
  6
CONTINUOUS
 10
275.624390
 20
131.088745
 11
323.624390
 21
131.088745
  0
LINE
  8
0
  6
CONTINUOUS
 10
323.624390
 20
131.088745
 11
324.624390
 21
130.088745
  0
LINE
  8
0
  6
CONTINUOUS
 10
275.624390
 20
131.088745
 11
274.624390
 21
130.088745
  0
LINE
  8
0
  6
CONTINUOUS
 10
274.624390
 20
130.088745
 11
324.624390
 21
130.088745
  0
LINE
  8
0
  6
CONTINUOUS
 10
322.124390
 20
100.088753
 11
322.124390
 21
98.196022
  0
LINE
  8
0
  6
CONTINUOUS
 10
277.124390
 20
100.088753
 11
277.124390
 21
98.196022
  0
LINE
  8
0
  6
CONTINUOUS
 10
14.791875
 20
231.601227
 11
15.791875
 21
231.601227
  0
ARC
  8
0
  6
CONTINUOUS
 10
14.791895
 20
230.601227
 40
1.000000
 50
90.000000
 51
180.000000
  0
LINE
  8
0
  6
CONTINUOUS
 10
10.291890
 20
228.101227
 11
10.291890
 21
220.101227
  0
LINE
  8
0
  6
CONTINUOUS
 10
10.291890
 20
228.101227
 11
13.791890
 21
229.601227
  0
LINE
  8
0
  6
CONTINUOUS
 10
10.291875
 20
220.101227
 11
13.791875
 21
218.601227
  0
LINE
  8
0
  6
CONTINUOUS
 10
13.791890
 20
230.601227
 11
13.791890
 21
217.601227
  0
LINE
  8
0
  6
CONTINUOUS
 10
14.791875
 20
216.601227
 11
15.791875
 21
216.601227
  0
ARC
  8
0
  6
CONTINUOUS
 10
14.791895
 20
217.601227
 40
1.000000
 50
-180.000000
 51
-90.000000
  0
LINE
  8
0
  6
CONTINUOUS
 10
15.791875
 20
201.101227
 11
15.791875
 21
247.101227
  0
LINE
  8
0
  6
CONTINUOUS
 10
17.791876
 20
249.101227
 11
15.791875
 21
247.101227
  0
LINE
  8
0
  6
CONTINUOUS
 10
17.791876
 20
249.101227
 11
63.791866
 21
249.101227
  0
LINE
  8
0
  6
CONTINUOUS
 10
58.291874
 20
244.601227
 11
58.291874
 21
249.101227
  0
ARC
  8
0
  6
CONTINUOUS
 10
61.291874
 20
244.601227
 40
3.000000
 50
180.000000
 51
270.000000
  0
LINE
  8
0
  6
CONTINUOUS
 10
61.291874
 20
241.601227
 11
65.791862
 21
241.601227
  0
CIRCLE
  8
0
  6
CONTINUOUS
 10
62.291874
 20
245.601227
 40
2.250000
  0
LINE
  8
0
  6
CONTINUOUS
 10
65.791870
 20
201.101227
 11
65.791862
 21
247.101227
  0
LINE
  8
0
  6
CONTINUOUS
 10
63.791866
 20
249.101227
 11
65.791862
 21
247.101227
  0
LINE
  8
0
  6
CONTINUOUS
 10
63.791870
 20
199.101227
 11
65.791870
 21
201.101227
  0
LINE
  8
0
  6
CONTINUOUS
 10
63.791870
 20
199.101227
 11
17.791876
 21
199.101227
  0
LINE
  8
0
  6
CONTINUOUS
 10
15.791875
 20
201.101227
 11
17.791876
 21
199.101227
  0
LINE
  8
0
  6
CONTINUOUS
 10
20.291876
 20
206.601227
 11
15.791885
 21
206.601227
  0
CIRCLE
  8
0
  6
CONTINUOUS
 10
19.291876
 20
202.601227
 40
2.250000
  0
ARC
  8
0
  6
CONTINUOUS
 10
20.291876
 20
203.601227
 40
3.000000
 50
0.000000
 51
90.000000
  0
LINE
  8
0
  6
CONTINUOUS
 10
23.291876
 20
203.601227
 11
23.291876
 21
199.101227
  0
LINE
  8
0
  6
CENTER
 10
40.791874
 20
191.635452
 11
40.791874
 21
255.767487
  0
LINE
  8
0
  6
CONTINUOUS
 10
18.206095
 20
248.101257
 11
16.791882
 21
246.687042
  0
LINE
  8
0
  6
CONTINUOUS
 10
16.791882
 20
206.601257
 11
16.791882
 21
246.687042
  0
LINE
  8
0
  6
CONTINUOUS
 10
58.291874
 20
248.101257
 11
18.206095
 21
248.101257
  0
LINE
  8
0
  6
CONTINUOUS
 10
64.791870
 20
241.601257
 11
64.791870
 21
201.515457
  0
LINE
  8
0
  6
CONTINUOUS
 10
23.291876
 20
200.101257
 11
63.377655
 21
200.101257
  0
LINE
  8
0
  6
CONTINUOUS
 10
63.377655
 20
200.101257
 11
64.791870
 21
201.515457
  0
TEXT
  8
0
 10
-3.000000
 20
-6.000000
 40
4.000000
 41
1.000000
  1
GLM-15-80~120-T40WT
 50
0.000000
  0
ENDSEC
  0
EOF
