  0
SECTION
  2
HEADER
  9
$CLAYER
  8
1
  9
$LTSCALE
 40
3.0
  0
ENDSEC
  0
SECTION
  2
TABLES
  0
TABLE
  2
LTYPE
 70
     4
  0
LTYPE
  2
CONTINUOUS
  3
solid line
 70
    64
 72
    65
 73
     0
 40
0.0
  0
LTYPE
  2
DASHED
  3
__ __ __ __ __ __ __ __ __ __ __ __ __ __ __
 70
    64
 72
    65
 73
     2
 40
0.75
 49
0.5
 49
-0.25
  0
LTYPE
  2
CENTER
  3
____ _ ____ _ ____ _ ____ _ ____ _ ____ _ ____
 70
    64
 72
    65
 73
     4
 40
2.0
 49
1.25
 49
-0.25
 49
0.25
 49
-0.25
  0
LTYPE
  2
PHANTOM
  3
_____ _ _ _____ _ _ _____ _ _ _____ _ _ ____
 70
    64
 72
    65
 73
     6
 40
2.5
 49
1.25
 49
-0.25
 49
0.25
 49
-0.25
 49
0.25
 49
-0.25
  0
ENDTAB
  0
TABLE
  2
LAYER
 70
     1
  0
LAYER
  2
0
 70
    64
 62
     7
  6
CONTINUOUS
  0
ENDTAB
  0
TABLE
  2
STYLE
 70
     1
  0
STYLE
  2
STANDARD
 70
     0
 40
0.000000
 41
1.000000
 50
0.000000
 71
     0
 42
3.000000
  3
txt
  4
BIGFONT
  0
ENDTAB
  0
ENDSEC
  0
SECTION
  2
BLOCKS
  0
ENDSEC
  0
SECTION
  2
ENTITIES
  0
LINE
  8
0
  6
CONTINUOUS
 10
52.900002
 20
98.406876
 11
62.400002
 21
98.406876
  0
LINE
  8
0
  6
CONTINUOUS
 10
62.400002
 20
87.816177
 11
52.900002
 21
87.816177
  0
LINE
  8
0
  6
CONTINUOUS
 10
52.900002
 20
8.406875
 11
62.400002
 21
8.406875
  0
LINE
  8
0
  6
CONTINUOUS
 10
62.400002
 20
18.997585
 11
52.900002
 21
18.997585
  0
LINE
  8
0
  6
CONTINUOUS
 10
52.900002
 20
100.406876
 11
52.900002
 21
6.406875
  0
LINE
  8
0
  6
CONTINUOUS
 10
52.900002
 20
82.406876
 11
8.924970
 21
82.406876
  0
LINE
  8
0
  6
CONTINUOUS
 10
52.900002
 20
24.406876
 11
8.924970
 21
24.406876
  0
LINE
  8
0
  6
CONTINUOUS
 10
10.399980
 20
100.406876
 11
52.900002
 21
100.406876
  0
LINE
  8
0
  6
CONTINUOUS
 10
10.399980
 20
6.406875
 11
52.900002
 21
6.406875
  0
ARC
  8
0
  6
CONTINUOUS
 10
10.400010
 20
95.406876
 40
5.000000
 50
90.000000
 51
180.000000
  0
ARC
  8
0
  6
CONTINUOUS
 10
10.399980
 20
11.406875
 40
5.000000
 50
180.000000
 51
270.000000
  0
LINE
  8
0
  6
CONTINUOUS
 10
5.400010
 20
95.406876
 11
5.399980
 21
11.406865
  0
LINE
  8
0
  6
CONTINUOUS
 10
62.400002
 20
8.406875
 11
62.400002
 21
98.406876
  0
LINE
  8
0
  6
CENTER
 10
-8.947344
 20
53.406876
 11
190.676697
 21
53.406876
  0
LINE
  8
0
  6
CONTINUOUS
 10
181.399994
 20
98.406876
 11
181.399994
 21
1.406875
  0
LINE
  8
0
  6
CONTINUOUS
 10
125.400002
 20
16.997585
 11
125.400002
 21
1.406875
  0
LINE
  8
0
  6
CENTER
 10
159.819702
 20
66.406876
 11
221.899994
 21
66.406876
  0
LINE
  8
0
  6
CONTINUOUS
 10
125.400002
 20
1.406875
 11
181.399994
 21
1.406875
  0
LINE
  8
0
  6
CONTINUOUS
 10
127.400002
 20
9.406875
 11
179.399994
 21
9.406875
  0
LINE
  8
0
  6
CENTER
 10
173.399994
 20
14.102255
 11
173.399994
 21
-5.843125
  0
LINE
  8
0
  6
CENTER
 10
133.399994
 20
14.102255
 11
133.399994
 21
-6.593125
  0
LINE
  8
0
  6
CONTINUOUS
 10
62.400002
 20
98.406876
 11
181.399994
 21
98.406876
  0
LINE
  8
0
  6
CONTINUOUS
 10
62.400002
 20
8.406875
 11
125.400002
 21
8.406875
  0
LINE
  8
0
  6
CONTINUOUS
 10
214.399994
 20
73.906876
 11
214.399994
 21
58.906876
  0
LINE
  8
0
  6
CONTINUOUS
 10
187.399994
 20
74.906876
 11
187.399994
 21
57.906876
  0
LINE
  8
0
  6
CONTINUOUS
 10
187.399994
 20
73.906876
 11
214.399994
 21
73.906876
  0
LINE
  8
0
  6
CONTINUOUS
 10
187.399994
 20
58.906876
 11
214.399994
 21
58.906876
  0
ARC
  8
0
  6
CONTINUOUS
 10
179.399994
 20
7.406865
 40
2.000000
 50
0.000000
 51
90.000000
  0
ARC
  8
0
  6
CONTINUOUS
 10
127.400002
 20
7.406885
 40
2.000000
 50
90.000000
 51
180.000000
  0
LINE
  8
0
  6
DASHED
 10
176.649994
 20
9.406875
 11
176.649994
 21
1.406875
  0
LINE
  8
0
  6
DASHED
 10
170.149994
 20
9.406875
 11
170.149994
 21
1.406875
  0
LINE
  8
0
  6
DASHED
 10
136.649994
 20
9.406875
 11
136.649994
 21
1.406875
  0
LINE
  8
0
  6
DASHED
 10
130.149994
 20
9.406875
 11
130.149994
 21
1.406875
  0
LINE
  8
0
  6
CONTINUOUS
 10
163.399994
 20
11.406865
 11
163.399994
 21
26.406876
  0
LINE
  8
0
  6
CONTINUOUS
 10
143.399994
 20
11.406875
 11
143.399994
 21
26.406864
  0
LINE
  8
0
  6
CONTINUOUS
 10
181.399994
 20
87.816177
 11
62.400002
 21
87.816177
  0
LINE
  8
0
  6
CONTINUOUS
 10
123.400002
 20
18.997585
 11
62.400002
 21
18.997585
  0
LINE
  8
0
  6
CONTINUOUS
 10
162.774994
 20
25.839485
 11
143.899994
 21
25.839485
  0
ARC
  8
0
  6
CONTINUOUS
 10
165.399994
 20
26.406876
 40
2.000000
 50
90.000000
 51
180.000000
  0
ARC
  8
0
  6
CONTINUOUS
 10
141.399994
 20
26.406864
 40
2.000000
 50
0.000000
 51
90.000000
  0
ARC
  8
0
  6
CONTINUOUS
 10
165.399994
 20
11.406875
 40
2.000000
 50
180.000000
 51
270.000000
  0
ARC
  8
0
  6
CONTINUOUS
 10
141.399994
 20
11.406875
 40
2.000000
 50
-90.000000
 51
0.000000
  0
ARC
  8
0
  6
CONTINUOUS
 10
123.400002
 20
16.997585
 40
2.000000
 50
0.000000
 51
90.000000
  0
LINE
  8
0
  6
CONTINUOUS
 10
181.399994
 20
18.997585
 11
164.399994
 21
18.997585
  0
LINE
  8
0
  6
CONTINUOUS
 10
142.774994
 20
18.997585
 11
125.087502
 21
18.997585
  0
LINE
  8
0
  6
CONTINUOUS
 10
192.899994
 20
68.906876
 11
214.399994
 21
68.906876
  0
LINE
  8
0
  6
CONTINUOUS
 10
192.899994
 20
63.906876
 11
214.399994
 21
63.906876
  0
ARC
  8
0
  6
CONTINUOUS
 10
192.899994
 20
66.406876
 40
2.500000
 50
90.000000
 51
180.000000
  0
ARC
  8
0
  6
CONTINUOUS
 10
192.899994
 20
66.406876
 40
2.500000
 50
180.000000
 51
270.000000
  0
LINE
  8
0
  6
CONTINUOUS
 10
184.399994
 20
86.406876
 11
181.399994
 21
86.406876
  0
LINE
  8
0
  6
CONTINUOUS
 10
184.399994
 20
46.406876
 11
181.399994
 21
46.406876
  0
LINE
  8
0
  6
CONTINUOUS
 10
185.399994
 20
47.406876
 11
185.399994
 21
85.406876
  0
ARC
  8
0
  6
CONTINUOUS
 10
184.399994
 20
85.406876
 40
1.000000
 50
0.000000
 51
90.000000
  0
ARC
  8
0
  6
CONTINUOUS
 10
184.399994
 20
47.406876
 40
1.000000
 50
-90.000000
 51
0.000000
  0
LINE
  8
0
  6
CONTINUOUS
 10
185.399994
 20
74.906876
 11
187.399994
 21
74.906876
  0
LINE
  8
0
  6
CONTINUOUS
 10
185.399994
 20
57.906876
 11
187.399994
 21
57.906876
  0
LINE
  8
0
  6
CENTER
 10
315.099365
 20
-7.593125
 11
315.099365
 21
156.682816
  0
LINE
  8
0
  6
CENTER
 10
261.599365
 20
53.406876
 11
368.599365
 21
53.406876
  0
LINE
  8
0
  6
CENTER
 10
288.925629
 20
66.406876
 11
340.612579
 21
66.406876
  0
LINE
  8
0
  6
CONTINUOUS
 10
348.099365
 20
1.406875
 11
367.099365
 21
1.406875
  0
LINE
  8
0
  6
CONTINUOUS
 10
367.099365
 20
7.406875
 11
367.099365
 21
1.406875
  0
LINE
  8
0
  6
CONTINUOUS
 10
365.099365
 20
9.406875
 11
353.099365
 21
9.406875
  0
LINE
  8
0
  6
CONTINUOUS
 10
347.099365
 20
2.406875
 11
315.099365
 21
2.406875
  0
ARC
  8
0
  6
CONTINUOUS
 10
315.099365
 20
53.406876
 40
45.000000
 50
-38.942410
 51
49.875912
  0
LINE
  8
0
  6
CONTINUOUS
 10
342.134277
 20
97.934975
 11
315.099365
 21
98.406876
  0
ARC
  8
0
  6
CONTINUOUS
 10
342.099365
 20
95.935272
 40
2.000000
 50
0.000000
 51
89.000191
  0
LINE
  8
0
  6
CONTINUOUS
 10
344.099365
 20
95.935272
 11
344.099365
 21
87.816177
  0
ARC
  8
0
  6
CONTINUOUS
 10
365.099365
 20
7.406865
 40
2.000000
 50
0.000000
 51
90.000000
  0
LINE
  8
0
  6
CENTER
 10
360.099365
 20
12.781875
 11
360.099365
 21
-4.343125
  0
LINE
  8
0
  6
DASHED
 10
363.349365
 20
9.406875
 11
363.349365
 21
1.406875
  0
LINE
  8
0
  6
DASHED
 10
356.849365
 20
9.406875
 11
356.849365
 21
1.406875
  0
LINE
  8
0
  6
CONTINUOUS
 10
355.099365
 20
67.768272
 11
355.099365
 21
39.045734
  0
ARC
  8
0
  6
CONTINUOUS
 10
315.099365
 20
53.406876
 40
42.500000
 50
270.000000
 51
340.250092
  0
ARC
  8
0
  6
CONTINUOUS
 10
315.099365
 20
53.406876
 40
42.500000
 50
19.749901
 51
90.000000
  0
LINE
  8
0
  6
CONTINUOUS
 10
282.099365
 20
1.406875
 11
263.099365
 21
1.406875
  0
LINE
  8
0
  6
CONTINUOUS
 10
263.099365
 20
7.406875
 11
263.099365
 21
1.406875
  0
LINE
  8
0
  6
CONTINUOUS
 10
265.099365
 20
9.406875
 11
277.099365
 21
9.406875
  0
LINE
  8
0
  6
CONTINUOUS
 10
283.099365
 20
2.406875
 11
315.099365
 21
2.406875
  0
ARC
  8
0
  6
CONTINUOUS
 10
315.099365
 20
53.406876
 40
45.000000
 50
130.124100
 51
218.942398
  0
LINE
  8
0
  6
CONTINUOUS
 10
288.064484
 20
97.934975
 11
315.099365
 21
98.406876
  0
ARC
  8
0
  6
CONTINUOUS
 10
288.099365
 20
95.935272
 40
2.000000
 50
90.999809
 51
180.000000
  0
LINE
  8
0
  6
CONTINUOUS
 10
286.099365
 20
95.935272
 11
286.099365
 21
87.816177
  0
ARC
  8
0
  6
CONTINUOUS
 10
265.099365
 20
7.406865
 40
2.000000
 50
90.000000
 51
180.000000
  0
LINE
  8
0
  6
CENTER
 10
270.099365
 20
12.781875
 11
270.099365
 21
-4.343125
  0
LINE
  8
0
  6
DASHED
 10
266.849365
 20
9.406875
 11
266.849365
 21
1.406875
  0
LINE
  8
0
  6
DASHED
 10
273.349365
 20
9.406875
 11
273.349365
 21
1.406875
  0
LINE
  8
0
  6
CONTINUOUS
 10
275.099365
 20
67.768272
 11
275.099365
 21
39.045734
  0
ARC
  8
0
  6
CONTINUOUS
 10
315.099365
 20
53.406876
 40
42.500000
 50
-160.250107
 51
-90.000000
  0
ARC
  8
0
  6
CONTINUOUS
 10
315.099365
 20
53.406876
 40
42.500000
 50
90.000000
 51
160.250107
  0
CIRCLE
  8
0
  6
CONTINUOUS
 10
315.099365
 20
66.406876
 40
20.000000
  0
LINE
  8
0
  6
CONTINUOUS
 10
305.599365
 20
68.906876
 11
310.599365
 21
68.906876
  0
LINE
  8
0
  6
CONTINUOUS
 10
305.599365
 20
63.906876
 11
310.599365
 21
63.906876
  0
LINE
  8
0
  6
CONTINUOUS
 10
305.599365
 20
63.906876
 11
305.599365
 21
68.906876
  0
ARC
  8
0
  6
CONTINUOUS
 10
315.099365
 20
66.406876
 40
7.500000
 50
-160.528793
 51
160.528793
  0
LINE
  8
0
  6
CONTINUOUS
 10
310.599365
 20
68.906876
 11
310.599365
 21
63.906876
  0
LINE
  8
0
  6
CONTINUOUS
 10
350.099365
 20
25.122595
 11
350.099365
 21
12.406865
  0
LINE
  8
0
  6
CONTINUOUS
 10
280.099365
 20
12.406875
 11
280.099365
 21
25.122616
  0
LINE
  8
0
  6
CONTINUOUS
 10
366.513580
 20
8.821075
 11
350.166779
 21
25.167965
  0
LINE
  8
0
  6
CONTINUOUS
 10
263.685181
 20
8.821075
 11
280.048981
 21
25.185036
  0
ARC
  8
0
  6
CONTINUOUS
 10
353.099365
 20
12.406875
 40
3.000000
 50
180.000000
 51
270.000000
  0
ARC
  8
0
  6
CONTINUOUS
 10
277.099365
 20
12.406875
 40
3.000000
 50
-90.000000
 51
0.000000
  0
LINE
  8
0
  6
CONTINUOUS
 10
348.099365
 20
1.406875
 11
347.099365
 21
2.406875
  0
LINE
  8
0
  6
CONTINUOUS
 10
282.099365
 20
1.406875
 11
283.099365
 21
2.406875
  0
LINE
  8
0
  6
CONTINUOUS
 10
308.724365
 20
35.960094
 11
308.724365
 21
30.406876
  0
LINE
  8
0
  6
CONTINUOUS
 10
311.911865
 20
37.977184
 11
311.911865
 21
39.969376
  0
LINE
  8
0
  6
CONTINUOUS
 10
318.286865
 20
37.977184
 11
318.286865
 21
39.969376
  0
LINE
  8
0
  6
CONTINUOUS
 10
314.476776
 20
38.798965
 11
314.476776
 21
31.452785
  0
LINE
  8
0
  6
CONTINUOUS
 10
315.672180
 20
38.798965
 11
315.672180
 21
31.452785
  0
LINE
  8
0
  6
CONTINUOUS
 10
321.947479
 20
38.798965
 11
321.947479
 21
31.402966
  0
LINE
  8
0
  6
CONTINUOUS
 10
323.043182
 20
34.876846
 11
323.043182
 21
31.402966
  0
LINE
  8
0
  6
CONTINUOUS
 10
307.211884
 20
38.699356
 11
304.139984
 21
38.699356
  0
LINE
  8
0
  6
CONTINUOUS
 10
304.139984
 20
38.699356
 11
303.420166
 21
37.806866
  0
LINE
  8
0
  6
CONTINUOUS
 10
303.506775
 20
39.969376
 11
302.349365
 21
38.487366
  0
LINE
  8
0
  6
CONTINUOUS
 10
303.420166
 20
32.297794
 11
304.151489
 21
31.527485
  0
LINE
  8
0
  6
CONTINUOUS
 10
302.349365
 20
31.647724
 11
303.579163
 21
30.406876
  0
LINE
  8
0
  6
CONTINUOUS
 10
302.349365
 20
38.487366
 11
302.349365
 21
31.647724
  0
LINE
  8
0
  6
CONTINUOUS
 10
303.420166
 20
37.806866
 11
303.420166
 21
32.297794
  0
LINE
  8
0
  6
CONTINUOUS
 10
307.802979
 20
38.127926
 11
307.199768
 21
38.699356
  0
LINE
  8
0
  6
CONTINUOUS
 10
307.793365
 20
39.969376
 11
308.724365
 21
38.936226
  0
LINE
  8
0
  6
CONTINUOUS
 10
307.802979
 20
37.977184
 11
308.724365
 21
37.977184
  0
LINE
  8
0
  6
CONTINUOUS
 10
303.506775
 20
39.969376
 11
307.793365
 21
39.969376
  0
LINE
  8
0
  6
CONTINUOUS
 10
307.802979
 20
34.914196
 11
306.134583
 21
34.914196
  0
LINE
  8
0
  6
CONTINUOUS
 10
307.802979
 20
33.918106
 11
307.802979
 21
34.714985
  0
LINE
  8
0
  6
CONTINUOUS
 10
305.810760
 20
31.527485
 11
304.151489
 21
31.527485
  0
ARC
  8
0
  6
CONTINUOUS
 10
305.810760
 20
33.519665
 40
1.992187
 50
-89.999786
 51
0.000109
  0
LINE
  8
0
  6
CONTINUOUS
 10
307.802979
 20
31.169134
 11
307.802979
 21
30.406876
  0
LINE
  8
0
  6
CONTINUOUS
 10
308.724365
 20
38.936226
 11
308.724365
 21
37.977184
  0
LINE
  8
0
  6
CONTINUOUS
 10
307.802979
 20
34.914196
 11
307.802979
 21
33.519665
  0
LINE
  8
0
  6
CONTINUOUS
 10
306.134583
 20
35.960094
 11
306.134583
 21
34.914196
  0
LINE
  8
0
  6
CONTINUOUS
 10
307.802979
 20
30.406876
 11
308.724365
 21
30.406876
  0
LINE
  8
0
  6
CONTINUOUS
 10
307.802979
 20
31.169134
 11
306.894379
 21
30.406876
  0
LINE
  8
0
  6
CONTINUOUS
 10
315.672180
 20
31.452785
 11
316.070587
 21
31.452785
  0
LINE
  8
0
  6
CONTINUOUS
 10
314.003662
 20
31.452785
 11
314.003662
 21
30.406876
  0
LINE
  8
0
  6
CONTINUOUS
 10
316.070587
 20
31.452785
 11
316.070587
 21
30.406876
  0
LINE
  8
0
  6
CONTINUOUS
 10
317.621979
 20
37.977184
 11
318.286865
 21
37.977184
  0
LINE
  8
0
  6
CONTINUOUS
 10
311.911865
 20
37.977184
 11
312.619476
 21
37.977184
  0
LINE
  8
0
  6
CONTINUOUS
 10
311.911865
 20
39.969376
 11
318.286865
 21
39.969376
  0
LINE
  8
0
  6
CONTINUOUS
 10
314.003662
 20
30.406876
 11
316.070587
 21
30.406876
  0
LINE
  8
0
  6
CONTINUOUS
 10
314.003662
 20
31.452785
 11
314.476776
 21
31.452785
  0
ARC
  8
0
  6
CONTINUOUS
 10
325.296875
 20
37.416885
 40
2.552490
 50
-73.981873
 51
90.003510
  0
ARC
  8
0
  6
CONTINUOUS
 10
325.296875
 20
37.416885
 40
1.557193
 50
-82.585274
 51
62.411850
  0
LINE
  8
0
  6
CONTINUOUS
 10
321.474365
 20
39.969376
 11
325.296875
 21
39.969376
  0
LINE
  8
0
  6
CONTINUOUS
 10
321.474365
 20
39.969376
 11
321.474365
 21
38.798965
  0
LINE
  8
0
  6
CONTINUOUS
 10
323.043182
 20
38.798965
 11
323.043182
 21
35.872715
  0
LINE
  8
0
  6
CONTINUOUS
 10
326.001282
 20
34.963486
 11
327.581085
 21
31.402966
  0
LINE
  8
0
  6
CONTINUOUS
 10
325.083679
 20
34.876846
 11
326.578674
 21
31.402966
  0
LINE
  8
0
  6
CONTINUOUS
 10
321.474365
 20
31.402966
 11
321.947479
 21
31.402966
  0
LINE
  8
0
  6
CONTINUOUS
 10
323.043182
 20
31.402966
 11
323.478973
 21
31.402966
  0
LINE
  8
0
  6
CONTINUOUS
 10
323.478973
 20
30.406876
 11
321.474365
 21
30.406876
  0
LINE
  8
0
  6
CONTINUOUS
 10
326.380188
 20
31.402966
 11
326.578674
 21
31.402966
  0
LINE
  8
0
  6
CONTINUOUS
 10
327.581085
 20
31.402966
 11
327.849365
 21
31.402966
  0
LINE
  8
0
  6
CONTINUOUS
 10
326.380188
 20
30.406876
 11
327.849365
 21
30.406876
  0
LINE
  8
0
  6
CONTINUOUS
 10
327.849365
 20
31.402966
 11
327.849365
 21
30.406876
  0
LINE
  8
0
  6
CONTINUOUS
 10
326.380188
 20
31.402966
 11
326.380188
 21
30.406876
  0
LINE
  8
0
  6
CONTINUOUS
 10
323.478973
 20
31.402966
 11
323.478973
 21
30.406876
  0
LINE
  8
0
  6
CONTINUOUS
 10
321.474365
 20
31.402966
 11
321.474365
 21
30.406876
  0
LINE
  8
0
  6
CONTINUOUS
 10
312.961884
 20
38.798965
 11
312.619476
 21
37.977184
  0
LINE
  8
0
  6
CONTINUOUS
 10
317.333160
 20
38.798965
 11
317.621979
 21
37.977184
  0
LINE
  8
0
  6
CONTINUOUS
 10
315.672180
 20
38.798965
 11
317.333160
 21
38.798965
  0
LINE
  8
0
  6
CONTINUOUS
 10
314.476776
 20
38.798965
 11
312.961884
 21
38.798965
  0
LINE
  8
0
  6
CONTINUOUS
 10
321.474365
 20
38.798965
 11
321.947479
 21
38.798965
  0
LINE
  8
0
  6
CONTINUOUS
 10
323.043182
 20
38.798965
 11
326.018066
 21
38.797024
  0
LINE
  8
0
  6
CONTINUOUS
 10
307.802979
 20
38.127926
 11
307.802979
 21
37.977184
  0
LINE
  8
0
  6
CONTINUOUS
 10
303.579163
 20
30.406876
 11
306.894379
 21
30.406876
  0
LINE
  8
0
  6
CONTINUOUS
 10
323.043182
 20
35.872715
 11
325.497864
 21
35.872715
  0
LINE
  8
0
  6
CONTINUOUS
 10
323.043182
 20
34.876846
 11
325.083679
 21
34.876846
  0
LINE
  8
0
  6
CONTINUOUS
 10
306.134583
 20
35.960094
 11
308.724365
 21
35.960094
  0
LINE
  8
0
  6
CONTINUOUS
 10
341.199890
 20
100.406876
 11
338.599365
 21
100.406876
  0
LINE
  8
0
  6
CONTINUOUS
 10
268.099365
 20
79.507378
 11
268.099365
 21
27.306364
  0
LINE
  8
0
  6
CONTINUOUS
 10
362.099365
 20
27.306355
 11
362.099365
 21
79.507378
  0
LINE
  8
0
  6
CONTINUOUS
 10
284.049103
 20
98.356606
 11
270.149689
 21
84.457077
  0
LINE
  8
0
  6
CONTINUOUS
 10
360.049072
 20
84.457077
 11
346.149689
 21
98.356575
  0
LINE
  8
0
  6
CONTINUOUS
 10
270.149689
 20
22.356625
 11
273.685181
 21
18.821125
  0
LINE
  8
0
  6
CONTINUOUS
 10
360.049164
 20
22.356625
 11
356.513580
 21
18.821054
  0
ARC
  8
0
  6
CONTINUOUS
 10
275.099365
 20
27.306425
 40
7.000000
 50
180.000000
 51
225.000397
  0
ARC
  8
0
  6
CONTINUOUS
 10
275.099365
 20
79.507378
 40
7.000000
 50
135.000305
 51
180.000000
  0
ARC
  8
0
  6
CONTINUOUS
 10
288.998871
 20
93.406876
 40
7.000000
 50
90.000000
 51
135.000198
  0
ARC
  8
0
  6
CONTINUOUS
 10
341.199890
 20
93.406876
 40
7.000000
 50
45.000141
 51
90.000000
  0
ARC
  8
0
  6
CONTINUOUS
 10
355.099365
 20
79.507378
 40
7.000000
 50
0.000000
 51
45.000141
  0
ARC
  8
0
  6
CONTINUOUS
 10
355.099365
 20
27.306335
 40
7.000000
 50
-44.999569
 51
0.000000
  0
LINE
  8
0
  6
CONTINUOUS
 10
181.399994
 20
290.204376
 11
181.399994
 21
192.204376
  0
LINE
  8
0
  6
CENTER
 10
-4.955625
 20
241.204376
 11
217.317505
 21
241.204376
  0
LINE
  8
0
  6
CONTINUOUS
 10
62.400002
 20
270.204376
 11
181.399994
 21
270.204376
  0
LINE
  8
0
  6
CONTINUOUS
 10
62.400002
 20
286.204376
 11
181.399994
 21
286.204376
  0
LINE
  8
0
  6
CONTINUOUS
 10
62.400002
 20
196.204376
 11
181.399994
 21
196.204376
  0
LINE
  8
0
  6
CONTINUOUS
 10
52.900002
 20
286.204376
 11
62.400002
 21
286.204376
  0
LINE
  8
0
  6
CONTINUOUS
 10
62.400002
 20
270.204376
 11
52.900002
 21
270.204376
  0
LINE
  8
0
  6
CONTINUOUS
 10
52.900002
 20
196.204376
 11
62.400002
 21
196.204376
  0
LINE
  8
0
  6
CONTINUOUS
 10
62.400002
 20
196.204376
 11
62.400002
 21
216.204361
  0
LINE
  8
0
  6
CONTINUOUS
 10
214.399994
 20
248.704376
 11
214.399994
 21
231.704376
  0
LINE
  8
0
  6
CONTINUOUS
 10
187.399994
 20
249.704376
 11
187.399994
 21
232.704376
  0
LINE
  8
0
  6
CONTINUOUS
 10
187.399994
 20
248.704376
 11
214.399994
 21
248.704376
  0
LINE
  8
0
  6
CONTINUOUS
 10
187.399994
 20
233.704376
 11
190.399994
 21
233.704376
  0
LINE
  8
0
  6
CONTINUOUS
 10
184.399994
 20
261.204376
 11
181.399994
 21
261.204376
  0
LINE
  8
0
  6
CONTINUOUS
 10
184.399994
 20
221.204376
 11
181.399994
 21
221.204376
  0
LINE
  8
0
  6
CONTINUOUS
 10
185.399994
 20
222.204376
 11
185.399994
 21
260.204376
  0
ARC
  8
0
  6
CONTINUOUS
 10
184.399994
 20
260.204376
 40
1.000000
 50
0.000000
 51
90.000000
  0
ARC
  8
0
  6
CONTINUOUS
 10
184.399994
 20
222.204376
 40
1.000000
 50
-90.000000
 51
0.000000
  0
LINE
  8
0
  6
CONTINUOUS
 10
185.399994
 20
249.704376
 11
187.399994
 21
249.704376
  0
LINE
  8
0
  6
CONTINUOUS
 10
185.399994
 20
232.704376
 11
187.399994
 21
232.704376
  0
LINE
  8
0
  6
CONTINUOUS
 10
190.399994
 20
234.133377
 11
190.399994
 21
231.704376
  0
LINE
  8
0
  6
CONTINUOUS
 10
190.399994
 20
231.704376
 11
214.399994
 21
231.704376
  0
LINE
  8
0
  6
CONTINUOUS
 10
190.399994
 20
234.133377
 11
214.399994
 21
234.133377
  0
LINE
  8
0
  6
CONTINUOUS
 10
128.399994
 20
293.204376
 11
178.399994
 21
293.204376
  0
LINE
  8
0
  6
CONTINUOUS
 10
125.400002
 20
290.204376
 11
125.400002
 21
286.204376
  0
LINE
  8
0
  6
CENTER
 10
167.618912
 20
286.204376
 11
179.767502
 21
286.204376
  0
LINE
  8
0
  6
CENTER
 10
173.399994
 20
296.804688
 11
173.399994
 21
278.768127
  0
LINE
  8
0
  6
CENTER
 10
133.399994
 20
296.357513
 11
133.399994
 21
280.109680
  0
LINE
  8
0
  6
CENTER
 10
126.403122
 20
286.204376
 11
141.905624
 21
286.204376
  0
ARC
  8
0
  6
DASHED
 10
173.399994
 20
286.204376
 40
3.250000
 50
-180.000000
 51
0.000000
  0
ARC
  8
0
  6
CONTINUOUS
 10
133.399994
 20
286.204376
 40
3.250000
 50
0.000000
 51
180.000000
  0
ARC
  8
0
  6
DASHED
 10
133.399994
 20
286.204376
 40
3.250000
 50
-180.000000
 51
0.000000
  0
ARC
  8
0
  6
CONTINUOUS
 10
173.399994
 20
286.204376
 40
3.250000
 50
0.000000
 51
180.000000
  0
ARC
  8
0
  6
CONTINUOUS
 10
178.399994
 20
290.204376
 40
3.000000
 50
0.000000
 51
90.000000
  0
ARC
  8
0
  6
CONTINUOUS
 10
128.399994
 20
290.204376
 40
3.000000
 50
90.000000
 51
180.000000
  0
LINE
  8
0
  6
CONTINUOUS
 10
128.399994
 20
189.204376
 11
178.399994
 21
189.204376
  0
LINE
  8
0
  6
CONTINUOUS
 10
125.400002
 20
192.204376
 11
125.400002
 21
196.204376
  0
LINE
  8
0
  6
CENTER
 10
167.618912
 20
196.204376
 11
179.767502
 21
196.204376
  0
LINE
  8
0
  6
CENTER
 10
173.399994
 20
185.604065
 11
173.399994
 21
203.640625
  0
LINE
  8
0
  6
CENTER
 10
133.399994
 20
186.051254
 11
133.399994
 21
202.299057
  0
LINE
  8
0
  6
CENTER
 10
126.403122
 20
196.204376
 11
141.905624
 21
196.204376
  0
ARC
  8
0
  6
DASHED
 10
173.399994
 20
196.204376
 40
3.250000
 50
0.000000
 51
180.000000
  0
ARC
  8
0
  6
CONTINUOUS
 10
133.399994
 20
196.204376
 40
3.250000
 50
-180.000000
 51
0.000000
  0
ARC
  8
0
  6
DASHED
 10
133.399994
 20
196.204376
 40
3.250000
 50
0.000000
 51
180.000000
  0
ARC
  8
0
  6
CONTINUOUS
 10
173.399994
 20
196.204376
 40
3.250000
 50
-180.000000
 51
0.000000
  0
ARC
  8
0
  6
CONTINUOUS
 10
178.399994
 20
192.204376
 40
3.000000
 50
-90.000000
 51
0.000000
  0
ARC
  8
0
  6
CONTINUOUS
 10
128.399994
 20
192.204376
 40
3.000000
 50
-180.000000
 51
-90.000000
  0
LINE
  8
0
  6
CONTINUOUS
 10
62.400002
 20
212.204376
 11
181.399994
 21
212.204376
  0
LINE
  8
0
  6
CONTINUOUS
 10
62.400002
 20
212.204376
 11
52.900002
 21
212.204376
  0
LINE
  8
0
  6
CONTINUOUS
 10
62.400002
 20
266.204346
 11
62.400002
 21
286.204376
  0
LINE
  8
0
  6
CONTINUOUS
 10
52.900002
 20
288.204376
 11
52.900002
 21
241.204376
  0
LINE
  8
0
  6
CONTINUOUS
 10
52.900002
 20
270.204376
 11
8.924970
 21
270.204376
  0
LINE
  8
0
  6
CONTINUOUS
 10
52.900002
 20
212.204376
 11
8.924970
 21
212.204376
  0
LINE
  8
0
  6
CONTINUOUS
 10
10.399980
 20
288.204376
 11
52.900002
 21
288.204376
  0
LINE
  8
0
  6
CONTINUOUS
 10
10.399980
 20
194.204376
 11
52.900002
 21
194.204376
  0
ARC
  8
0
  6
CONTINUOUS
 10
10.400010
 20
283.204376
 40
5.000000
 50
90.000000
 51
180.000000
  0
ARC
  8
0
  6
CONTINUOUS
 10
10.399980
 20
199.204376
 40
5.000000
 50
180.000000
 51
270.000000
  0
LINE
  8
0
  6
CONTINUOUS
 10
5.400010
 20
283.204376
 11
5.399980
 21
199.204361
  0
LINE
  8
0
  6
CONTINUOUS
 10
291.599365
 20
100.406876
 11
288.998871
 21
100.406876
  0
LINE
  8
0
  6
CONTINUOUS
 10
53.400002
 20
218.204361
 11
53.400002
 21
264.204346
  0
LINE
  8
0
  6
CONTINUOUS
 10
55.400002
 20
266.204346
 11
53.400002
 21
264.204346
  0
LINE
  8
0
  6
CONTINUOUS
 10
55.400002
 20
266.204346
 11
101.399986
 21
266.204346
  0
LINE
  8
0
  6
CONTINUOUS
 10
95.900002
 20
261.704346
 11
95.900002
 21
266.204346
  0
ARC
  8
0
  6
CONTINUOUS
 10
98.900002
 20
261.704346
 40
3.000000
 50
180.000000
 51
270.000000
  0
LINE
  8
0
  6
CONTINUOUS
 10
98.900002
 20
258.704346
 11
103.399986
 21
258.704346
  0
CIRCLE
  8
0
  6
CONTINUOUS
 10
99.900002
 20
262.704346
 40
2.250000
  0
LINE
  8
0
  6
CONTINUOUS
 10
103.399994
 20
218.204361
 11
103.399986
 21
264.204346
  0
LINE
  8
0
  6
CONTINUOUS
 10
101.399986
 20
266.204346
 11
103.399986
 21
264.204346
  0
LINE
  8
0
  6
CONTINUOUS
 10
101.399994
 20
216.204361
 11
103.399994
 21
218.204361
  0
LINE
  8
0
  6
CONTINUOUS
 10
101.399994
 20
216.204361
 11
55.400002
 21
216.204361
  0
LINE
  8
0
  6
CONTINUOUS
 10
53.400002
 20
218.204361
 11
55.400002
 21
216.204361
  0
LINE
  8
0
  6
CONTINUOUS
 10
57.900002
 20
223.704361
 11
53.400009
 21
223.704361
  0
CIRCLE
  8
0
  6
CONTINUOUS
 10
56.900002
 20
219.704361
 40
2.250000
  0
ARC
  8
0
  6
CONTINUOUS
 10
57.900002
 20
220.704361
 40
3.000000
 50
0.000000
 51
90.000000
  0
LINE
  8
0
  6
CONTINUOUS
 10
60.900002
 20
220.704361
 11
60.900002
 21
216.204361
  0
LINE
  8
0
  6
CENTER
 10
78.400002
 20
208.738571
 11
78.400002
 21
272.870605
  0
LINE
  8
0
  6
CONTINUOUS
 10
54.400005
 20
223.704376
 11
54.400005
 21
258.704376
  0
LINE
  8
0
  6
CONTINUOUS
 10
95.900002
 20
265.204376
 11
60.900021
 21
265.204376
  0
LINE
  8
0
  6
CONTINUOUS
 10
102.399994
 20
258.704376
 11
102.399994
 21
223.704376
  0
LINE
  8
0
  6
CONTINUOUS
 10
60.900002
 20
217.204376
 11
95.899979
 21
217.204376
  0
LINE
  8
0
  6
CONTINUOUS
 10
52.900002
 20
241.204376
 11
52.900002
 21
194.204376
  0
LINE
  8
0
  6
CONTINUOUS
 10
57.900021
 20
258.704376
 11
53.400021
 21
258.704376
  0
ARC
  8
0
  6
CONTINUOUS
 10
57.900021
 20
261.704376
 40
3.000000
 50
-90.000000
 51
0.000000
  0
LINE
  8
0
  6
CONTINUOUS
 10
60.900021
 20
261.704376
 11
60.900021
 21
266.204376
  0
CIRCLE
  8
0
  6
CONTINUOUS
 10
56.900021
 20
262.704376
 40
2.250000
  0
LINE
  8
0
  6
CONTINUOUS
 10
98.899979
 20
223.704376
 11
103.399979
 21
223.704376
  0
ARC
  8
0
  6
CONTINUOUS
 10
98.899979
 20
220.704376
 40
3.000000
 50
90.000000
 51
180.000000
  0
LINE
  8
0
  6
CONTINUOUS
 10
95.899979
 20
220.704376
 11
95.899979
 21
216.204391
  0
CIRCLE
  8
0
  6
CONTINUOUS
 10
99.899979
 20
219.704376
 40
2.250000
  0
LINE
  8
0
  6
CONTINUOUS
 10
54.900002
 20
99.906876
 11
101.400002
 21
99.906876
  0
LINE
  8
0
  6
CONTINUOUS
 10
103.399979
 20
143.906876
 11
103.400002
 21
101.906876
  0
LINE
  8
0
  6
CONTINUOUS
 10
53.400002
 20
143.906876
 11
53.400002
 21
101.906876
  0
LINE
  8
0
  6
CONTINUOUS
 10
53.400002
 20
111.906876
 11
103.400002
 21
111.906876
  0
LINE
  8
0
  6
CONTINUOUS
 10
101.400002
 20
99.906876
 11
103.400002
 21
101.906876
  0
LINE
  8
0
  6
CONTINUOUS
 10
53.400002
 20
101.906876
 11
55.400002
 21
99.906876
  0
LINE
  8
0
  6
CONTINUOUS
 10
53.400002
 20
101.906876
 11
103.400002
 21
101.906876
  0
LINE
  8
0
  6
CONTINUOUS
 10
53.400002
 20
112.906876
 11
103.399986
 21
112.906876
  0
LINE
  8
0
  6
CONTINUOUS
 10
54.400002
 20
144.906876
 11
102.399979
 21
144.906876
  0
LINE
  8
0
  6
CONTINUOUS
 10
102.399979
 20
144.906876
 11
103.399979
 21
143.906876
  0
LINE
  8
0
  6
CONTINUOUS
 10
54.400002
 20
144.906876
 11
53.400002
 21
143.906876
  0
LINE
  8
0
  6
CONTINUOUS
 10
53.400002
 20
143.906876
 11
103.399979
 21
143.906876
  0
LINE
  8
0
  6
CENTER
 10
78.400002
 20
93.517365
 11
78.400002
 21
150.217361
  0
LINE
  8
0
  6
CENTER
 10
51.025002
 20
127.906876
 11
55.650002
 21
127.906876
  0
LINE
  8
0
  6
CONTINUOUS
 10
54.900002
 20
99.906876
 11
54.900002
 21
98.406876
  0
LINE
  8
0
  6
CONTINUOUS
 10
100.900002
 20
99.906876
 11
100.900002
 21
98.406876
  0
LINE
  8
0
  6
CONTINUOUS
 10
52.525002
 20
138.406876
 11
54.525002
 21
138.406876
  0
LINE
  8
0
  6
CONTINUOUS
 10
52.525002
 20
117.406876
 11
54.525002
 21
117.406876
  0
LINE
  8
0
  6
CONTINUOUS
 10
292.099365
 20
99.906876
 11
338.099365
 21
99.906876
  0
LINE
  8
0
  6
CONTINUOUS
 10
340.099365
 20
143.906876
 11
340.099365
 21
101.906876
  0
LINE
  8
0
  6
CONTINUOUS
 10
290.099365
 20
143.906876
 11
290.099365
 21
101.906876
  0
LINE
  8
0
  6
CONTINUOUS
 10
290.099365
 20
111.906876
 11
340.099365
 21
111.906876
  0
LINE
  8
0
  6
CONTINUOUS
 10
338.099365
 20
99.906876
 11
340.099365
 21
101.906876
  0
LINE
  8
0
  6
CONTINUOUS
 10
290.099365
 20
101.906876
 11
292.099365
 21
99.906876
  0
LINE
  8
0
  6
CONTINUOUS
 10
290.099365
 20
101.906876
 11
340.099365
 21
101.906876
  0
LINE
  8
0
  6
CONTINUOUS
 10
290.099365
 20
112.906876
 11
340.099365
 21
112.906876
  0
LINE
  8
0
  6
CONTINUOUS
 10
291.099365
 20
144.906876
 11
339.099365
 21
144.906876
  0
LINE
  8
0
  6
CONTINUOUS
 10
339.099365
 20
144.906876
 11
340.099365
 21
143.906876
  0
LINE
  8
0
  6
CONTINUOUS
 10
291.099365
 20
144.906876
 11
290.099365
 21
143.906876
  0
LINE
  8
0
  6
CONTINUOUS
 10
290.099365
 20
143.906876
 11
340.099365
 21
143.906876
  0
LINE
  8
0
  6
CONTINUOUS
 10
337.599365
 20
99.906876
 11
337.599365
 21
98.014145
  0
LINE
  8
0
  6
CONTINUOUS
 10
292.599365
 20
99.906876
 11
292.599365
 21
98.014145
  0
TEXT
  8
0
 10
-8.000000
 20
-7.000000
 40
4.000000
 41
1.000000
  1
GLM-15-5~30-T90WK
 50
0.000000
  0
ENDSEC
  0
EOF
