  0
SECTION
  2
HEADER
  9
$CLAYER
  8
1
  9
$LTSCALE
 40
3.0
  0
ENDSEC
  0
SECTION
  2
TABLES
  0
TABLE
  2
LTYPE
 70
     4
  0
LTYPE
  2
CONTINUOUS
  3
solid line
 70
    64
 72
    65
 73
     0
 40
0.0
  0
LTYPE
  2
DASHED
  3
__ __ __ __ __ __ __ __ __ __ __ __ __ __ __
 70
    64
 72
    65
 73
     2
 40
0.75
 49
0.5
 49
-0.25
  0
LTYPE
  2
CENTER
  3
____ _ ____ _ ____ _ ____ _ ____ _ ____ _ ____
 70
    64
 72
    65
 73
     4
 40
2.0
 49
1.25
 49
-0.25
 49
0.25
 49
-0.25
  0
LTYPE
  2
PHANTOM
  3
_____ _ _ _____ _ _ _____ _ _ _____ _ _ ____
 70
    64
 72
    65
 73
     6
 40
2.5
 49
1.25
 49
-0.25
 49
0.25
 49
-0.25
 49
0.25
 49
-0.25
  0
ENDTAB
  0
TABLE
  2
LAYER
 70
     1
  0
LAYER
  2
0
 70
    64
 62
     7
  6
CONTINUOUS
  0
ENDTAB
  0
TABLE
  2
STYLE
 70
     1
  0
STYLE
  2
STANDARD
 70
     0
 40
0.000000
 41
1.000000
 50
0.000000
 71
     0
 42
3.000000
  3
txt
  4
BIGFONT
  0
ENDTAB
  0
ENDSEC
  0
SECTION
  2
BLOCKS
  0
ENDSEC
  0
SECTION
  2
ENTITIES
  0
LINE
  8
0
  6
CONTINUOUS
 10
53.613750
 20
102.086876
 11
63.113750
 21
102.086876
  0
LINE
  8
0
  6
CONTINUOUS
 10
63.113750
 20
91.496178
 11
53.613750
 21
91.496178
  0
LINE
  8
0
  6
CONTINUOUS
 10
53.613750
 20
12.086875
 11
63.113750
 21
12.086875
  0
LINE
  8
0
  6
CONTINUOUS
 10
63.113750
 20
22.677586
 11
53.613750
 21
22.677586
  0
LINE
  8
0
  6
CONTINUOUS
 10
53.613750
 20
104.086876
 11
53.613750
 21
10.086875
  0
LINE
  8
0
  6
CONTINUOUS
 10
53.613750
 20
86.086876
 11
9.638720
 21
86.086876
  0
LINE
  8
0
  6
CONTINUOUS
 10
53.613750
 20
28.086876
 11
9.638720
 21
28.086876
  0
LINE
  8
0
  6
CONTINUOUS
 10
11.113730
 20
104.086876
 11
53.613750
 21
104.086876
  0
LINE
  8
0
  6
CONTINUOUS
 10
11.113730
 20
10.086875
 11
53.613750
 21
10.086875
  0
ARC
  8
0
  6
CONTINUOUS
 10
11.113760
 20
99.086876
 40
5.000000
 50
90.000000
 51
180.000000
  0
ARC
  8
0
  6
CONTINUOUS
 10
11.113730
 20
15.086875
 40
5.000000
 50
180.000000
 51
270.000000
  0
LINE
  8
0
  6
CONTINUOUS
 10
6.113760
 20
99.086876
 11
6.113730
 21
15.086865
  0
LINE
  8
0
  6
CONTINUOUS
 10
63.113750
 20
12.086875
 11
63.113750
 21
102.086876
  0
LINE
  8
0
  6
CENTER
 10
-8.233594
 20
57.086876
 11
191.390457
 21
57.086876
  0
LINE
  8
0
  6
CONTINUOUS
 10
182.113754
 20
102.086876
 11
182.113754
 21
5.086875
  0
LINE
  8
0
  6
CONTINUOUS
 10
126.113747
 20
20.677586
 11
126.113747
 21
5.086875
  0
LINE
  8
0
  6
CENTER
 10
160.533447
 20
70.086876
 11
222.613754
 21
70.086876
  0
LINE
  8
0
  6
CONTINUOUS
 10
126.113747
 20
5.086875
 11
182.113754
 21
5.086875
  0
LINE
  8
0
  6
CONTINUOUS
 10
128.113754
 20
13.086875
 11
180.113754
 21
13.086875
  0
LINE
  8
0
  6
CENTER
 10
174.113754
 20
17.782255
 11
174.113754
 21
-2.163125
  0
LINE
  8
0
  6
CENTER
 10
134.113754
 20
17.782255
 11
134.113754
 21
-2.913125
  0
LINE
  8
0
  6
CONTINUOUS
 10
63.113750
 20
102.086876
 11
182.113754
 21
102.086876
  0
LINE
  8
0
  6
CONTINUOUS
 10
63.113750
 20
12.086875
 11
126.113747
 21
12.086875
  0
LINE
  8
0
  6
CONTINUOUS
 10
215.113754
 20
77.586876
 11
215.113754
 21
62.586876
  0
LINE
  8
0
  6
CONTINUOUS
 10
188.113754
 20
78.586876
 11
188.113754
 21
61.586876
  0
LINE
  8
0
  6
CONTINUOUS
 10
188.113754
 20
77.586876
 11
215.113754
 21
77.586876
  0
LINE
  8
0
  6
CONTINUOUS
 10
188.113754
 20
62.586876
 11
215.113754
 21
62.586876
  0
ARC
  8
0
  6
CONTINUOUS
 10
180.113754
 20
11.086865
 40
2.000000
 50
0.000000
 51
90.000000
  0
ARC
  8
0
  6
CONTINUOUS
 10
128.113754
 20
11.086885
 40
2.000000
 50
90.000000
 51
180.000000
  0
LINE
  8
0
  6
DASHED
 10
177.363754
 20
13.086875
 11
177.363754
 21
5.086875
  0
LINE
  8
0
  6
DASHED
 10
170.863754
 20
13.086875
 11
170.863754
 21
5.086875
  0
LINE
  8
0
  6
DASHED
 10
137.363754
 20
13.086875
 11
137.363754
 21
5.086875
  0
LINE
  8
0
  6
DASHED
 10
130.863754
 20
13.086875
 11
130.863754
 21
5.086875
  0
LINE
  8
0
  6
CONTINUOUS
 10
164.113754
 20
15.086865
 11
164.113754
 21
30.086876
  0
LINE
  8
0
  6
CONTINUOUS
 10
144.113754
 20
15.086875
 11
144.113754
 21
30.086864
  0
LINE
  8
0
  6
CONTINUOUS
 10
182.113754
 20
91.496178
 11
63.113750
 21
91.496178
  0
LINE
  8
0
  6
CONTINUOUS
 10
124.113747
 20
22.677586
 11
63.113750
 21
22.677586
  0
LINE
  8
0
  6
CONTINUOUS
 10
163.488754
 20
29.519485
 11
144.613754
 21
29.519485
  0
ARC
  8
0
  6
CONTINUOUS
 10
166.113754
 20
30.086876
 40
2.000000
 50
90.000000
 51
180.000000
  0
ARC
  8
0
  6
CONTINUOUS
 10
142.113754
 20
30.086864
 40
2.000000
 50
0.000000
 51
90.000000
  0
ARC
  8
0
  6
CONTINUOUS
 10
166.113754
 20
15.086875
 40
2.000000
 50
180.000000
 51
270.000000
  0
ARC
  8
0
  6
CONTINUOUS
 10
142.113754
 20
15.086875
 40
2.000000
 50
-90.000000
 51
0.000000
  0
ARC
  8
0
  6
CONTINUOUS
 10
124.113747
 20
20.677586
 40
2.000000
 50
0.000000
 51
90.000000
  0
LINE
  8
0
  6
CONTINUOUS
 10
182.113754
 20
22.677586
 11
165.113754
 21
22.677586
  0
LINE
  8
0
  6
CONTINUOUS
 10
143.488754
 20
22.677586
 11
125.801247
 21
22.677586
  0
LINE
  8
0
  6
CONTINUOUS
 10
193.613754
 20
72.586876
 11
215.113754
 21
72.586876
  0
LINE
  8
0
  6
CONTINUOUS
 10
193.613754
 20
67.586876
 11
215.113754
 21
67.586876
  0
ARC
  8
0
  6
CONTINUOUS
 10
193.613754
 20
70.086876
 40
2.500000
 50
90.000000
 51
180.000000
  0
ARC
  8
0
  6
CONTINUOUS
 10
193.613754
 20
70.086876
 40
2.500000
 50
180.000000
 51
270.000000
  0
LINE
  8
0
  6
CONTINUOUS
 10
185.113754
 20
90.086876
 11
182.113754
 21
90.086876
  0
LINE
  8
0
  6
CONTINUOUS
 10
185.113754
 20
50.086876
 11
182.113754
 21
50.086876
  0
LINE
  8
0
  6
CONTINUOUS
 10
186.113754
 20
51.086876
 11
186.113754
 21
89.086876
  0
ARC
  8
0
  6
CONTINUOUS
 10
185.113754
 20
89.086876
 40
1.000000
 50
0.000000
 51
90.000000
  0
ARC
  8
0
  6
CONTINUOUS
 10
185.113754
 20
51.086876
 40
1.000000
 50
-90.000000
 51
0.000000
  0
LINE
  8
0
  6
CONTINUOUS
 10
186.113754
 20
78.586876
 11
188.113754
 21
78.586876
  0
LINE
  8
0
  6
CONTINUOUS
 10
186.113754
 20
61.586876
 11
188.113754
 21
61.586876
  0
LINE
  8
0
  6
CENTER
 10
318.833740
 20
-3.913125
 11
318.833740
 21
141.947495
  0
LINE
  8
0
  6
CENTER
 10
265.333740
 20
57.086876
 11
372.333740
 21
57.086876
  0
LINE
  8
0
  6
CENTER
 10
292.248444
 20
70.086876
 11
344.346954
 21
70.086876
  0
LINE
  8
0
  6
CONTINUOUS
 10
351.833740
 20
5.086875
 11
370.833740
 21
5.086875
  0
LINE
  8
0
  6
CONTINUOUS
 10
370.833740
 20
11.086875
 11
370.833740
 21
5.086875
  0
LINE
  8
0
  6
CONTINUOUS
 10
368.833740
 20
13.086875
 11
356.833740
 21
13.086875
  0
LINE
  8
0
  6
CONTINUOUS
 10
350.833740
 20
6.086875
 11
318.833740
 21
6.086875
  0
ARC
  8
0
  6
CONTINUOUS
 10
318.833740
 20
57.086876
 40
45.000000
 50
-38.942410
 51
49.875912
  0
LINE
  8
0
  6
CONTINUOUS
 10
345.868652
 20
101.614975
 11
318.833740
 21
102.086876
  0
ARC
  8
0
  6
CONTINUOUS
 10
345.833740
 20
99.615273
 40
2.000000
 50
0.000000
 51
89.000191
  0
LINE
  8
0
  6
CONTINUOUS
 10
347.833740
 20
99.615273
 11
347.833740
 21
91.496178
  0
ARC
  8
0
  6
CONTINUOUS
 10
368.833740
 20
11.086865
 40
2.000000
 50
0.000000
 51
90.000000
  0
LINE
  8
0
  6
CENTER
 10
363.833740
 20
16.461876
 11
363.833740
 21
-0.663125
  0
LINE
  8
0
  6
DASHED
 10
367.083740
 20
13.086875
 11
367.083740
 21
5.086875
  0
LINE
  8
0
  6
DASHED
 10
360.583740
 20
13.086875
 11
360.583740
 21
5.086875
  0
LINE
  8
0
  6
CONTINUOUS
 10
358.833740
 20
71.448273
 11
358.833740
 21
42.725735
  0
ARC
  8
0
  6
CONTINUOUS
 10
318.833740
 20
57.086876
 40
42.500000
 50
270.000000
 51
340.250092
  0
ARC
  8
0
  6
CONTINUOUS
 10
318.833740
 20
57.086876
 40
42.500000
 50
19.749901
 51
90.000000
  0
LINE
  8
0
  6
CONTINUOUS
 10
285.833740
 20
5.086875
 11
266.833740
 21
5.086875
  0
LINE
  8
0
  6
CONTINUOUS
 10
266.833740
 20
11.086875
 11
266.833740
 21
5.086875
  0
LINE
  8
0
  6
CONTINUOUS
 10
268.833740
 20
13.086875
 11
280.833740
 21
13.086875
  0
LINE
  8
0
  6
CONTINUOUS
 10
286.833740
 20
6.086875
 11
318.833740
 21
6.086875
  0
ARC
  8
0
  6
CONTINUOUS
 10
318.833740
 20
57.086876
 40
45.000000
 50
130.124100
 51
218.942398
  0
LINE
  8
0
  6
CONTINUOUS
 10
291.798859
 20
101.614975
 11
318.833740
 21
102.086876
  0
ARC
  8
0
  6
CONTINUOUS
 10
291.833740
 20
99.615273
 40
2.000000
 50
90.999809
 51
180.000000
  0
LINE
  8
0
  6
CONTINUOUS
 10
289.833740
 20
99.615273
 11
289.833740
 21
91.496178
  0
ARC
  8
0
  6
CONTINUOUS
 10
268.833740
 20
11.086865
 40
2.000000
 50
90.000000
 51
180.000000
  0
LINE
  8
0
  6
CENTER
 10
273.833740
 20
16.461876
 11
273.833740
 21
-0.663125
  0
LINE
  8
0
  6
DASHED
 10
270.583740
 20
13.086875
 11
270.583740
 21
5.086875
  0
LINE
  8
0
  6
DASHED
 10
277.083740
 20
13.086875
 11
277.083740
 21
5.086875
  0
LINE
  8
0
  6
CONTINUOUS
 10
278.833740
 20
71.448273
 11
278.833740
 21
42.725735
  0
ARC
  8
0
  6
CONTINUOUS
 10
318.833740
 20
57.086876
 40
42.500000
 50
-160.250107
 51
-90.000000
  0
ARC
  8
0
  6
CONTINUOUS
 10
318.833740
 20
57.086876
 40
42.500000
 50
90.000000
 51
160.250107
  0
CIRCLE
  8
0
  6
CONTINUOUS
 10
318.833740
 20
70.086876
 40
20.000000
  0
LINE
  8
0
  6
CONTINUOUS
 10
309.333740
 20
72.586876
 11
314.333740
 21
72.586876
  0
LINE
  8
0
  6
CONTINUOUS
 10
309.333740
 20
67.586876
 11
314.333740
 21
67.586876
  0
LINE
  8
0
  6
CONTINUOUS
 10
309.333740
 20
67.586876
 11
309.333740
 21
72.586876
  0
ARC
  8
0
  6
CONTINUOUS
 10
318.833740
 20
70.086876
 40
7.500000
 50
-160.528793
 51
160.528793
  0
LINE
  8
0
  6
CONTINUOUS
 10
314.333740
 20
72.586876
 11
314.333740
 21
67.586876
  0
LINE
  8
0
  6
CONTINUOUS
 10
353.833740
 20
28.802595
 11
353.833740
 21
16.086864
  0
LINE
  8
0
  6
CONTINUOUS
 10
283.833740
 20
16.086876
 11
283.833740
 21
28.802614
  0
LINE
  8
0
  6
CONTINUOUS
 10
370.247955
 20
12.501075
 11
353.901154
 21
28.847965
  0
LINE
  8
0
  6
CONTINUOUS
 10
267.419556
 20
12.501075
 11
283.783356
 21
28.865034
  0
ARC
  8
0
  6
CONTINUOUS
 10
356.833740
 20
16.086876
 40
3.000000
 50
180.000000
 51
270.000000
  0
ARC
  8
0
  6
CONTINUOUS
 10
280.833740
 20
16.086876
 40
3.000000
 50
-90.000000
 51
0.000000
  0
LINE
  8
0
  6
CONTINUOUS
 10
351.833740
 20
5.086875
 11
350.833740
 21
6.086875
  0
LINE
  8
0
  6
CONTINUOUS
 10
285.833740
 20
5.086875
 11
286.833740
 21
6.086875
  0
LINE
  8
0
  6
CONTINUOUS
 10
312.458740
 20
39.640095
 11
312.458740
 21
34.086876
  0
LINE
  8
0
  6
CONTINUOUS
 10
315.646240
 20
41.657185
 11
315.646240
 21
43.649376
  0
LINE
  8
0
  6
CONTINUOUS
 10
322.021240
 20
41.657185
 11
322.021240
 21
43.649376
  0
LINE
  8
0
  6
CONTINUOUS
 10
318.211151
 20
42.478966
 11
318.211151
 21
35.132786
  0
LINE
  8
0
  6
CONTINUOUS
 10
319.406555
 20
42.478966
 11
319.406555
 21
35.132786
  0
LINE
  8
0
  6
CONTINUOUS
 10
325.681854
 20
42.478966
 11
325.681854
 21
35.082966
  0
LINE
  8
0
  6
CONTINUOUS
 10
326.777557
 20
38.556847
 11
326.777557
 21
35.082966
  0
LINE
  8
0
  6
CONTINUOUS
 10
310.946259
 20
42.379356
 11
307.874359
 21
42.379356
  0
LINE
  8
0
  6
CONTINUOUS
 10
307.874359
 20
42.379356
 11
307.154541
 21
41.486866
  0
LINE
  8
0
  6
CONTINUOUS
 10
307.241150
 20
43.649376
 11
306.083740
 21
42.167366
  0
LINE
  8
0
  6
CONTINUOUS
 10
307.154541
 20
35.977795
 11
307.885864
 21
35.207485
  0
LINE
  8
0
  6
CONTINUOUS
 10
306.083740
 20
35.327724
 11
307.313538
 21
34.086876
  0
LINE
  8
0
  6
CONTINUOUS
 10
306.083740
 20
42.167366
 11
306.083740
 21
35.327724
  0
LINE
  8
0
  6
CONTINUOUS
 10
307.154541
 20
41.486866
 11
307.154541
 21
35.977795
  0
LINE
  8
0
  6
CONTINUOUS
 10
311.537354
 20
41.807926
 11
310.934143
 21
42.379356
  0
LINE
  8
0
  6
CONTINUOUS
 10
311.527740
 20
43.649376
 11
312.458740
 21
42.616226
  0
LINE
  8
0
  6
CONTINUOUS
 10
311.537354
 20
41.657185
 11
312.458740
 21
41.657185
  0
LINE
  8
0
  6
CONTINUOUS
 10
307.241150
 20
43.649376
 11
311.527740
 21
43.649376
  0
LINE
  8
0
  6
CONTINUOUS
 10
311.537354
 20
38.594196
 11
309.868958
 21
38.594196
  0
LINE
  8
0
  6
CONTINUOUS
 10
311.537354
 20
37.598106
 11
311.537354
 21
38.394985
  0
LINE
  8
0
  6
CONTINUOUS
 10
309.545135
 20
35.207485
 11
307.885864
 21
35.207485
  0
ARC
  8
0
  6
CONTINUOUS
 10
309.545135
 20
37.199665
 40
1.992187
 50
-89.999786
 51
0.000109
  0
LINE
  8
0
  6
CONTINUOUS
 10
311.537354
 20
34.849136
 11
311.537354
 21
34.086876
  0
LINE
  8
0
  6
CONTINUOUS
 10
312.458740
 20
42.616226
 11
312.458740
 21
41.657185
  0
LINE
  8
0
  6
CONTINUOUS
 10
311.537354
 20
38.594196
 11
311.537354
 21
37.199665
  0
LINE
  8
0
  6
CONTINUOUS
 10
309.868958
 20
39.640095
 11
309.868958
 21
38.594196
  0
LINE
  8
0
  6
CONTINUOUS
 10
311.537354
 20
34.086876
 11
312.458740
 21
34.086876
  0
LINE
  8
0
  6
CONTINUOUS
 10
311.537354
 20
34.849136
 11
310.628754
 21
34.086876
  0
LINE
  8
0
  6
CONTINUOUS
 10
319.406555
 20
35.132786
 11
319.804962
 21
35.132786
  0
LINE
  8
0
  6
CONTINUOUS
 10
317.738037
 20
35.132786
 11
317.738037
 21
34.086876
  0
LINE
  8
0
  6
CONTINUOUS
 10
319.804962
 20
35.132786
 11
319.804962
 21
34.086876
  0
LINE
  8
0
  6
CONTINUOUS
 10
321.356354
 20
41.657185
 11
322.021240
 21
41.657185
  0
LINE
  8
0
  6
CONTINUOUS
 10
315.646240
 20
41.657185
 11
316.353851
 21
41.657185
  0
LINE
  8
0
  6
CONTINUOUS
 10
315.646240
 20
43.649376
 11
322.021240
 21
43.649376
  0
LINE
  8
0
  6
CONTINUOUS
 10
317.738037
 20
34.086876
 11
319.804962
 21
34.086876
  0
LINE
  8
0
  6
CONTINUOUS
 10
317.738037
 20
35.132786
 11
318.211151
 21
35.132786
  0
ARC
  8
0
  6
CONTINUOUS
 10
329.031250
 20
41.096886
 40
2.552490
 50
-73.981873
 51
90.003510
  0
ARC
  8
0
  6
CONTINUOUS
 10
329.031250
 20
41.096886
 40
1.557193
 50
-82.585274
 51
62.411850
  0
LINE
  8
0
  6
CONTINUOUS
 10
325.208740
 20
43.649376
 11
329.031250
 21
43.649376
  0
LINE
  8
0
  6
CONTINUOUS
 10
325.208740
 20
43.649376
 11
325.208740
 21
42.478966
  0
LINE
  8
0
  6
CONTINUOUS
 10
326.777557
 20
42.478966
 11
326.777557
 21
39.552715
  0
LINE
  8
0
  6
CONTINUOUS
 10
329.735657
 20
38.643486
 11
331.315460
 21
35.082966
  0
LINE
  8
0
  6
CONTINUOUS
 10
328.818054
 20
38.556847
 11
330.313049
 21
35.082966
  0
LINE
  8
0
  6
CONTINUOUS
 10
325.208740
 20
35.082966
 11
325.681854
 21
35.082966
  0
LINE
  8
0
  6
CONTINUOUS
 10
326.777557
 20
35.082966
 11
327.213348
 21
35.082966
  0
LINE
  8
0
  6
CONTINUOUS
 10
327.213348
 20
34.086876
 11
325.208740
 21
34.086876
  0
LINE
  8
0
  6
CONTINUOUS
 10
330.114563
 20
35.082966
 11
330.313049
 21
35.082966
  0
LINE
  8
0
  6
CONTINUOUS
 10
331.315460
 20
35.082966
 11
331.583740
 21
35.082966
  0
LINE
  8
0
  6
CONTINUOUS
 10
330.114563
 20
34.086876
 11
331.583740
 21
34.086876
  0
LINE
  8
0
  6
CONTINUOUS
 10
331.583740
 20
35.082966
 11
331.583740
 21
34.086876
  0
LINE
  8
0
  6
CONTINUOUS
 10
330.114563
 20
35.082966
 11
330.114563
 21
34.086876
  0
LINE
  8
0
  6
CONTINUOUS
 10
327.213348
 20
35.082966
 11
327.213348
 21
34.086876
  0
LINE
  8
0
  6
CONTINUOUS
 10
325.208740
 20
35.082966
 11
325.208740
 21
34.086876
  0
LINE
  8
0
  6
CONTINUOUS
 10
316.696259
 20
42.478966
 11
316.353851
 21
41.657185
  0
LINE
  8
0
  6
CONTINUOUS
 10
321.067535
 20
42.478966
 11
321.356354
 21
41.657185
  0
LINE
  8
0
  6
CONTINUOUS
 10
319.406555
 20
42.478966
 11
321.067535
 21
42.478966
  0
LINE
  8
0
  6
CONTINUOUS
 10
318.211151
 20
42.478966
 11
316.696259
 21
42.478966
  0
LINE
  8
0
  6
CONTINUOUS
 10
325.208740
 20
42.478966
 11
325.681854
 21
42.478966
  0
LINE
  8
0
  6
CONTINUOUS
 10
326.777557
 20
42.478966
 11
329.752441
 21
42.477024
  0
LINE
  8
0
  6
CONTINUOUS
 10
311.537354
 20
41.807926
 11
311.537354
 21
41.657185
  0
LINE
  8
0
  6
CONTINUOUS
 10
307.313538
 20
34.086876
 11
310.628754
 21
34.086876
  0
LINE
  8
0
  6
CONTINUOUS
 10
326.777557
 20
39.552715
 11
329.232239
 21
39.552715
  0
LINE
  8
0
  6
CONTINUOUS
 10
326.777557
 20
38.556847
 11
328.818054
 21
38.556847
  0
LINE
  8
0
  6
CONTINUOUS
 10
309.868958
 20
39.640095
 11
312.458740
 21
39.640095
  0
LINE
  8
0
  6
CONTINUOUS
 10
344.934265
 20
104.086876
 11
342.333740
 21
104.086876
  0
LINE
  8
0
  6
CONTINUOUS
 10
271.833740
 20
83.187378
 11
271.833740
 21
30.986364
  0
LINE
  8
0
  6
CONTINUOUS
 10
365.833740
 20
30.986355
 11
365.833740
 21
83.187378
  0
LINE
  8
0
  6
CONTINUOUS
 10
287.783478
 20
102.036606
 11
273.884064
 21
88.137077
  0
LINE
  8
0
  6
CONTINUOUS
 10
363.783447
 20
88.137077
 11
349.884064
 21
102.036575
  0
LINE
  8
0
  6
CONTINUOUS
 10
273.884064
 20
26.036625
 11
277.419556
 21
22.501125
  0
LINE
  8
0
  6
CONTINUOUS
 10
363.783539
 20
26.036625
 11
360.247955
 21
22.501055
  0
ARC
  8
0
  6
CONTINUOUS
 10
278.833740
 20
30.986425
 40
7.000000
 50
180.000000
 51
225.000397
  0
ARC
  8
0
  6
CONTINUOUS
 10
278.833740
 20
83.187378
 40
7.000000
 50
135.000305
 51
180.000000
  0
ARC
  8
0
  6
CONTINUOUS
 10
292.733246
 20
97.086876
 40
7.000000
 50
90.000000
 51
135.000198
  0
ARC
  8
0
  6
CONTINUOUS
 10
344.934265
 20
97.086876
 40
7.000000
 50
45.000141
 51
90.000000
  0
ARC
  8
0
  6
CONTINUOUS
 10
358.833740
 20
83.187378
 40
7.000000
 50
0.000000
 51
45.000141
  0
ARC
  8
0
  6
CONTINUOUS
 10
358.833740
 20
30.986336
 40
7.000000
 50
-44.999569
 51
0.000000
  0
LINE
  8
0
  6
CONTINUOUS
 10
182.113754
 20
293.884369
 11
182.113754
 21
195.884369
  0
LINE
  8
0
  6
CENTER
 10
-4.241875
 20
244.884369
 11
218.031250
 21
244.884369
  0
LINE
  8
0
  6
CONTINUOUS
 10
63.113750
 20
273.884369
 11
182.113754
 21
273.884369
  0
LINE
  8
0
  6
CONTINUOUS
 10
63.113750
 20
289.884369
 11
182.113754
 21
289.884369
  0
LINE
  8
0
  6
CONTINUOUS
 10
63.113750
 20
199.884369
 11
182.113754
 21
199.884369
  0
LINE
  8
0
  6
CONTINUOUS
 10
53.613750
 20
289.884369
 11
63.113750
 21
289.884369
  0
LINE
  8
0
  6
CONTINUOUS
 10
63.113750
 20
273.884369
 11
53.613750
 21
273.884369
  0
LINE
  8
0
  6
CONTINUOUS
 10
53.613750
 20
199.884369
 11
63.113750
 21
199.884369
  0
LINE
  8
0
  6
CONTINUOUS
 10
63.113750
 20
199.884369
 11
63.113750
 21
219.884354
  0
LINE
  8
0
  6
CONTINUOUS
 10
215.113754
 20
252.384369
 11
215.113754
 21
235.384369
  0
LINE
  8
0
  6
CONTINUOUS
 10
188.113754
 20
253.384369
 11
188.113754
 21
236.384369
  0
LINE
  8
0
  6
CONTINUOUS
 10
188.113754
 20
252.384369
 11
215.113754
 21
252.384369
  0
LINE
  8
0
  6
CONTINUOUS
 10
188.113754
 20
237.384369
 11
191.113754
 21
237.384369
  0
LINE
  8
0
  6
CONTINUOUS
 10
185.113754
 20
264.884369
 11
182.113754
 21
264.884369
  0
LINE
  8
0
  6
CONTINUOUS
 10
185.113754
 20
224.884369
 11
182.113754
 21
224.884369
  0
LINE
  8
0
  6
CONTINUOUS
 10
186.113754
 20
225.884369
 11
186.113754
 21
263.884369
  0
ARC
  8
0
  6
CONTINUOUS
 10
185.113754
 20
263.884369
 40
1.000000
 50
0.000000
 51
90.000000
  0
ARC
  8
0
  6
CONTINUOUS
 10
185.113754
 20
225.884369
 40
1.000000
 50
-90.000000
 51
0.000000
  0
LINE
  8
0
  6
CONTINUOUS
 10
186.113754
 20
253.384369
 11
188.113754
 21
253.384369
  0
LINE
  8
0
  6
CONTINUOUS
 10
186.113754
 20
236.384369
 11
188.113754
 21
236.384369
  0
LINE
  8
0
  6
CONTINUOUS
 10
191.113754
 20
237.813370
 11
191.113754
 21
235.384369
  0
LINE
  8
0
  6
CONTINUOUS
 10
191.113754
 20
235.384369
 11
215.113754
 21
235.384369
  0
LINE
  8
0
  6
CONTINUOUS
 10
191.113754
 20
237.813370
 11
215.113754
 21
237.813370
  0
LINE
  8
0
  6
CONTINUOUS
 10
129.113754
 20
296.884369
 11
179.113754
 21
296.884369
  0
LINE
  8
0
  6
CONTINUOUS
 10
126.113747
 20
293.884369
 11
126.113747
 21
289.884369
  0
LINE
  8
0
  6
CENTER
 10
168.332657
 20
289.884369
 11
180.481247
 21
289.884369
  0
LINE
  8
0
  6
CENTER
 10
174.113754
 20
300.484680
 11
174.113754
 21
282.448120
  0
LINE
  8
0
  6
CENTER
 10
134.113754
 20
300.037506
 11
134.113754
 21
283.789673
  0
LINE
  8
0
  6
CENTER
 10
127.116875
 20
289.884369
 11
142.619370
 21
289.884369
  0
ARC
  8
0
  6
DASHED
 10
174.113754
 20
289.884369
 40
3.250000
 50
-180.000000
 51
0.000000
  0
ARC
  8
0
  6
CONTINUOUS
 10
134.113754
 20
289.884369
 40
3.250000
 50
0.000000
 51
180.000000
  0
ARC
  8
0
  6
DASHED
 10
134.113754
 20
289.884369
 40
3.250000
 50
-180.000000
 51
0.000000
  0
ARC
  8
0
  6
CONTINUOUS
 10
174.113754
 20
289.884369
 40
3.250000
 50
0.000000
 51
180.000000
  0
ARC
  8
0
  6
CONTINUOUS
 10
179.113754
 20
293.884369
 40
3.000000
 50
0.000000
 51
90.000000
  0
ARC
  8
0
  6
CONTINUOUS
 10
129.113754
 20
293.884369
 40
3.000000
 50
90.000000
 51
180.000000
  0
LINE
  8
0
  6
CONTINUOUS
 10
129.113754
 20
192.884369
 11
179.113754
 21
192.884369
  0
LINE
  8
0
  6
CONTINUOUS
 10
126.113747
 20
195.884369
 11
126.113747
 21
199.884369
  0
LINE
  8
0
  6
CENTER
 10
168.332657
 20
199.884369
 11
180.481247
 21
199.884369
  0
LINE
  8
0
  6
CENTER
 10
174.113754
 20
189.284058
 11
174.113754
 21
207.320618
  0
LINE
  8
0
  6
CENTER
 10
134.113754
 20
189.731247
 11
134.113754
 21
205.979065
  0
LINE
  8
0
  6
CENTER
 10
127.116875
 20
199.884369
 11
142.619370
 21
199.884369
  0
ARC
  8
0
  6
DASHED
 10
174.113754
 20
199.884369
 40
3.250000
 50
0.000000
 51
180.000000
  0
ARC
  8
0
  6
CONTINUOUS
 10
134.113754
 20
199.884369
 40
3.250000
 50
-180.000000
 51
0.000000
  0
ARC
  8
0
  6
DASHED
 10
134.113754
 20
199.884369
 40
3.250000
 50
0.000000
 51
180.000000
  0
ARC
  8
0
  6
CONTINUOUS
 10
174.113754
 20
199.884369
 40
3.250000
 50
-180.000000
 51
0.000000
  0
ARC
  8
0
  6
CONTINUOUS
 10
179.113754
 20
195.884369
 40
3.000000
 50
-90.000000
 51
0.000000
  0
ARC
  8
0
  6
CONTINUOUS
 10
129.113754
 20
195.884369
 40
3.000000
 50
-180.000000
 51
-90.000000
  0
LINE
  8
0
  6
CONTINUOUS
 10
63.113750
 20
215.884369
 11
182.113754
 21
215.884369
  0
LINE
  8
0
  6
CONTINUOUS
 10
63.113750
 20
215.884369
 11
53.613750
 21
215.884369
  0
LINE
  8
0
  6
CONTINUOUS
 10
63.113750
 20
269.884369
 11
63.113750
 21
289.884369
  0
LINE
  8
0
  6
CONTINUOUS
 10
53.613750
 20
291.884369
 11
53.613750
 21
252.384354
  0
LINE
  8
0
  6
CONTINUOUS
 10
53.613750
 20
273.884369
 11
9.638720
 21
273.884369
  0
LINE
  8
0
  6
CONTINUOUS
 10
53.613750
 20
215.884369
 11
9.638720
 21
215.884369
  0
LINE
  8
0
  6
CONTINUOUS
 10
11.113730
 20
291.884369
 11
53.613750
 21
291.884369
  0
LINE
  8
0
  6
CONTINUOUS
 10
11.113730
 20
197.884369
 11
53.613750
 21
197.884369
  0
ARC
  8
0
  6
CONTINUOUS
 10
11.113760
 20
286.884369
 40
5.000000
 50
90.000000
 51
180.000000
  0
ARC
  8
0
  6
CONTINUOUS
 10
11.113730
 20
202.884369
 40
5.000000
 50
180.000000
 51
270.000000
  0
LINE
  8
0
  6
CONTINUOUS
 10
6.113760
 20
286.884369
 11
6.113730
 21
202.884369
  0
LINE
  8
0
  6
CONTINUOUS
 10
55.613750
 20
103.586876
 11
102.113747
 21
103.586876
  0
LINE
  8
0
  6
CONTINUOUS
 10
104.113739
 20
133.586868
 11
104.113747
 21
105.586876
  0
LINE
  8
0
  6
CONTINUOUS
 10
54.113750
 20
133.586868
 11
54.113750
 21
105.586876
  0
LINE
  8
0
  6
CONTINUOUS
 10
52.113750
 20
115.586876
 11
104.113747
 21
115.586876
  0
LINE
  8
0
  6
CONTINUOUS
 10
102.113747
 20
103.586876
 11
104.113747
 21
105.586876
  0
LINE
  8
0
  6
CONTINUOUS
 10
54.113750
 20
105.586876
 11
56.113750
 21
103.586876
  0
LINE
  8
0
  6
CONTINUOUS
 10
54.113750
 20
105.586876
 11
104.113747
 21
105.586876
  0
LINE
  8
0
  6
CONTINUOUS
 10
55.113750
 20
134.586868
 11
103.113739
 21
134.586868
  0
LINE
  8
0
  6
CONTINUOUS
 10
103.113739
 20
134.586868
 11
104.113739
 21
133.586868
  0
LINE
  8
0
  6
CONTINUOUS
 10
55.113750
 20
134.586868
 11
54.113750
 21
133.586868
  0
LINE
  8
0
  6
CONTINUOUS
 10
54.113750
 20
133.586868
 11
104.113739
 21
133.586868
  0
LINE
  8
0
  6
CENTER
 10
46.170002
 20
125.086876
 11
58.244999
 21
125.086876
  0
LINE
  8
0
  6
CONTINUOUS
 10
52.113758
 20
131.586868
 11
52.113750
 21
115.586876
  0
LINE
  8
0
  6
CONTINUOUS
 10
53.113750
 20
132.586868
 11
54.113750
 21
132.586868
  0
ARC
  8
0
  6
CONTINUOUS
 10
53.113762
 20
131.586868
 40
1.000000
 50
90.000000
 51
180.000000
  0
LINE
  8
0
  6
CONTINUOUS
 10
48.613758
 20
129.086868
 11
48.613758
 21
121.086876
  0
LINE
  8
0
  6
CONTINUOUS
 10
48.613758
 20
129.086868
 11
52.113758
 21
130.586868
  0
LINE
  8
0
  6
CONTINUOUS
 10
48.613750
 20
121.086876
 11
52.113750
 21
119.586876
  0
LINE
  8
0
  6
CENTER
 10
79.113747
 20
98.893127
 11
79.113747
 21
139.974380
  0
LINE
  8
0
  6
CONTINUOUS
 10
55.613750
 20
103.586876
 11
55.613750
 21
102.086876
  0
LINE
  8
0
  6
CONTINUOUS
 10
101.613747
 20
103.586876
 11
101.613747
 21
102.086876
  0
LINE
  8
0
  6
CONTINUOUS
 10
295.833740
 20
103.586876
 11
341.833740
 21
103.586876
  0
LINE
  8
0
  6
CONTINUOUS
 10
343.833740
 20
133.586868
 11
343.833740
 21
105.586876
  0
LINE
  8
0
  6
CONTINUOUS
 10
293.833740
 20
133.586868
 11
293.833740
 21
105.586876
  0
LINE
  8
0
  6
CONTINUOUS
 10
293.833740
 20
115.586876
 11
343.833740
 21
115.586876
  0
LINE
  8
0
  6
CONTINUOUS
 10
341.833740
 20
103.586876
 11
343.833740
 21
105.586876
  0
LINE
  8
0
  6
CONTINUOUS
 10
293.833740
 20
105.586876
 11
295.833740
 21
103.586876
  0
LINE
  8
0
  6
CONTINUOUS
 10
293.833740
 20
105.586876
 11
343.833740
 21
105.586876
  0
LINE
  8
0
  6
CONTINUOUS
 10
294.833740
 20
134.586868
 11
342.833740
 21
134.586868
  0
LINE
  8
0
  6
CONTINUOUS
 10
342.833740
 20
134.586868
 11
343.833740
 21
133.586868
  0
LINE
  8
0
  6
CONTINUOUS
 10
294.833740
 20
134.586868
 11
293.833740
 21
133.586868
  0
LINE
  8
0
  6
CONTINUOUS
 10
293.833740
 20
133.586868
 11
343.833740
 21
133.586868
  0
LINE
  8
0
  6
CONTINUOUS
 10
341.333740
 20
103.586876
 11
341.333740
 21
101.694145
  0
LINE
  8
0
  6
CONTINUOUS
 10
296.333740
 20
103.586876
 11
296.333740
 21
101.694145
  0
LINE
  8
0
  6
CONTINUOUS
 10
295.333740
 20
104.086876
 11
292.733246
 21
104.086876
  0
LINE
  8
0
  6
CONTINUOUS
 10
53.113750
 20
252.384354
 11
54.113750
 21
252.384354
  0
ARC
  8
0
  6
CONTINUOUS
 10
53.113770
 20
251.384354
 40
1.000000
 50
90.000000
 51
180.000000
  0
LINE
  8
0
  6
CONTINUOUS
 10
48.613766
 20
248.884354
 11
48.613766
 21
240.884354
  0
LINE
  8
0
  6
CONTINUOUS
 10
48.613766
 20
248.884354
 11
52.113766
 21
250.384354
  0
LINE
  8
0
  6
CONTINUOUS
 10
48.613750
 20
240.884354
 11
52.113750
 21
239.384354
  0
LINE
  8
0
  6
CONTINUOUS
 10
52.113766
 20
251.384354
 11
52.113766
 21
238.384354
  0
LINE
  8
0
  6
CONTINUOUS
 10
53.113750
 20
237.384354
 11
54.113750
 21
237.384354
  0
ARC
  8
0
  6
CONTINUOUS
 10
53.113770
 20
238.384354
 40
1.000000
 50
-180.000000
 51
-90.000000
  0
LINE
  8
0
  6
CONTINUOUS
 10
54.113750
 20
221.884354
 11
54.113750
 21
267.884369
  0
LINE
  8
0
  6
CONTINUOUS
 10
56.113750
 20
269.884369
 11
54.113750
 21
267.884369
  0
LINE
  8
0
  6
CONTINUOUS
 10
56.113750
 20
269.884369
 11
102.113739
 21
269.884369
  0
LINE
  8
0
  6
CONTINUOUS
 10
96.613747
 20
265.384369
 11
96.613747
 21
269.884369
  0
ARC
  8
0
  6
CONTINUOUS
 10
99.613747
 20
265.384369
 40
3.000000
 50
180.000000
 51
270.000000
  0
LINE
  8
0
  6
CONTINUOUS
 10
99.613747
 20
262.384369
 11
104.113739
 21
262.384369
  0
CIRCLE
  8
0
  6
CONTINUOUS
 10
100.613747
 20
266.384369
 40
2.250000
  0
LINE
  8
0
  6
CONTINUOUS
 10
104.113747
 20
221.884354
 11
104.113739
 21
267.884369
  0
LINE
  8
0
  6
CONTINUOUS
 10
102.113739
 20
269.884369
 11
104.113739
 21
267.884369
  0
LINE
  8
0
  6
CONTINUOUS
 10
102.113747
 20
219.884354
 11
104.113747
 21
221.884354
  0
LINE
  8
0
  6
CONTINUOUS
 10
102.113747
 20
219.884354
 11
56.113750
 21
219.884354
  0
LINE
  8
0
  6
CONTINUOUS
 10
54.113750
 20
221.884354
 11
56.113750
 21
219.884354
  0
LINE
  8
0
  6
CONTINUOUS
 10
58.613750
 20
227.384354
 11
54.113762
 21
227.384354
  0
CIRCLE
  8
0
  6
CONTINUOUS
 10
57.613750
 20
223.384354
 40
2.250000
  0
ARC
  8
0
  6
CONTINUOUS
 10
58.613750
 20
224.384354
 40
3.000000
 50
0.000000
 51
90.000000
  0
LINE
  8
0
  6
CONTINUOUS
 10
61.613750
 20
224.384354
 11
61.613750
 21
219.884354
  0
LINE
  8
0
  6
CENTER
 10
79.113747
 20
212.418579
 11
79.113747
 21
276.550598
  0
LINE
  8
0
  6
CONTINUOUS
 10
56.527969
 20
268.884369
 11
55.113754
 21
267.470154
  0
LINE
  8
0
  6
CONTINUOUS
 10
55.113754
 20
227.384369
 11
55.113754
 21
267.470154
  0
LINE
  8
0
  6
CONTINUOUS
 10
96.613747
 20
268.884369
 11
56.527969
 21
268.884369
  0
LINE
  8
0
  6
CONTINUOUS
 10
103.113747
 20
262.384369
 11
103.113747
 21
222.298584
  0
LINE
  8
0
  6
CONTINUOUS
 10
61.613750
 20
220.884369
 11
101.699532
 21
220.884369
  0
LINE
  8
0
  6
CONTINUOUS
 10
101.699532
 20
220.884369
 11
103.113747
 21
222.298584
  0
LINE
  8
0
  6
CONTINUOUS
 10
53.613750
 20
237.384354
 11
53.613750
 21
197.884369
  0
TEXT
  8
0
 10
-8.000000
 20
-3.000000
 40
4.000000
 41
1.000000
  1
GLM-15-5~30-T90WT
 50
0.000000
  0
ENDSEC
  0
EOF
