  0
SECTION
  2
HEADER
  9
$CLAYER
  8
1
  9
$LTSCALE
 40
3.0
  0
ENDSEC
  0
SECTION
  2
TABLES
  0
TABLE
  2
LTYPE
 70
     4
  0
LTYPE
  2
CONTINUOUS
  3
solid line
 70
    64
 72
    65
 73
     0
 40
0.0
  0
LTYPE
  2
DASHED
  3
__ __ __ __ __ __ __ __ __ __ __ __ __ __ __
 70
    64
 72
    65
 73
     2
 40
0.75
 49
0.5
 49
-0.25
  0
LTYPE
  2
CENTER
  3
____ _ ____ _ ____ _ ____ _ ____ _ ____ _ ____
 70
    64
 72
    65
 73
     4
 40
2.0
 49
1.25
 49
-0.25
 49
0.25
 49
-0.25
  0
LTYPE
  2
PHANTOM
  3
_____ _ _ _____ _ _ _____ _ _ _____ _ _ ____
 70
    64
 72
    65
 73
     6
 40
2.5
 49
1.25
 49
-0.25
 49
0.25
 49
-0.25
 49
0.25
 49
-0.25
  0
ENDTAB
  0
TABLE
  2
LAYER
 70
     1
  0
LAYER
  2
0
 70
    64
 62
     7
  6
CONTINUOUS
  0
ENDTAB
  0
TABLE
  2
STYLE
 70
     1
  0
STYLE
  2
STANDARD
 70
     0
 40
0.000000
 41
1.000000
 50
0.000000
 71
     0
 42
3.000000
  3
txt
  4
BIGFONT
  0
ENDTAB
  0
ENDSEC
  0
SECTION
  2
BLOCKS
  0
ENDSEC
  0
SECTION
  2
ENTITIES
  0
LINE
  8
0
  6
CONTINUOUS
 10
6.284886
 20
67.325813
 11
6.284886
 21
112.325806
  0
LINE
  8
0
  6
CONTINUOUS
 10
6.284886
 20
67.325813
 11
6.284886
 21
22.325829
  0
LINE
  8
0
  6
CONTINUOUS
 10
6.784886
 20
116.325806
 11
6.784886
 21
22.325829
  0
LINE
  8
0
  6
CONTINUOUS
 10
11.875075
 20
120.325806
 11
26.784882
 21
120.325806
  0
LINE
  8
0
  6
CONTINUOUS
 10
11.875075
 20
14.325830
 11
26.784882
 21
14.325830
  0
LINE
  8
0
  6
CONTINUOUS
 10
6.784886
 20
22.325829
 11
6.784886
 21
18.325829
  0
LINE
  8
0
  6
CONTINUOUS
 10
7.402886
 20
117.561905
 11
6.784886
 21
116.325806
  0
ARC
  8
0
  6
CONTINUOUS
 10
11.875075
 20
115.325806
 40
4.999999
 50
90.000000
 51
153.435196
  0
LINE
  8
0
  6
CONTINUOUS
 10
7.402886
 20
17.089760
 11
6.784886
 21
18.325829
  0
ARC
  8
0
  6
CONTINUOUS
 10
11.875075
 20
19.325829
 40
4.999999
 50
206.565002
 51
270.000000
  0
LINE
  8
0
  6
CONTINUOUS
 10
6.284886
 20
22.325829
 11
6.784886
 21
21.825829
  0
LINE
  8
0
  6
CONTINUOUS
 10
6.284886
 20
112.325806
 11
6.784886
 21
112.825806
  0
LINE
  8
0
  6
CONTINUOUS
 10
26.784882
 20
109.949104
 11
8.659885
 21
109.949104
  0
LINE
  8
0
  6
CONTINUOUS
 10
26.784882
 20
24.702478
 11
8.659885
 21
24.702478
  0
LINE
  8
0
  6
CONTINUOUS
 10
26.784882
 20
14.325830
 11
26.784882
 21
120.325806
  0
LINE
  8
0
  6
CENTER
 10
-3.980781
 20
67.325813
 11
169.534851
 21
67.325813
  0
LINE
  8
0
  6
CONTINUOUS
 10
156.784851
 20
15.325830
 11
156.784851
 21
7.325832
  0
LINE
  8
0
  6
CONTINUOUS
 10
96.784866
 20
15.325830
 11
96.784866
 21
7.325832
  0
LINE
  8
0
  6
CENTER
 10
106.784859
 20
21.200829
 11
106.784859
 21
2.075833
  0
LINE
  8
0
  6
CENTER
 10
146.784851
 20
21.575829
 11
146.784851
 21
2.825833
  0
LINE
  8
0
  6
CENTER
 10
132.721649
 20
82.325813
 11
202.784836
 21
82.325813
  0
LINE
  8
0
  6
CONTINUOUS
 10
96.784866
 20
7.325832
 11
156.784851
 21
7.325832
  0
LINE
  8
0
  6
CONTINUOUS
 10
26.784882
 20
120.325806
 11
156.784851
 21
120.325806
  0
LINE
  8
0
  6
CONTINUOUS
 10
26.784882
 20
14.325830
 11
96.784866
 21
14.325830
  0
LINE
  8
0
  6
CONTINUOUS
 10
134.784851
 20
36.107235
 11
134.784851
 21
19.325817
  0
LINE
  8
0
  6
CONTINUOUS
 10
118.784859
 20
36.107216
 11
118.784859
 21
19.325829
  0
LINE
  8
0
  6
CONTINUOUS
 10
98.784866
 20
17.325829
 11
154.784851
 21
17.325829
  0
LINE
  8
0
  6
CONTINUOUS
 10
156.784851
 20
15.325830
 11
156.784851
 21
120.325806
  0
ARC
  8
0
  6
CONTINUOUS
 10
154.784851
 20
15.325819
 40
2.000000
 50
0.000000
 51
90.000000
  0
LINE
  8
0
  6
CONTINUOUS
 10
96.784866
 20
31.999254
 11
96.784866
 21
15.325830
  0
ARC
  8
0
  6
CONTINUOUS
 10
98.784866
 20
15.325841
 40
2.000000
 50
90.000000
 51
180.000000
  0
LINE
  8
0
  6
DASHED
 10
151.034851
 20
17.325829
 11
151.034851
 21
7.325832
  0
LINE
  8
0
  6
DASHED
 10
142.534851
 20
17.325829
 11
142.534851
 21
7.325832
  0
LINE
  8
0
  6
DASHED
 10
111.034859
 20
17.325829
 11
111.034859
 21
7.325832
  0
LINE
  8
0
  6
DASHED
 10
102.534859
 20
17.325829
 11
102.534859
 21
7.325832
  0
LINE
  8
0
  6
CONTINUOUS
 10
26.784882
 20
109.949104
 11
156.784851
 21
109.949104
  0
LINE
  8
0
  6
CONTINUOUS
 10
26.784882
 20
24.702469
 11
96.784866
 21
24.702469
  0
LINE
  8
0
  6
CONTINUOUS
 10
161.784851
 20
59.825817
 11
161.784851
 21
104.825806
  0
LINE
  8
0
  6
CONTINUOUS
 10
160.784851
 20
105.825806
 11
156.784851
 21
105.825806
  0
LINE
  8
0
  6
CONTINUOUS
 10
160.784851
 20
58.825817
 11
156.784851
 21
58.825817
  0
ARC
  8
0
  6
CONTINUOUS
 10
160.784851
 20
104.825806
 40
1.000000
 50
0.000000
 51
90.000000
  0
ARC
  8
0
  6
CONTINUOUS
 10
160.784851
 20
59.825817
 40
1.000000
 50
-90.000000
 51
0.000000
  0
ARC
  8
0
  6
CONTINUOUS
 10
99.784866
 20
31.999275
 40
2.999999
 50
90.000000
 51
180.000000
  0
LINE
  8
0
  6
CONTINUOUS
 10
99.784866
 20
34.999252
 11
118.159859
 21
34.999252
  0
LINE
  8
0
  6
CONTINUOUS
 10
156.159851
 20
34.999252
 11
135.409851
 21
34.999252
  0
ARC
  8
0
  6
CONTINUOUS
 10
136.784851
 20
36.107246
 40
2.000000
 50
90.000000
 51
180.000000
  0
ARC
  8
0
  6
CONTINUOUS
 10
116.784859
 20
36.107216
 40
2.000000
 50
0.000000
 51
90.000000
  0
ARC
  8
0
  6
CONTINUOUS
 10
136.784851
 20
19.325829
 40
2.000000
 50
180.000000
 51
270.000000
  0
ARC
  8
0
  6
CONTINUOUS
 10
116.784859
 20
19.325829
 40
2.000000
 50
-90.000000
 51
0.000000
  0
LINE
  8
0
  6
CENTER
 10
306.437805
 20
-2.424166
 11
306.437805
 21
177.891327
  0
LINE
  8
0
  6
CENTER
 10
246.390625
 20
67.325813
 11
366.917969
 21
67.325813
  0
LINE
  8
0
  6
CONTINUOUS
 10
346.437775
 20
7.325832
 11
371.437775
 21
7.325832
  0
LINE
  8
0
  6
CONTINUOUS
 10
371.437775
 20
15.325819
 11
371.437775
 21
7.325832
  0
LINE
  8
0
  6
CONTINUOUS
 10
345.437775
 20
8.325832
 11
306.437805
 21
8.325832
  0
LINE
  8
0
  6
CONTINUOUS
 10
353.437775
 20
17.325829
 11
369.437775
 21
17.325829
  0
LINE
  8
0
  6
CONTINUOUS
 10
337.937775
 20
117.810600
 11
337.937775
 21
109.949203
  0
LINE
  8
0
  6
CENTER
 10
361.437775
 20
21.825829
 11
361.437775
 21
1.075833
  0
LINE
  8
0
  6
DASHED
 10
365.687775
 20
17.325829
 11
365.687775
 21
7.325832
  0
LINE
  8
0
  6
DASHED
 10
357.187775
 20
17.325829
 11
357.187775
 21
7.325832
  0
LINE
  8
0
  6
CONTINUOUS
 10
335.972687
 20
119.810303
 11
306.437805
 21
120.325806
  0
ARC
  8
0
  6
CONTINUOUS
 10
335.937775
 20
117.810600
 40
2.000000
 50
0.000000
 51
89.000076
  0
LINE
  8
0
  6
CENTER
 10
274.613281
 20
82.325813
 11
340.886902
 21
82.325813
  0
LINE
  8
0
  6
CONTINUOUS
 10
266.437805
 20
7.325832
 11
241.437805
 21
7.325832
  0
LINE
  8
0
  6
CONTINUOUS
 10
241.437805
 20
15.325810
 11
241.437805
 21
7.325832
  0
LINE
  8
0
  6
CONTINUOUS
 10
267.437805
 20
8.325832
 11
306.437805
 21
8.325832
  0
LINE
  8
0
  6
CONTINUOUS
 10
259.437805
 20
17.325829
 11
243.437805
 21
17.325829
  0
LINE
  8
0
  6
CONTINUOUS
 10
274.937805
 20
117.810600
 11
274.937805
 21
109.949203
  0
LINE
  8
0
  6
CENTER
 10
251.437805
 20
21.825829
 11
251.437805
 21
1.075833
  0
LINE
  8
0
  6
DASHED
 10
247.187805
 20
17.325829
 11
247.187805
 21
7.325832
  0
LINE
  8
0
  6
DASHED
 10
255.687805
 20
17.325829
 11
255.687805
 21
7.325832
  0
LINE
  8
0
  6
CONTINUOUS
 10
276.902893
 20
119.810303
 11
306.437805
 21
120.325806
  0
ARC
  8
0
  6
CONTINUOUS
 10
276.937805
 20
117.810600
 40
2.000000
 50
90.999924
 51
180.000000
  0
ARC
  8
0
  6
CONTINUOUS
 10
306.437805
 20
67.325813
 40
52.999989
 50
126.465599
 51
217.584595
  0
ARC
  8
0
  6
CONTINUOUS
 10
306.437805
 20
67.325813
 40
52.999989
 50
53.534370
 51
53.534382
  0
ARC
  8
0
  6
CONTINUOUS
 10
306.437805
 20
67.325813
 40
52.999989
 50
-37.584629
 51
53.534382
  0
LINE
  8
0
  6
CONTINUOUS
 10
354.437775
 20
83.018211
 11
354.437775
 21
51.633781
  0
LINE
  8
0
  6
CONTINUOUS
 10
258.437805
 20
83.018013
 11
258.437805
 21
51.633301
  0
ARC
  8
0
  6
CONTINUOUS
 10
306.437805
 20
67.325813
 40
50.499989
 50
18.103800
 51
161.896194
  0
ARC
  8
0
  6
CONTINUOUS
 10
306.437805
 20
67.325813
 40
50.499989
 50
198.103806
 51
341.896210
  0
LINE
  8
0
  6
CONTINUOUS
 10
264.437805
 20
22.325829
 11
264.437805
 21
34.999367
  0
ARC
  8
0
  6
CONTINUOUS
 10
353.437775
 20
22.325829
 40
4.999999
 50
180.000000
 51
270.000000
  0
ARC
  8
0
  6
CONTINUOUS
 10
259.437805
 20
22.325817
 40
4.999999
 50
-90.000000
 51
0.000000
  0
LINE
  8
0
  6
CONTINUOUS
 10
348.437775
 20
22.325808
 11
348.437775
 21
34.999374
  0
CIRCLE
  8
0
  6
CONTINUOUS
 10
306.437805
 20
82.325813
 40
23.499994
  0
ARC
  8
0
  6
CONTINUOUS
 10
369.437775
 20
15.325819
 40
2.000000
 50
0.000000
 51
90.000000
  0
LINE
  8
0
  6
CONTINUOUS
 10
370.851990
 20
16.740040
 11
350.222198
 21
37.369644
  0
ARC
  8
0
  6
CONTINUOUS
 10
243.437805
 20
15.325819
 40
2.000000
 50
90.000000
 51
180.000000
  0
LINE
  8
0
  6
CONTINUOUS
 10
242.023605
 20
16.740040
 11
262.653412
 21
37.369644
  0
LINE
  8
0
  6
CONTINUOUS
 10
346.437775
 20
7.325832
 11
345.437775
 21
8.325832
  0
LINE
  8
0
  6
CONTINUOUS
 10
266.437805
 20
7.325832
 11
267.437805
 21
8.325832
  0
LINE
  8
0
  6
CONTINUOUS
 10
300.062805
 20
44.879044
 11
300.062805
 21
39.325825
  0
LINE
  8
0
  6
CONTINUOUS
 10
303.250305
 20
46.896122
 11
303.250305
 21
48.888321
  0
LINE
  8
0
  6
CONTINUOUS
 10
309.625305
 20
46.896122
 11
309.625305
 21
48.888321
  0
LINE
  8
0
  6
CONTINUOUS
 10
305.815186
 20
47.717911
 11
305.815186
 21
40.371723
  0
LINE
  8
0
  6
CONTINUOUS
 10
307.010590
 20
47.717911
 11
307.010590
 21
40.371723
  0
LINE
  8
0
  6
CONTINUOUS
 10
313.285889
 20
47.717911
 11
313.285889
 21
40.321915
  0
LINE
  8
0
  6
CONTINUOUS
 10
314.381592
 20
43.795792
 11
314.381592
 21
40.321915
  0
LINE
  8
0
  6
CONTINUOUS
 10
298.550293
 20
47.618301
 11
295.478394
 21
47.618301
  0
LINE
  8
0
  6
CONTINUOUS
 10
295.478394
 20
47.618301
 11
294.758606
 21
46.725803
  0
LINE
  8
0
  6
CONTINUOUS
 10
294.845184
 20
48.888321
 11
293.687805
 21
47.406322
  0
LINE
  8
0
  6
CONTINUOUS
 10
294.758606
 20
41.216736
 11
295.489899
 21
40.446434
  0
LINE
  8
0
  6
CONTINUOUS
 10
293.687805
 20
40.566666
 11
294.917603
 21
39.325825
  0
LINE
  8
0
  6
CONTINUOUS
 10
293.687805
 20
47.406322
 11
293.687805
 21
40.566666
  0
LINE
  8
0
  6
CONTINUOUS
 10
294.758606
 20
46.725803
 11
294.758606
 21
41.216736
  0
LINE
  8
0
  6
CONTINUOUS
 10
299.141388
 20
47.046864
 11
298.538208
 21
47.618301
  0
LINE
  8
0
  6
CONTINUOUS
 10
299.131805
 20
48.888321
 11
300.062805
 21
47.855183
  0
LINE
  8
0
  6
CONTINUOUS
 10
299.141388
 20
46.896122
 11
300.062805
 21
46.896122
  0
LINE
  8
0
  6
CONTINUOUS
 10
294.845184
 20
48.888321
 11
299.131805
 21
48.888321
  0
LINE
  8
0
  6
CONTINUOUS
 10
299.141388
 20
43.833141
 11
297.472992
 21
43.833141
  0
LINE
  8
0
  6
CONTINUOUS
 10
299.141388
 20
42.837051
 11
299.141388
 21
43.633934
  0
LINE
  8
0
  6
CONTINUOUS
 10
297.149200
 20
40.446434
 11
295.489899
 21
40.446434
  0
ARC
  8
0
  6
CONTINUOUS
 10
297.149200
 20
42.438614
 40
1.992186
 50
-89.999786
 51
0.000109
  0
LINE
  8
0
  6
CONTINUOUS
 10
299.141388
 20
40.088085
 11
299.141388
 21
39.325825
  0
LINE
  8
0
  6
CONTINUOUS
 10
300.062805
 20
47.855183
 11
300.062805
 21
46.896122
  0
LINE
  8
0
  6
CONTINUOUS
 10
299.141388
 20
43.833141
 11
299.141388
 21
42.438614
  0
LINE
  8
0
  6
CONTINUOUS
 10
297.472992
 20
44.879044
 11
297.472992
 21
43.833141
  0
LINE
  8
0
  6
CONTINUOUS
 10
299.141388
 20
39.325825
 11
300.062805
 21
39.325825
  0
LINE
  8
0
  6
CONTINUOUS
 10
299.141388
 20
40.088085
 11
298.232788
 21
39.325825
  0
LINE
  8
0
  6
CONTINUOUS
 10
307.010590
 20
40.371723
 11
307.408997
 21
40.371723
  0
LINE
  8
0
  6
CONTINUOUS
 10
305.342102
 20
40.371723
 11
305.342102
 21
39.325825
  0
LINE
  8
0
  6
CONTINUOUS
 10
307.408997
 20
40.371723
 11
307.408997
 21
39.325825
  0
LINE
  8
0
  6
CONTINUOUS
 10
308.960388
 20
46.896122
 11
309.625305
 21
46.896122
  0
LINE
  8
0
  6
CONTINUOUS
 10
303.250305
 20
46.896122
 11
303.957886
 21
46.896122
  0
LINE
  8
0
  6
CONTINUOUS
 10
303.250305
 20
48.888321
 11
309.625305
 21
48.888321
  0
LINE
  8
0
  6
CONTINUOUS
 10
305.342102
 20
39.325825
 11
307.408997
 21
39.325825
  0
LINE
  8
0
  6
CONTINUOUS
 10
305.342102
 20
40.371723
 11
305.815186
 21
40.371723
  0
ARC
  8
0
  6
CONTINUOUS
 10
316.635284
 20
46.335835
 40
2.552489
 50
-73.981873
 51
90.003510
  0
ARC
  8
0
  6
CONTINUOUS
 10
316.635284
 20
46.335835
 40
1.557193
 50
-82.585274
 51
62.411850
  0
LINE
  8
0
  6
CONTINUOUS
 10
312.812805
 20
48.888321
 11
316.635284
 21
48.888321
  0
LINE
  8
0
  6
CONTINUOUS
 10
312.812805
 20
48.888321
 11
312.812805
 21
47.717911
  0
LINE
  8
0
  6
CONTINUOUS
 10
314.381592
 20
47.717911
 11
314.381592
 21
44.791664
  0
LINE
  8
0
  6
CONTINUOUS
 10
317.339691
 20
43.882442
 11
318.919495
 21
40.321915
  0
LINE
  8
0
  6
CONTINUOUS
 10
316.422089
 20
43.795792
 11
317.917084
 21
40.321915
  0
LINE
  8
0
  6
CONTINUOUS
 10
312.812805
 20
40.321915
 11
313.285889
 21
40.321915
  0
LINE
  8
0
  6
CONTINUOUS
 10
314.381592
 20
40.321915
 11
314.817383
 21
40.321915
  0
LINE
  8
0
  6
CONTINUOUS
 10
314.817383
 20
39.325825
 11
312.812805
 21
39.325825
  0
LINE
  8
0
  6
CONTINUOUS
 10
317.718597
 20
40.321915
 11
317.917084
 21
40.321915
  0
LINE
  8
0
  6
CONTINUOUS
 10
318.919495
 20
40.321915
 11
319.187805
 21
40.321915
  0
LINE
  8
0
  6
CONTINUOUS
 10
317.718597
 20
39.325825
 11
319.187805
 21
39.325825
  0
LINE
  8
0
  6
CONTINUOUS
 10
319.187805
 20
40.321915
 11
319.187805
 21
39.325825
  0
LINE
  8
0
  6
CONTINUOUS
 10
317.718597
 20
40.321915
 11
317.718597
 21
39.325825
  0
LINE
  8
0
  6
CONTINUOUS
 10
314.817383
 20
40.321915
 11
314.817383
 21
39.325825
  0
LINE
  8
0
  6
CONTINUOUS
 10
312.812805
 20
40.321915
 11
312.812805
 21
39.325825
  0
LINE
  8
0
  6
CONTINUOUS
 10
304.300293
 20
47.717911
 11
303.957886
 21
46.896122
  0
LINE
  8
0
  6
CONTINUOUS
 10
308.671600
 20
47.717911
 11
308.960388
 21
46.896122
  0
LINE
  8
0
  6
CONTINUOUS
 10
307.010590
 20
47.717911
 11
308.671600
 21
47.717911
  0
LINE
  8
0
  6
CONTINUOUS
 10
305.815186
 20
47.717911
 11
304.300293
 21
47.717911
  0
LINE
  8
0
  6
CONTINUOUS
 10
312.812805
 20
47.717911
 11
313.285889
 21
47.717911
  0
LINE
  8
0
  6
CONTINUOUS
 10
314.381592
 20
47.717911
 11
317.356506
 21
47.715973
  0
LINE
  8
0
  6
CONTINUOUS
 10
299.141388
 20
47.046864
 11
299.141388
 21
46.896122
  0
LINE
  8
0
  6
CONTINUOUS
 10
294.917603
 20
39.325825
 11
298.232788
 21
39.325825
  0
LINE
  8
0
  6
CONTINUOUS
 10
314.381592
 20
44.791664
 11
316.836304
 21
44.791664
  0
LINE
  8
0
  6
CONTINUOUS
 10
314.381592
 20
43.795792
 11
316.422089
 21
43.795792
  0
LINE
  8
0
  6
CONTINUOUS
 10
297.472992
 20
44.879044
 11
300.062805
 21
44.879044
  0
LINE
  8
0
  6
CONTINUOUS
 10
193.784836
 20
73.325813
 11
193.784836
 21
91.325813
  0
LINE
  8
0
  6
CONTINUOUS
 10
163.784851
 20
91.325813
 11
193.784836
 21
91.325813
  0
LINE
  8
0
  6
CONTINUOUS
 10
163.784851
 20
73.325813
 11
193.784836
 21
73.325813
  0
LINE
  8
0
  6
CONTINUOUS
 10
163.784851
 20
92.325813
 11
163.784851
 21
72.325813
  0
LINE
  8
0
  6
CONTINUOUS
 10
161.784851
 20
92.325813
 11
163.784851
 21
92.325813
  0
LINE
  8
0
  6
CONTINUOUS
 10
161.784851
 20
72.325813
 11
163.784851
 21
72.325813
  0
ARC
  8
0
  6
CONTINUOUS
 10
169.784851
 20
82.325813
 40
2.999999
 50
90.000000
 51
270.000000
  0
LINE
  8
0
  6
CONTINUOUS
 10
169.784851
 20
85.325813
 11
193.784836
 21
85.325813
  0
LINE
  8
0
  6
CONTINUOUS
 10
169.784851
 20
79.325813
 11
193.784836
 21
79.325813
  0
LINE
  8
0
  6
CONTINUOUS
 10
300.937805
 20
85.325813
 11
300.937805
 21
79.325813
  0
LINE
  8
0
  6
CONTINUOUS
 10
294.937805
 20
85.325813
 11
294.937805
 21
79.325813
  0
LINE
  8
0
  6
CONTINUOUS
 10
294.937805
 20
85.325813
 11
300.937805
 21
85.325813
  0
LINE
  8
0
  6
CONTINUOUS
 10
294.937805
 20
79.325813
 11
300.937805
 21
79.325813
  0
ARC
  8
0
  6
CONTINUOUS
 10
306.437805
 20
82.325813
 40
8.999998
 50
-160.528793
 51
160.528793
  0
LINE
  8
0
  6
CENTER
 10
-4.655937
 20
274.936096
 11
199.440308
 21
274.936096
  0
LINE
  8
0
  6
CONTINUOUS
 10
26.784882
 20
327.936096
 11
156.784851
 21
327.936096
  0
LINE
  8
0
  6
CONTINUOUS
 10
26.784882
 20
221.936096
 11
156.784851
 21
221.936096
  0
LINE
  8
0
  6
CONTINUOUS
 10
156.784851
 20
212.936096
 11
156.784851
 21
336.936096
  0
LINE
  8
0
  6
CONTINUOUS
 10
153.784851
 20
339.936096
 11
99.784851
 21
339.936096
  0
LINE
  8
0
  6
CONTINUOUS
 10
99.784851
 20
209.936096
 11
153.784851
 21
209.936096
  0
LINE
  8
0
  6
CONTINUOUS
 10
96.784851
 20
336.936096
 11
96.784851
 21
327.936096
  0
LINE
  8
0
  6
CONTINUOUS
 10
96.784851
 20
212.936096
 11
96.784851
 21
221.936096
  0
ARC
  8
0
  6
CONTINUOUS
 10
99.784851
 20
336.936096
 40
3.000000
 50
90.000000
 51
180.000000
  0
ARC
  8
0
  6
CONTINUOUS
 10
153.784851
 20
336.936096
 40
3.000000
 50
0.000000
 51
90.000000
  0
ARC
  8
0
  6
CONTINUOUS
 10
153.784851
 20
212.936096
 40
3.000000
 50
-90.000000
 51
0.000000
  0
ARC
  8
0
  6
CONTINUOUS
 10
99.784851
 20
212.936096
 40
3.000000
 50
180.000000
 51
270.000000
  0
LINE
  8
0
  6
CONTINUOUS
 10
6.284886
 20
274.936096
 11
6.284886
 21
319.936096
  0
LINE
  8
0
  6
CONTINUOUS
 10
6.284886
 20
274.936096
 11
6.284886
 21
229.936111
  0
LINE
  8
0
  6
CONTINUOUS
 10
6.784886
 20
323.936096
 11
6.784886
 21
229.936111
  0
LINE
  8
0
  6
CONTINUOUS
 10
11.875075
 20
327.936096
 11
26.784882
 21
327.936096
  0
LINE
  8
0
  6
CONTINUOUS
 10
11.875075
 20
221.936111
 11
26.784882
 21
221.936111
  0
LINE
  8
0
  6
CONTINUOUS
 10
6.784886
 20
229.936111
 11
6.784886
 21
225.936111
  0
LINE
  8
0
  6
CONTINUOUS
 10
7.402886
 20
325.172180
 11
6.784886
 21
323.936096
  0
ARC
  8
0
  6
CONTINUOUS
 10
11.875075
 20
322.936096
 40
4.999999
 50
90.000000
 51
153.435196
  0
LINE
  8
0
  6
CONTINUOUS
 10
7.402886
 20
224.700043
 11
6.784886
 21
225.936111
  0
ARC
  8
0
  6
CONTINUOUS
 10
11.875075
 20
226.936111
 40
4.999999
 50
206.565002
 51
270.000000
  0
LINE
  8
0
  6
CONTINUOUS
 10
6.284886
 20
229.936111
 11
6.784886
 21
229.436111
  0
LINE
  8
0
  6
CONTINUOUS
 10
6.284886
 20
319.936096
 11
6.784886
 21
320.436096
  0
LINE
  8
0
  6
CONTINUOUS
 10
26.784882
 20
306.436096
 11
8.659885
 21
306.436096
  0
LINE
  8
0
  6
CONTINUOUS
 10
26.784882
 20
243.436096
 11
8.659885
 21
243.436096
  0
LINE
  8
0
  6
CONTINUOUS
 10
26.784882
 20
221.936111
 11
26.784882
 21
249.936081
  0
LINE
  8
0
  6
CONTINUOUS
 10
26.784882
 20
306.436096
 11
156.784851
 21
306.436096
  0
LINE
  8
0
  6
CONTINUOUS
 10
26.784882
 20
243.436096
 11
156.784851
 21
243.436096
  0
LINE
  8
0
  6
CONTINUOUS
 10
161.784851
 20
252.436096
 11
161.784851
 21
297.436096
  0
LINE
  8
0
  6
CONTINUOUS
 10
160.784851
 20
298.436096
 11
156.784851
 21
298.436096
  0
LINE
  8
0
  6
CONTINUOUS
 10
160.784851
 20
251.436096
 11
156.784851
 21
251.436096
  0
ARC
  8
0
  6
CONTINUOUS
 10
160.784851
 20
297.436096
 40
1.000000
 50
0.000000
 51
90.000000
  0
ARC
  8
0
  6
CONTINUOUS
 10
160.784851
 20
252.436096
 40
1.000000
 50
-90.000000
 51
0.000000
  0
LINE
  8
0
  6
CONTINUOUS
 10
193.784836
 20
263.436096
 11
193.784836
 21
283.936096
  0
LINE
  8
0
  6
CONTINUOUS
 10
163.784851
 20
283.936096
 11
193.784836
 21
283.936096
  0
LINE
  8
0
  6
CONTINUOUS
 10
163.784851
 20
265.936096
 11
166.784851
 21
265.936096
  0
LINE
  8
0
  6
CONTINUOUS
 10
163.784851
 20
284.936096
 11
163.784851
 21
264.936096
  0
LINE
  8
0
  6
CONTINUOUS
 10
161.784851
 20
284.936096
 11
163.784851
 21
284.936096
  0
LINE
  8
0
  6
CONTINUOUS
 10
161.784851
 20
264.936096
 11
163.784851
 21
264.936096
  0
LINE
  8
0
  6
CONTINUOUS
 10
134.784851
 20
221.936096
 11
134.784851
 21
211.798126
  0
LINE
  8
0
  6
CONTINUOUS
 10
118.784859
 20
221.936096
 11
118.784859
 21
211.798126
  0
LINE
  8
0
  6
CENTER
 10
146.784851
 20
228.174850
 11
146.784851
 21
211.185394
  0
LINE
  8
0
  6
CENTER
 10
106.784851
 20
228.954681
 11
106.784851
 21
211.463913
  0
LINE
  8
0
  6
CENTER
 10
98.729065
 20
219.936096
 11
115.551407
 21
219.936096
  0
LINE
  8
0
  6
CENTER
 10
138.835312
 20
219.936096
 11
155.156326
 21
219.936096
  0
ARC
  8
0
  6
CONTINUOUS
 10
146.784851
 20
219.936096
 40
4.250000
 50
-208.072495
 51
28.072487
  0
ARC
  8
0
  6
DASHED
 10
106.784851
 20
219.936096
 40
4.250000
 50
28.072487
 51
151.927505
  0
ARC
  8
0
  6
CONTINUOUS
 10
106.784851
 20
219.936096
 40
4.250000
 50
-208.072495
 51
28.072487
  0
ARC
  8
0
  6
DASHED
 10
146.784851
 20
219.936096
 40
4.250000
 50
28.072487
 51
151.927505
  0
LINE
  8
0
  6
CONTINUOUS
 10
166.784851
 20
266.451080
 11
166.784851
 21
263.436096
  0
LINE
  8
0
  6
CONTINUOUS
 10
166.784851
 20
263.436096
 11
193.784836
 21
263.436096
  0
LINE
  8
0
  6
CONTINUOUS
 10
166.784851
 20
266.451080
 11
193.784836
 21
266.451080
  0
LINE
  8
0
  6
CONTINUOUS
 10
26.784882
 20
299.936066
 11
26.784882
 21
327.936096
  0
LINE
  8
0
  6
CONTINUOUS
 10
134.784851
 20
327.936096
 11
134.784851
 21
338.074066
  0
LINE
  8
0
  6
CONTINUOUS
 10
118.784859
 20
327.936096
 11
118.784859
 21
338.074066
  0
LINE
  8
0
  6
CENTER
 10
146.784851
 20
321.697357
 11
146.784851
 21
338.686798
  0
LINE
  8
0
  6
CENTER
 10
106.784851
 20
320.917511
 11
106.784851
 21
338.408295
  0
LINE
  8
0
  6
CENTER
 10
98.729065
 20
329.936096
 11
115.551407
 21
329.936096
  0
LINE
  8
0
  6
CENTER
 10
138.835312
 20
329.936096
 11
155.156326
 21
329.936096
  0
ARC
  8
0
  6
CONTINUOUS
 10
146.784851
 20
329.936096
 40
4.250000
 50
-28.072487
 51
208.072495
  0
ARC
  8
0
  6
DASHED
 10
106.784851
 20
329.936096
 40
4.250000
 50
-151.927505
 51
-28.072487
  0
ARC
  8
0
  6
CONTINUOUS
 10
106.784851
 20
329.936096
 40
4.250000
 50
-28.072487
 51
208.072495
  0
ARC
  8
0
  6
DASHED
 10
146.784851
 20
329.936096
 40
4.250000
 50
-151.927505
 51
-28.072487
  0
LINE
  8
0
  6
CONTINUOUS
 10
17.784882
 20
251.936081
 11
17.784882
 21
297.936066
  0
LINE
  8
0
  6
CONTINUOUS
 10
19.784882
 20
299.936066
 11
17.784882
 21
297.936066
  0
LINE
  8
0
  6
CONTINUOUS
 10
19.784882
 20
299.936066
 11
65.784874
 21
299.936066
  0
LINE
  8
0
  6
CONTINUOUS
 10
60.284882
 20
295.436066
 11
60.284882
 21
299.936066
  0
ARC
  8
0
  6
CONTINUOUS
 10
63.284882
 20
295.436066
 40
3.000000
 50
180.000000
 51
270.000000
  0
LINE
  8
0
  6
CONTINUOUS
 10
63.284882
 20
292.436066
 11
67.784874
 21
292.436066
  0
CIRCLE
  8
0
  6
CONTINUOUS
 10
64.284882
 20
296.436066
 40
2.250000
  0
LINE
  8
0
  6
CONTINUOUS
 10
67.784874
 20
251.936081
 11
67.784874
 21
297.936066
  0
LINE
  8
0
  6
CONTINUOUS
 10
65.784874
 20
299.936066
 11
67.784874
 21
297.936066
  0
LINE
  8
0
  6
CONTINUOUS
 10
65.784874
 20
249.936081
 11
67.784874
 21
251.936081
  0
LINE
  8
0
  6
CONTINUOUS
 10
65.784874
 20
249.936081
 11
19.784882
 21
249.936081
  0
LINE
  8
0
  6
CONTINUOUS
 10
17.784882
 20
251.936081
 11
19.784882
 21
249.936081
  0
LINE
  8
0
  6
CONTINUOUS
 10
22.284882
 20
257.436066
 11
17.784891
 21
257.436066
  0
CIRCLE
  8
0
  6
CONTINUOUS
 10
21.284882
 20
253.436081
 40
2.250000
  0
ARC
  8
0
  6
CONTINUOUS
 10
22.284882
 20
254.436081
 40
3.000000
 50
0.000000
 51
90.000000
  0
LINE
  8
0
  6
CONTINUOUS
 10
25.284882
 20
254.436081
 11
25.284882
 21
249.936081
  0
LINE
  8
0
  6
CENTER
 10
42.784882
 20
242.470291
 11
42.784882
 21
306.602325
  0
LINE
  8
0
  6
CONTINUOUS
 10
18.784887
 20
257.436096
 11
18.784887
 21
292.436096
  0
LINE
  8
0
  6
CONTINUOUS
 10
60.284882
 20
298.936096
 11
25.284901
 21
298.936096
  0
LINE
  8
0
  6
CONTINUOUS
 10
66.784874
 20
292.436096
 11
66.784874
 21
257.436096
  0
LINE
  8
0
  6
CONTINUOUS
 10
25.284882
 20
250.936096
 11
60.284901
 21
250.936096
  0
ARC
  8
0
  6
CONTINUOUS
 10
22.284901
 20
295.436096
 40
3.000000
 50
-90.000000
 51
0.000000
  0
LINE
  8
0
  6
CONTINUOUS
 10
25.284901
 20
295.436096
 11
25.284901
 21
299.936096
  0
CIRCLE
  8
0
  6
CONTINUOUS
 10
21.284901
 20
296.436096
 40
2.250000
  0
LINE
  8
0
  6
CONTINUOUS
 10
22.284901
 20
292.436096
 11
17.784901
 21
292.436096
  0
CIRCLE
  8
0
  6
CONTINUOUS
 10
64.284904
 20
253.436096
 40
2.250000
  0
LINE
  8
0
  6
CONTINUOUS
 10
60.284901
 20
254.436096
 11
60.284901
 21
249.936111
  0
ARC
  8
0
  6
CONTINUOUS
 10
63.284901
 20
254.436096
 40
3.000000
 50
90.000000
 51
180.000000
  0
LINE
  8
0
  6
CONTINUOUS
 10
63.284901
 20
257.436096
 11
67.784904
 21
257.436096
  0
LINE
  8
0
  6
CONTINUOUS
 10
19.284882
 20
121.825813
 11
65.784882
 21
121.825813
  0
LINE
  8
0
  6
CONTINUOUS
 10
67.784859
 20
165.825821
 11
67.784882
 21
123.825813
  0
LINE
  8
0
  6
CONTINUOUS
 10
17.784882
 20
165.825821
 11
17.784882
 21
123.825813
  0
LINE
  8
0
  6
CONTINUOUS
 10
17.784882
 20
133.825821
 11
67.784882
 21
133.825821
  0
LINE
  8
0
  6
CONTINUOUS
 10
65.784882
 20
121.825813
 11
67.784882
 21
123.825813
  0
LINE
  8
0
  6
CONTINUOUS
 10
17.784882
 20
123.825813
 11
19.784882
 21
121.825813
  0
LINE
  8
0
  6
CONTINUOUS
 10
17.784882
 20
123.825813
 11
67.784882
 21
123.825813
  0
LINE
  8
0
  6
CONTINUOUS
 10
17.784882
 20
134.825821
 11
67.784874
 21
134.825821
  0
LINE
  8
0
  6
CONTINUOUS
 10
18.784882
 20
166.825821
 11
66.784859
 21
166.825821
  0
LINE
  8
0
  6
CONTINUOUS
 10
66.784859
 20
166.825821
 11
67.784859
 21
165.825821
  0
LINE
  8
0
  6
CONTINUOUS
 10
18.784882
 20
166.825821
 11
17.784882
 21
165.825821
  0
LINE
  8
0
  6
CONTINUOUS
 10
17.784882
 20
165.825821
 11
67.784859
 21
165.825821
  0
LINE
  8
0
  6
CENTER
 10
15.409881
 20
149.825821
 11
20.034882
 21
149.825821
  0
LINE
  8
0
  6
CONTINUOUS
 10
19.284882
 20
121.825813
 11
19.284882
 21
120.325813
  0
LINE
  8
0
  6
CONTINUOUS
 10
65.284882
 20
121.825813
 11
65.284882
 21
120.325813
  0
LINE
  8
0
  6
CONTINUOUS
 10
16.909882
 20
160.325821
 11
18.909882
 21
160.325821
  0
LINE
  8
0
  6
CONTINUOUS
 10
16.909882
 20
139.325821
 11
18.909882
 21
139.325821
  0
LINE
  8
0
  6
CENTER
 10
42.784882
 20
112.410194
 11
42.784882
 21
173.745193
  0
LINE
  8
0
  6
CONTINUOUS
 10
283.437805
 20
121.825813
 11
329.437805
 21
121.825813
  0
LINE
  8
0
  6
CONTINUOUS
 10
331.437805
 20
165.825806
 11
331.437805
 21
123.825813
  0
LINE
  8
0
  6
CONTINUOUS
 10
281.437805
 20
165.825806
 11
281.437805
 21
123.825813
  0
LINE
  8
0
  6
CONTINUOUS
 10
281.437805
 20
133.825806
 11
331.437805
 21
133.825806
  0
LINE
  8
0
  6
CONTINUOUS
 10
329.437805
 20
121.825813
 11
331.437805
 21
123.825813
  0
LINE
  8
0
  6
CONTINUOUS
 10
281.437805
 20
123.825813
 11
283.437805
 21
121.825813
  0
LINE
  8
0
  6
CONTINUOUS
 10
281.437805
 20
123.825813
 11
331.437805
 21
123.825813
  0
LINE
  8
0
  6
CONTINUOUS
 10
281.437805
 20
134.825806
 11
331.437805
 21
134.825806
  0
LINE
  8
0
  6
CONTINUOUS
 10
282.437805
 20
166.825806
 11
330.437805
 21
166.825806
  0
LINE
  8
0
  6
CONTINUOUS
 10
330.437805
 20
166.825806
 11
331.437805
 21
165.825806
  0
LINE
  8
0
  6
CONTINUOUS
 10
282.437805
 20
166.825806
 11
281.437805
 21
165.825806
  0
LINE
  8
0
  6
CONTINUOUS
 10
281.437805
 20
165.825806
 11
331.437805
 21
165.825806
  0
LINE
  8
0
  6
CONTINUOUS
 10
328.937805
 20
121.825813
 11
328.937805
 21
119.933083
  0
LINE
  8
0
  6
CONTINUOUS
 10
283.937805
 20
121.825813
 11
283.937805
 21
119.933075
  0
TEXT
  8
0
 10
-4.000000
 20
-2.000000
 40
4.000000
 41
1.000000
  1
GLM-18-80~240-S60WK
 50
0.000000
  0
ENDSEC
  0
EOF
