  0
SECTION
  2
HEADER
  9
$CLAYER
  8
1
  9
$LTSCALE
 40
3.0
  0
ENDSEC
  0
SECTION
  2
TABLES
  0
TABLE
  2
LTYPE
 70
     4
  0
LTYPE
  2
CONTINUOUS
  3
solid line
 70
    64
 72
    65
 73
     0
 40
0.0
  0
LTYPE
  2
DASHED
  3
__ __ __ __ __ __ __ __ __ __ __ __ __ __ __
 70
    64
 72
    65
 73
     2
 40
0.75
 49
0.5
 49
-0.25
  0
LTYPE
  2
CENTER
  3
____ _ ____ _ ____ _ ____ _ ____ _ ____ _ ____
 70
    64
 72
    65
 73
     4
 40
2.0
 49
1.25
 49
-0.25
 49
0.25
 49
-0.25
  0
LTYPE
  2
PHANTOM
  3
_____ _ _ _____ _ _ _____ _ _ _____ _ _ ____
 70
    64
 72
    65
 73
     6
 40
2.5
 49
1.25
 49
-0.25
 49
0.25
 49
-0.25
 49
0.25
 49
-0.25
  0
ENDTAB
  0
TABLE
  2
LAYER
 70
     1
  0
LAYER
  2
0
 70
    64
 62
     7
  6
CONTINUOUS
  0
ENDTAB
  0
TABLE
  2
STYLE
 70
     1
  0
STYLE
  2
STANDARD
 70
     0
 40
0.000000
 41
1.000000
 50
0.000000
 71
     0
 42
3.000000
  3
txt
  4
BIGFONT
  0
ENDTAB
  0
ENDSEC
  0
SECTION
  2
BLOCKS
  0
ENDSEC
  0
SECTION
  2
ENTITIES
  0
LINE
  8
0
  6
CONTINUOUS
 10
58.035000
 20
121.812500
 11
58.035000
 21
11.812500
  0
LINE
  8
0
  6
CONTINUOUS
 10
58.035000
 20
119.812500
 11
66.535004
 21
119.812500
  0
LINE
  8
0
  6
CONTINUOUS
 10
58.035000
 20
13.812500
 11
66.535004
 21
13.812500
  0
LINE
  8
0
  6
CONTINUOUS
 10
58.035000
 20
109.375099
 11
66.535004
 21
109.375099
  0
LINE
  8
0
  6
CONTINUOUS
 10
58.035000
 20
24.128370
 11
66.535004
 21
24.128370
  0
LINE
  8
0
  6
CONTINUOUS
 10
19.035000
 20
121.812500
 11
58.035000
 21
121.812500
  0
LINE
  8
0
  6
CONTINUOUS
 10
19.035000
 20
11.812500
 11
58.035000
 21
11.812500
  0
LINE
  8
0
  6
CONTINUOUS
 10
9.035000
 20
21.812500
 11
9.035000
 21
111.812500
  0
LINE
  8
0
  6
CONTINUOUS
 10
14.035000
 20
97.312500
 11
58.035000
 21
97.312500
  0
LINE
  8
0
  6
CONTINUOUS
 10
14.035000
 20
36.312500
 11
58.035000
 21
36.312500
  0
ARC
  8
0
  6
CONTINUOUS
 10
19.035089
 20
111.812500
 40
10.000000
 50
90.000000
 51
180.000000
  0
ARC
  8
0
  6
CONTINUOUS
 10
19.035000
 20
21.812500
 40
10.000000
 50
180.000000
 51
270.000000
  0
LINE
  8
0
  6
CONTINUOUS
 10
66.535004
 20
13.812500
 11
66.535004
 21
119.812500
  0
LINE
  8
0
  6
CENTER
 10
-2.235625
 20
66.812500
 11
209.285004
 21
66.812500
  0
LINE
  8
0
  6
CONTINUOUS
 10
196.535004
 20
14.812500
 11
196.535004
 21
6.812500
  0
LINE
  8
0
  6
CONTINUOUS
 10
136.535004
 20
14.812500
 11
136.535004
 21
6.812500
  0
LINE
  8
0
  6
CENTER
 10
146.535004
 20
20.687500
 11
146.535004
 21
1.562500
  0
LINE
  8
0
  6
CENTER
 10
186.535004
 20
21.062500
 11
186.535004
 21
2.312500
  0
LINE
  8
0
  6
CENTER
 10
172.471802
 20
81.812500
 11
242.535004
 21
81.812500
  0
LINE
  8
0
  6
CONTINUOUS
 10
136.535004
 20
6.812500
 11
196.535004
 21
6.812500
  0
LINE
  8
0
  6
CONTINUOUS
 10
66.535004
 20
119.812500
 11
196.535004
 21
119.812500
  0
LINE
  8
0
  6
CONTINUOUS
 10
66.535004
 20
13.812500
 11
136.535004
 21
13.812500
  0
LINE
  8
0
  6
CONTINUOUS
 10
174.535004
 20
35.593910
 11
174.535004
 21
18.812481
  0
LINE
  8
0
  6
CONTINUOUS
 10
158.535004
 20
35.593899
 11
158.535004
 21
18.812500
  0
LINE
  8
0
  6
CONTINUOUS
 10
138.535004
 20
16.812500
 11
194.535004
 21
16.812500
  0
LINE
  8
0
  6
CONTINUOUS
 10
196.535004
 20
14.812500
 11
196.535004
 21
119.812500
  0
ARC
  8
0
  6
CONTINUOUS
 10
194.535004
 20
14.812490
 40
2.000000
 50
0.000000
 51
90.000000
  0
LINE
  8
0
  6
CONTINUOUS
 10
136.535004
 20
31.485929
 11
136.535004
 21
14.812500
  0
ARC
  8
0
  6
CONTINUOUS
 10
138.535004
 20
14.812510
 40
2.000000
 50
90.000000
 51
180.000000
  0
LINE
  8
0
  6
DASHED
 10
190.785004
 20
16.812500
 11
190.785004
 21
6.812500
  0
LINE
  8
0
  6
DASHED
 10
182.285004
 20
16.812500
 11
182.285004
 21
6.812500
  0
LINE
  8
0
  6
DASHED
 10
150.785004
 20
16.812500
 11
150.785004
 21
6.812500
  0
LINE
  8
0
  6
DASHED
 10
142.285004
 20
16.812500
 11
142.285004
 21
6.812500
  0
LINE
  8
0
  6
CONTINUOUS
 10
66.535004
 20
109.435799
 11
196.535004
 21
109.435799
  0
LINE
  8
0
  6
CONTINUOUS
 10
66.535004
 20
24.189140
 11
136.535004
 21
24.189140
  0
LINE
  8
0
  6
CONTINUOUS
 10
201.535004
 20
59.312500
 11
201.535004
 21
104.312500
  0
LINE
  8
0
  6
CONTINUOUS
 10
200.535004
 20
105.312500
 11
196.535004
 21
105.312500
  0
LINE
  8
0
  6
CONTINUOUS
 10
200.535004
 20
58.312500
 11
196.535004
 21
58.312500
  0
ARC
  8
0
  6
CONTINUOUS
 10
200.535004
 20
104.312500
 40
1.000000
 50
0.000000
 51
90.000000
  0
ARC
  8
0
  6
CONTINUOUS
 10
200.535004
 20
59.312500
 40
1.000000
 50
-90.000000
 51
0.000000
  0
ARC
  8
0
  6
CONTINUOUS
 10
139.535004
 20
31.485950
 40
3.000000
 50
90.000000
 51
180.000000
  0
LINE
  8
0
  6
CONTINUOUS
 10
139.535004
 20
34.485931
 11
157.910004
 21
34.485931
  0
LINE
  8
0
  6
CONTINUOUS
 10
195.910004
 20
34.485931
 11
175.160004
 21
34.485931
  0
ARC
  8
0
  6
CONTINUOUS
 10
176.535004
 20
35.593910
 40
2.000000
 50
90.000000
 51
180.000000
  0
ARC
  8
0
  6
CONTINUOUS
 10
156.535004
 20
35.593899
 40
2.000000
 50
0.000000
 51
90.000000
  0
ARC
  8
0
  6
CONTINUOUS
 10
176.535004
 20
18.812500
 40
2.000000
 50
180.000000
 51
270.000000
  0
ARC
  8
0
  6
CONTINUOUS
 10
156.535004
 20
18.812500
 40
2.000000
 50
-90.000000
 51
0.000000
  0
LINE
  8
0
  6
CONTINUOUS
 10
233.535004
 20
72.812500
 11
233.535004
 21
90.812500
  0
LINE
  8
0
  6
CONTINUOUS
 10
203.535004
 20
90.812500
 11
233.535004
 21
90.812500
  0
LINE
  8
0
  6
CONTINUOUS
 10
203.535004
 20
72.812500
 11
233.535004
 21
72.812500
  0
LINE
  8
0
  6
CONTINUOUS
 10
203.535004
 20
91.812500
 11
203.535004
 21
71.812500
  0
LINE
  8
0
  6
CONTINUOUS
 10
201.535004
 20
91.812500
 11
203.535004
 21
91.812500
  0
LINE
  8
0
  6
CONTINUOUS
 10
201.535004
 20
71.812500
 11
203.535004
 21
71.812500
  0
ARC
  8
0
  6
CONTINUOUS
 10
209.535004
 20
81.812500
 40
3.000000
 50
90.000000
 51
270.000000
  0
LINE
  8
0
  6
CONTINUOUS
 10
209.535004
 20
84.812500
 11
233.535004
 21
84.812500
  0
LINE
  8
0
  6
CONTINUOUS
 10
209.535004
 20
78.812500
 11
233.535004
 21
78.812500
  0
LINE
  8
0
  6
CENTER
 10
369.035004
 20
-2.937500
 11
369.035004
 21
159.919693
  0
LINE
  8
0
  6
CENTER
 10
303.035004
 20
66.812500
 11
432.535004
 21
66.812500
  0
LINE
  8
0
  6
CONTINUOUS
 10
409.035004
 20
6.812500
 11
434.035004
 21
6.812500
  0
LINE
  8
0
  6
CONTINUOUS
 10
434.035004
 20
14.812490
 11
434.035004
 21
6.812500
  0
LINE
  8
0
  6
CONTINUOUS
 10
408.035004
 20
7.812500
 11
369.035004
 21
7.812500
  0
LINE
  8
0
  6
CONTINUOUS
 10
416.035004
 20
16.812500
 11
432.035004
 21
16.812500
  0
LINE
  8
0
  6
CONTINUOUS
 10
400.535004
 20
117.297302
 11
400.535004
 21
109.435898
  0
LINE
  8
0
  6
CENTER
 10
424.035004
 20
21.312500
 11
424.035004
 21
0.562500
  0
LINE
  8
0
  6
DASHED
 10
428.285004
 20
16.812500
 11
428.285004
 21
6.812500
  0
LINE
  8
0
  6
DASHED
 10
419.785004
 20
16.812500
 11
419.785004
 21
6.812500
  0
LINE
  8
0
  6
CONTINUOUS
 10
398.569885
 20
119.296997
 11
369.035004
 21
119.812500
  0
ARC
  8
0
  6
CONTINUOUS
 10
398.535004
 20
117.297302
 40
2.000000
 50
0.000000
 51
89.000076
  0
LINE
  8
0
  6
CENTER
 10
335.858765
 20
81.812500
 11
402.296265
 21
81.812500
  0
LINE
  8
0
  6
CONTINUOUS
 10
329.035004
 20
6.812500
 11
304.035004
 21
6.812500
  0
LINE
  8
0
  6
CONTINUOUS
 10
304.035004
 20
14.812480
 11
304.035004
 21
6.812500
  0
LINE
  8
0
  6
CONTINUOUS
 10
330.035004
 20
7.812500
 11
369.035004
 21
7.812500
  0
LINE
  8
0
  6
CONTINUOUS
 10
322.035004
 20
16.812500
 11
306.035004
 21
16.812500
  0
LINE
  8
0
  6
CONTINUOUS
 10
337.535004
 20
117.297302
 11
337.535004
 21
109.435898
  0
LINE
  8
0
  6
CENTER
 10
314.035004
 20
21.312500
 11
314.035004
 21
0.562500
  0
LINE
  8
0
  6
DASHED
 10
309.785004
 20
16.812500
 11
309.785004
 21
6.812500
  0
LINE
  8
0
  6
DASHED
 10
318.285004
 20
16.812500
 11
318.285004
 21
6.812500
  0
LINE
  8
0
  6
CONTINUOUS
 10
339.500092
 20
119.296997
 11
369.035004
 21
119.812500
  0
ARC
  8
0
  6
CONTINUOUS
 10
339.535004
 20
117.297302
 40
2.000000
 50
90.999924
 51
180.000000
  0
ARC
  8
0
  6
CONTINUOUS
 10
369.035004
 20
66.812500
 40
53.000000
 50
126.465599
 51
217.584595
  0
ARC
  8
0
  6
CONTINUOUS
 10
369.035004
 20
66.812500
 40
53.000000
 50
53.534370
 51
53.534382
  0
ARC
  8
0
  6
CONTINUOUS
 10
369.035004
 20
66.812500
 40
53.000000
 50
-37.584629
 51
53.534382
  0
LINE
  8
0
  6
CONTINUOUS
 10
417.035004
 20
82.504898
 11
417.035004
 21
51.120461
  0
LINE
  8
0
  6
CONTINUOUS
 10
321.035004
 20
82.504700
 11
321.035004
 21
51.119980
  0
ARC
  8
0
  6
CONTINUOUS
 10
369.035004
 20
66.812500
 40
50.500000
 50
18.103800
 51
161.896194
  0
ARC
  8
0
  6
CONTINUOUS
 10
369.035004
 20
66.812500
 40
50.500000
 50
198.103806
 51
341.896210
  0
LINE
  8
0
  6
CONTINUOUS
 10
327.035004
 20
21.812500
 11
327.035004
 21
34.486050
  0
ARC
  8
0
  6
CONTINUOUS
 10
416.035004
 20
21.812500
 40
5.000000
 50
180.000000
 51
270.000000
  0
ARC
  8
0
  6
CONTINUOUS
 10
322.035004
 20
21.812481
 40
5.000000
 50
-90.000000
 51
0.000000
  0
LINE
  8
0
  6
CONTINUOUS
 10
411.035004
 20
21.812481
 11
411.035004
 21
34.486050
  0
CIRCLE
  8
0
  6
CONTINUOUS
 10
369.035004
 20
81.812500
 40
23.500000
  0
ARC
  8
0
  6
CONTINUOUS
 10
432.035004
 20
14.812490
 40
2.000000
 50
0.000000
 51
90.000000
  0
LINE
  8
0
  6
CONTINUOUS
 10
433.449188
 20
16.226709
 11
412.819397
 21
36.856319
  0
ARC
  8
0
  6
CONTINUOUS
 10
306.035004
 20
14.812490
 40
2.000000
 50
90.000000
 51
180.000000
  0
LINE
  8
0
  6
CONTINUOUS
 10
304.620789
 20
16.226709
 11
325.250610
 21
36.856319
  0
LINE
  8
0
  6
CONTINUOUS
 10
409.035004
 20
6.812500
 11
408.035004
 21
7.812500
  0
LINE
  8
0
  6
CONTINUOUS
 10
329.035004
 20
6.812500
 11
330.035004
 21
7.812500
  0
LINE
  8
0
  6
CONTINUOUS
 10
362.660004
 20
44.365719
 11
362.660004
 21
38.812500
  0
LINE
  8
0
  6
CONTINUOUS
 10
365.847504
 20
46.382809
 11
365.847504
 21
48.375000
  0
LINE
  8
0
  6
CONTINUOUS
 10
372.222504
 20
46.382809
 11
372.222504
 21
48.375000
  0
LINE
  8
0
  6
CONTINUOUS
 10
368.412415
 20
47.204590
 11
368.412415
 21
39.858410
  0
LINE
  8
0
  6
CONTINUOUS
 10
369.607788
 20
47.204590
 11
369.607788
 21
39.858410
  0
LINE
  8
0
  6
CONTINUOUS
 10
375.883087
 20
47.204590
 11
375.883087
 21
39.808590
  0
LINE
  8
0
  6
CONTINUOUS
 10
376.978790
 20
43.282471
 11
376.978790
 21
39.808590
  0
LINE
  8
0
  6
CONTINUOUS
 10
361.147491
 20
47.104980
 11
358.075592
 21
47.104980
  0
LINE
  8
0
  6
CONTINUOUS
 10
358.075592
 20
47.104980
 11
357.355804
 21
46.212490
  0
LINE
  8
0
  6
CONTINUOUS
 10
357.442413
 20
48.375000
 11
356.285004
 21
46.892990
  0
LINE
  8
0
  6
CONTINUOUS
 10
357.355804
 20
40.703419
 11
358.087097
 21
39.933109
  0
LINE
  8
0
  6
CONTINUOUS
 10
356.285004
 20
40.053349
 11
357.514801
 21
38.812500
  0
LINE
  8
0
  6
CONTINUOUS
 10
356.285004
 20
46.892990
 11
356.285004
 21
40.053349
  0
LINE
  8
0
  6
CONTINUOUS
 10
357.355804
 20
46.212490
 11
357.355804
 21
40.703419
  0
LINE
  8
0
  6
CONTINUOUS
 10
361.738586
 20
46.533550
 11
361.135406
 21
47.104980
  0
LINE
  8
0
  6
CONTINUOUS
 10
361.729004
 20
48.375000
 11
362.660004
 21
47.341850
  0
LINE
  8
0
  6
CONTINUOUS
 10
361.738586
 20
46.382809
 11
362.660004
 21
46.382809
  0
LINE
  8
0
  6
CONTINUOUS
 10
357.442413
 20
48.375000
 11
361.729004
 21
48.375000
  0
LINE
  8
0
  6
CONTINUOUS
 10
361.738586
 20
43.319820
 11
360.070190
 21
43.319820
  0
LINE
  8
0
  6
CONTINUOUS
 10
361.738586
 20
42.323730
 11
361.738586
 21
43.120609
  0
LINE
  8
0
  6
CONTINUOUS
 10
359.746399
 20
39.933109
 11
358.087097
 21
39.933109
  0
ARC
  8
0
  6
CONTINUOUS
 10
359.746399
 20
41.925289
 40
1.992187
 50
-89.999786
 51
0.000109
  0
LINE
  8
0
  6
CONTINUOUS
 10
361.738586
 20
39.574760
 11
361.738586
 21
38.812500
  0
LINE
  8
0
  6
CONTINUOUS
 10
362.660004
 20
47.341850
 11
362.660004
 21
46.382809
  0
LINE
  8
0
  6
CONTINUOUS
 10
361.738586
 20
43.319820
 11
361.738586
 21
41.925289
  0
LINE
  8
0
  6
CONTINUOUS
 10
360.070190
 20
44.365719
 11
360.070190
 21
43.319820
  0
LINE
  8
0
  6
CONTINUOUS
 10
361.738586
 20
38.812500
 11
362.660004
 21
38.812500
  0
LINE
  8
0
  6
CONTINUOUS
 10
361.738586
 20
39.574760
 11
360.829987
 21
38.812500
  0
LINE
  8
0
  6
CONTINUOUS
 10
369.607788
 20
39.858410
 11
370.006195
 21
39.858410
  0
LINE
  8
0
  6
CONTINUOUS
 10
367.939301
 20
39.858410
 11
367.939301
 21
38.812500
  0
LINE
  8
0
  6
CONTINUOUS
 10
370.006195
 20
39.858410
 11
370.006195
 21
38.812500
  0
LINE
  8
0
  6
CONTINUOUS
 10
371.557587
 20
46.382809
 11
372.222504
 21
46.382809
  0
LINE
  8
0
  6
CONTINUOUS
 10
365.847504
 20
46.382809
 11
366.555115
 21
46.382809
  0
LINE
  8
0
  6
CONTINUOUS
 10
365.847504
 20
48.375000
 11
372.222504
 21
48.375000
  0
LINE
  8
0
  6
CONTINUOUS
 10
367.939301
 20
38.812500
 11
370.006195
 21
38.812500
  0
LINE
  8
0
  6
CONTINUOUS
 10
367.939301
 20
39.858410
 11
368.412415
 21
39.858410
  0
ARC
  8
0
  6
CONTINUOUS
 10
379.232513
 20
45.822510
 40
2.552490
 50
-73.981873
 51
90.003510
  0
ARC
  8
0
  6
CONTINUOUS
 10
379.232513
 20
45.822510
 40
1.557193
 50
-82.585274
 51
62.411850
  0
LINE
  8
0
  6
CONTINUOUS
 10
375.410004
 20
48.375000
 11
379.232513
 21
48.375000
  0
LINE
  8
0
  6
CONTINUOUS
 10
375.410004
 20
48.375000
 11
375.410004
 21
47.204590
  0
LINE
  8
0
  6
CONTINUOUS
 10
376.978790
 20
47.204590
 11
376.978790
 21
44.278339
  0
LINE
  8
0
  6
CONTINUOUS
 10
379.936890
 20
43.369110
 11
381.516693
 21
39.808590
  0
LINE
  8
0
  6
CONTINUOUS
 10
379.019287
 20
43.282471
 11
380.514313
 21
39.808590
  0
LINE
  8
0
  6
CONTINUOUS
 10
375.410004
 20
39.808590
 11
375.883087
 21
39.808590
  0
LINE
  8
0
  6
CONTINUOUS
 10
376.978790
 20
39.808590
 11
377.414612
 21
39.808590
  0
LINE
  8
0
  6
CONTINUOUS
 10
377.414612
 20
38.812500
 11
375.410004
 21
38.812500
  0
LINE
  8
0
  6
CONTINUOUS
 10
380.315796
 20
39.808590
 11
380.514313
 21
39.808590
  0
LINE
  8
0
  6
CONTINUOUS
 10
381.516693
 20
39.808590
 11
381.785004
 21
39.808590
  0
LINE
  8
0
  6
CONTINUOUS
 10
380.315796
 20
38.812500
 11
381.785004
 21
38.812500
  0
LINE
  8
0
  6
CONTINUOUS
 10
381.785004
 20
39.808590
 11
381.785004
 21
38.812500
  0
LINE
  8
0
  6
CONTINUOUS
 10
380.315796
 20
39.808590
 11
380.315796
 21
38.812500
  0
LINE
  8
0
  6
CONTINUOUS
 10
377.414612
 20
39.808590
 11
377.414612
 21
38.812500
  0
LINE
  8
0
  6
CONTINUOUS
 10
375.410004
 20
39.808590
 11
375.410004
 21
38.812500
  0
LINE
  8
0
  6
CONTINUOUS
 10
366.897491
 20
47.204590
 11
366.555115
 21
46.382809
  0
LINE
  8
0
  6
CONTINUOUS
 10
371.268799
 20
47.204590
 11
371.557587
 21
46.382809
  0
LINE
  8
0
  6
CONTINUOUS
 10
369.607788
 20
47.204590
 11
371.268799
 21
47.204590
  0
LINE
  8
0
  6
CONTINUOUS
 10
368.412415
 20
47.204590
 11
366.897491
 21
47.204590
  0
LINE
  8
0
  6
CONTINUOUS
 10
375.410004
 20
47.204590
 11
375.883087
 21
47.204590
  0
LINE
  8
0
  6
CONTINUOUS
 10
376.978790
 20
47.204590
 11
379.953705
 21
47.202648
  0
LINE
  8
0
  6
CONTINUOUS
 10
361.738586
 20
46.533550
 11
361.738586
 21
46.382809
  0
LINE
  8
0
  6
CONTINUOUS
 10
357.514801
 20
38.812500
 11
360.829987
 21
38.812500
  0
LINE
  8
0
  6
CONTINUOUS
 10
376.978790
 20
44.278339
 11
379.433502
 21
44.278339
  0
LINE
  8
0
  6
CONTINUOUS
 10
376.978790
 20
43.282471
 11
379.019287
 21
43.282471
  0
LINE
  8
0
  6
CONTINUOUS
 10
360.070190
 20
44.365719
 11
362.660004
 21
44.365719
  0
LINE
  8
0
  6
CONTINUOUS
 10
397.463898
 20
121.812500
 11
392.535004
 21
121.812500
  0
LINE
  8
0
  6
CONTINUOUS
 10
314.035004
 20
95.241402
 11
314.035004
 21
38.383560
  0
LINE
  8
0
  6
CONTINUOUS
 10
424.035004
 20
38.383560
 11
424.035004
 21
95.241402
  0
LINE
  8
0
  6
CONTINUOUS
 10
337.070587
 20
120.348000
 11
315.499512
 21
98.777000
  0
LINE
  8
0
  6
CONTINUOUS
 10
422.570496
 20
98.777000
 11
400.999512
 21
120.348000
  0
LINE
  8
0
  6
CONTINUOUS
 10
422.570587
 20
34.848030
 11
418.699188
 21
30.976629
  0
LINE
  8
0
  6
CONTINUOUS
 10
315.499512
 20
34.848030
 11
319.370789
 21
30.976650
  0
ARC
  8
0
  6
CONTINUOUS
 10
319.035004
 20
38.383610
 40
5.000000
 50
180.000000
 51
225.000397
  0
ARC
  8
0
  6
CONTINUOUS
 10
319.035004
 20
95.241501
 40
5.000000
 50
135.000397
 51
180.000000
  0
ARC
  8
0
  6
CONTINUOUS
 10
340.606110
 20
116.812500
 40
5.000000
 50
90.000000
 51
135.000198
  0
ARC
  8
0
  6
CONTINUOUS
 10
397.463989
 20
116.812500
 40
5.000000
 50
45.000198
 51
90.000000
  0
ARC
  8
0
  6
CONTINUOUS
 10
419.035004
 20
95.241402
 40
5.000000
 50
0.000000
 51
45.000160
  0
ARC
  8
0
  6
CONTINUOUS
 10
419.035004
 20
38.383530
 40
5.000000
 50
-44.999569
 51
0.000000
  0
LINE
  8
0
  6
CONTINUOUS
 10
363.535004
 20
84.812500
 11
363.535004
 21
78.812500
  0
LINE
  8
0
  6
CONTINUOUS
 10
357.535004
 20
84.812500
 11
357.535004
 21
78.812500
  0
LINE
  8
0
  6
CONTINUOUS
 10
357.535004
 20
84.812500
 11
363.535004
 21
84.812500
  0
LINE
  8
0
  6
CONTINUOUS
 10
357.535004
 20
78.812500
 11
363.535004
 21
78.812500
  0
ARC
  8
0
  6
CONTINUOUS
 10
369.035004
 20
81.812500
 40
9.000000
 50
-160.528793
 51
160.528793
  0
LINE
  8
0
  6
CENTER
 10
-5.668125
 20
273.049988
 11
239.190475
 21
273.049988
  0
LINE
  8
0
  6
CONTINUOUS
 10
66.535042
 20
326.049988
 11
196.535004
 21
326.049988
  0
LINE
  8
0
  6
CONTINUOUS
 10
66.535042
 20
220.050003
 11
196.535004
 21
220.050003
  0
LINE
  8
0
  6
CONTINUOUS
 10
196.535004
 20
211.050003
 11
196.535004
 21
335.049988
  0
LINE
  8
0
  6
CONTINUOUS
 10
193.535004
 20
338.049988
 11
139.535004
 21
338.049988
  0
LINE
  8
0
  6
CONTINUOUS
 10
139.535004
 20
208.050003
 11
193.535004
 21
208.050003
  0
LINE
  8
0
  6
CONTINUOUS
 10
136.535004
 20
335.049988
 11
136.535004
 21
326.049988
  0
LINE
  8
0
  6
CONTINUOUS
 10
136.535004
 20
211.050003
 11
136.535004
 21
220.050003
  0
ARC
  8
0
  6
CONTINUOUS
 10
139.535004
 20
335.049988
 40
3.000000
 50
90.000000
 51
180.000000
  0
ARC
  8
0
  6
CONTINUOUS
 10
193.535004
 20
335.049988
 40
3.000000
 50
0.000000
 51
90.000000
  0
ARC
  8
0
  6
CONTINUOUS
 10
193.535004
 20
211.050003
 40
3.000000
 50
-90.000000
 51
0.000000
  0
ARC
  8
0
  6
CONTINUOUS
 10
139.535004
 20
211.050003
 40
3.000000
 50
180.000000
 51
270.000000
  0
LINE
  8
0
  6
CONTINUOUS
 10
58.035000
 20
326.049988
 11
66.535042
 21
326.049988
  0
LINE
  8
0
  6
CONTINUOUS
 10
58.035000
 20
220.050018
 11
66.535042
 21
220.050018
  0
LINE
  8
0
  6
CONTINUOUS
 10
66.535042
 20
304.549988
 11
58.035000
 21
304.549988
  0
LINE
  8
0
  6
CONTINUOUS
 10
66.535042
 20
241.550003
 11
58.035000
 21
241.550003
  0
LINE
  8
0
  6
CONTINUOUS
 10
66.535042
 20
220.050018
 11
66.535042
 21
248.049973
  0
LINE
  8
0
  6
CONTINUOUS
 10
66.535042
 20
304.549988
 11
196.535004
 21
304.549988
  0
LINE
  8
0
  6
CONTINUOUS
 10
66.535042
 20
241.550003
 11
196.535004
 21
241.550003
  0
LINE
  8
0
  6
CONTINUOUS
 10
201.535004
 20
250.550003
 11
201.535004
 21
295.549988
  0
LINE
  8
0
  6
CONTINUOUS
 10
200.535004
 20
296.549988
 11
196.535004
 21
296.549988
  0
LINE
  8
0
  6
CONTINUOUS
 10
200.535004
 20
249.550003
 11
196.535004
 21
249.550003
  0
ARC
  8
0
  6
CONTINUOUS
 10
200.535004
 20
295.549988
 40
1.000000
 50
0.000000
 51
90.000000
  0
ARC
  8
0
  6
CONTINUOUS
 10
200.535004
 20
250.550003
 40
1.000000
 50
-90.000000
 51
0.000000
  0
LINE
  8
0
  6
CONTINUOUS
 10
233.535004
 20
261.549988
 11
233.535004
 21
282.049988
  0
LINE
  8
0
  6
CONTINUOUS
 10
203.535004
 20
282.049988
 11
233.535004
 21
282.049988
  0
LINE
  8
0
  6
CONTINUOUS
 10
203.535004
 20
264.049988
 11
206.535004
 21
264.049988
  0
LINE
  8
0
  6
CONTINUOUS
 10
203.535004
 20
283.049988
 11
203.535004
 21
263.049988
  0
LINE
  8
0
  6
CONTINUOUS
 10
201.535004
 20
283.049988
 11
203.535004
 21
283.049988
  0
LINE
  8
0
  6
CONTINUOUS
 10
201.535004
 20
263.049988
 11
203.535004
 21
263.049988
  0
LINE
  8
0
  6
CONTINUOUS
 10
174.535019
 20
220.050003
 11
174.535019
 21
209.912033
  0
LINE
  8
0
  6
CONTINUOUS
 10
158.535019
 20
220.050003
 11
158.535019
 21
209.912033
  0
LINE
  8
0
  6
CENTER
 10
186.535004
 20
226.288757
 11
186.535004
 21
209.299301
  0
LINE
  8
0
  6
CENTER
 10
146.535004
 20
227.068588
 11
146.535004
 21
209.577820
  0
LINE
  8
0
  6
CENTER
 10
138.479218
 20
218.050003
 11
155.301559
 21
218.050003
  0
LINE
  8
0
  6
CENTER
 10
178.585480
 20
218.050003
 11
194.906494
 21
218.050003
  0
ARC
  8
0
  6
CONTINUOUS
 10
186.535004
 20
218.050003
 40
4.250000
 50
-208.072495
 51
28.072487
  0
ARC
  8
0
  6
DASHED
 10
146.535004
 20
218.050003
 40
4.250000
 50
28.072487
 51
151.927505
  0
ARC
  8
0
  6
CONTINUOUS
 10
146.535004
 20
218.050003
 40
4.250000
 50
-208.072495
 51
28.072487
  0
ARC
  8
0
  6
DASHED
 10
186.535004
 20
218.050003
 40
4.250000
 50
28.072487
 51
151.927505
  0
LINE
  8
0
  6
CONTINUOUS
 10
206.535004
 20
264.565002
 11
206.535004
 21
261.549988
  0
LINE
  8
0
  6
CONTINUOUS
 10
206.535004
 20
261.549988
 11
233.535004
 21
261.549988
  0
LINE
  8
0
  6
CONTINUOUS
 10
206.535004
 20
264.565002
 11
233.535004
 21
264.565002
  0
LINE
  8
0
  6
CONTINUOUS
 10
66.535042
 20
298.049988
 11
66.535042
 21
326.049988
  0
LINE
  8
0
  6
CONTINUOUS
 10
174.535019
 20
326.049988
 11
174.535019
 21
336.187958
  0
LINE
  8
0
  6
CONTINUOUS
 10
158.535019
 20
326.049988
 11
158.535019
 21
336.187958
  0
LINE
  8
0
  6
CENTER
 10
186.535004
 20
319.811249
 11
186.535004
 21
336.800690
  0
LINE
  8
0
  6
CENTER
 10
146.535004
 20
319.031403
 11
146.535004
 21
336.522186
  0
LINE
  8
0
  6
CENTER
 10
138.479218
 20
328.049988
 11
155.301559
 21
328.049988
  0
LINE
  8
0
  6
CENTER
 10
178.585480
 20
328.049988
 11
194.906494
 21
328.049988
  0
ARC
  8
0
  6
CONTINUOUS
 10
186.535004
 20
328.049988
 40
4.250000
 50
-28.072487
 51
208.072495
  0
ARC
  8
0
  6
DASHED
 10
146.535004
 20
328.049988
 40
4.250000
 50
-151.927505
 51
-28.072487
  0
ARC
  8
0
  6
CONTINUOUS
 10
146.535004
 20
328.049988
 40
4.250000
 50
-28.072487
 51
208.072495
  0
ARC
  8
0
  6
DASHED
 10
186.535004
 20
328.049988
 40
4.250000
 50
-151.927505
 51
-28.072487
  0
LINE
  8
0
  6
CONTINUOUS
 10
58.035000
 20
328.049988
 11
58.035000
 21
296.549988
  0
LINE
  8
0
  6
CONTINUOUS
 10
19.035000
 20
328.049988
 11
58.035000
 21
328.049988
  0
LINE
  8
0
  6
CONTINUOUS
 10
19.035000
 20
218.050003
 11
58.035000
 21
218.050003
  0
LINE
  8
0
  6
CONTINUOUS
 10
9.035000
 20
228.050003
 11
9.035000
 21
318.049988
  0
LINE
  8
0
  6
CONTINUOUS
 10
14.035000
 20
303.549988
 11
58.035000
 21
303.549988
  0
LINE
  8
0
  6
CONTINUOUS
 10
14.035000
 20
242.550003
 11
58.035000
 21
242.550003
  0
ARC
  8
0
  6
CONTINUOUS
 10
19.035089
 20
318.049988
 40
10.000000
 50
90.000000
 51
180.000000
  0
ARC
  8
0
  6
CONTINUOUS
 10
19.035000
 20
228.050003
 40
10.000000
 50
180.000000
 51
270.000000
  0
LINE
  8
0
  6
CONTINUOUS
 10
59.035000
 20
121.312500
 11
105.535004
 21
121.312500
  0
LINE
  8
0
  6
CONTINUOUS
 10
107.534988
 20
151.312500
 11
107.535004
 21
123.312500
  0
LINE
  8
0
  6
CONTINUOUS
 10
57.535000
 20
151.312500
 11
57.535000
 21
123.312500
  0
LINE
  8
0
  6
CONTINUOUS
 10
55.535000
 20
133.312500
 11
107.535004
 21
133.312500
  0
LINE
  8
0
  6
CONTINUOUS
 10
105.535004
 20
121.312500
 11
107.535004
 21
123.312500
  0
LINE
  8
0
  6
CONTINUOUS
 10
57.535000
 20
123.312500
 11
59.535000
 21
121.312500
  0
LINE
  8
0
  6
CONTINUOUS
 10
57.535000
 20
123.312500
 11
107.535004
 21
123.312500
  0
LINE
  8
0
  6
CONTINUOUS
 10
58.535000
 20
152.312500
 11
106.534988
 21
152.312500
  0
LINE
  8
0
  6
CONTINUOUS
 10
106.534988
 20
152.312500
 11
107.534988
 21
151.312500
  0
LINE
  8
0
  6
CONTINUOUS
 10
58.535000
 20
152.312500
 11
57.535000
 21
151.312500
  0
LINE
  8
0
  6
CONTINUOUS
 10
57.535000
 20
151.312500
 11
107.534988
 21
151.312500
  0
LINE
  8
0
  6
CENTER
 10
49.591244
 20
142.812500
 11
61.666248
 21
142.812500
  0
LINE
  8
0
  6
CONTINUOUS
 10
55.535015
 20
149.312500
 11
55.535000
 21
133.312500
  0
LINE
  8
0
  6
CONTINUOUS
 10
56.535000
 20
150.312500
 11
57.535000
 21
150.312500
  0
ARC
  8
0
  6
CONTINUOUS
 10
56.535019
 20
149.312500
 40
1.000000
 50
90.000000
 51
180.000000
  0
LINE
  8
0
  6
CONTINUOUS
 10
52.035015
 20
146.812500
 11
52.035015
 21
138.812500
  0
LINE
  8
0
  6
CONTINUOUS
 10
52.035015
 20
146.812500
 11
55.535015
 21
148.312500
  0
LINE
  8
0
  6
CONTINUOUS
 10
52.035000
 20
138.812500
 11
55.535000
 21
137.312500
  0
LINE
  8
0
  6
CENTER
 10
82.535004
 20
113.483124
 11
82.535004
 21
161.070618
  0
LINE
  8
0
  6
CONTINUOUS
 10
59.035000
 20
121.312500
 11
59.035000
 21
119.812500
  0
LINE
  8
0
  6
CONTINUOUS
 10
105.035004
 20
121.312500
 11
105.035004
 21
119.812500
  0
LINE
  8
0
  6
CONTINUOUS
 10
346.035004
 20
121.312500
 11
392.035004
 21
121.312500
  0
LINE
  8
0
  6
CONTINUOUS
 10
394.035004
 20
151.312500
 11
394.035004
 21
123.312500
  0
LINE
  8
0
  6
CONTINUOUS
 10
344.035004
 20
151.312500
 11
344.035004
 21
123.312500
  0
LINE
  8
0
  6
CONTINUOUS
 10
344.035004
 20
133.312500
 11
394.035004
 21
133.312500
  0
LINE
  8
0
  6
CONTINUOUS
 10
392.035004
 20
121.312500
 11
394.035004
 21
123.312500
  0
LINE
  8
0
  6
CONTINUOUS
 10
344.035004
 20
123.312500
 11
346.035004
 21
121.312500
  0
LINE
  8
0
  6
CONTINUOUS
 10
344.035004
 20
123.312500
 11
394.035004
 21
123.312500
  0
LINE
  8
0
  6
CONTINUOUS
 10
345.035004
 20
152.312500
 11
393.035004
 21
152.312500
  0
LINE
  8
0
  6
CONTINUOUS
 10
393.035004
 20
152.312500
 11
394.035004
 21
151.312500
  0
LINE
  8
0
  6
CONTINUOUS
 10
345.035004
 20
152.312500
 11
344.035004
 21
151.312500
  0
LINE
  8
0
  6
CONTINUOUS
 10
344.035004
 20
151.312500
 11
394.035004
 21
151.312500
  0
LINE
  8
0
  6
CONTINUOUS
 10
391.535004
 20
121.312500
 11
391.535004
 21
119.419762
  0
LINE
  8
0
  6
CONTINUOUS
 10
346.535004
 20
121.312500
 11
346.535004
 21
119.419769
  0
LINE
  8
0
  6
CONTINUOUS
 10
56.535000
 20
280.549988
 11
57.535000
 21
280.549988
  0
ARC
  8
0
  6
CONTINUOUS
 10
56.535019
 20
279.549988
 40
1.000000
 50
90.000000
 51
180.000000
  0
LINE
  8
0
  6
CONTINUOUS
 10
52.035015
 20
277.049988
 11
52.035015
 21
269.049988
  0
LINE
  8
0
  6
CONTINUOUS
 10
52.035015
 20
277.049988
 11
55.535015
 21
278.549988
  0
LINE
  8
0
  6
CONTINUOUS
 10
52.035000
 20
269.049988
 11
55.535000
 21
267.549988
  0
LINE
  8
0
  6
CONTINUOUS
 10
55.535015
 20
279.549988
 11
55.535015
 21
266.549988
  0
LINE
  8
0
  6
CONTINUOUS
 10
56.535000
 20
265.549988
 11
57.535000
 21
265.549988
  0
ARC
  8
0
  6
CONTINUOUS
 10
56.535019
 20
266.549988
 40
1.000000
 50
-180.000000
 51
-90.000000
  0
LINE
  8
0
  6
CONTINUOUS
 10
57.535000
 20
250.049973
 11
57.535000
 21
296.049988
  0
LINE
  8
0
  6
CONTINUOUS
 10
59.535000
 20
298.049988
 11
57.535000
 21
296.049988
  0
LINE
  8
0
  6
CONTINUOUS
 10
59.535000
 20
298.049988
 11
105.534988
 21
298.049988
  0
LINE
  8
0
  6
CONTINUOUS
 10
100.035004
 20
293.549988
 11
100.035004
 21
298.049988
  0
ARC
  8
0
  6
CONTINUOUS
 10
103.035004
 20
293.549988
 40
3.000000
 50
180.000000
 51
270.000000
  0
LINE
  8
0
  6
CONTINUOUS
 10
103.035004
 20
290.549988
 11
107.534988
 21
290.549988
  0
CIRCLE
  8
0
  6
CONTINUOUS
 10
104.035004
 20
294.549988
 40
2.250000
  0
LINE
  8
0
  6
CONTINUOUS
 10
107.534996
 20
250.049973
 11
107.534988
 21
296.049988
  0
LINE
  8
0
  6
CONTINUOUS
 10
105.534988
 20
298.049988
 11
107.534988
 21
296.049988
  0
LINE
  8
0
  6
CONTINUOUS
 10
105.534996
 20
248.049973
 11
107.534996
 21
250.049973
  0
LINE
  8
0
  6
CONTINUOUS
 10
105.534996
 20
248.049973
 11
59.535000
 21
248.049973
  0
LINE
  8
0
  6
CONTINUOUS
 10
57.535000
 20
250.049973
 11
59.535000
 21
248.049973
  0
LINE
  8
0
  6
CONTINUOUS
 10
62.035000
 20
255.549973
 11
57.535011
 21
255.549973
  0
CIRCLE
  8
0
  6
CONTINUOUS
 10
61.035000
 20
251.549973
 40
2.250000
  0
ARC
  8
0
  6
CONTINUOUS
 10
62.035000
 20
252.549973
 40
3.000000
 50
0.000000
 51
90.000000
  0
LINE
  8
0
  6
CONTINUOUS
 10
65.035004
 20
252.549973
 11
65.035004
 21
248.049973
  0
LINE
  8
0
  6
CENTER
 10
82.535004
 20
240.584198
 11
82.535004
 21
304.716217
  0
LINE
  8
0
  6
CONTINUOUS
 10
59.949219
 20
297.049988
 11
58.535007
 21
295.635773
  0
LINE
  8
0
  6
CONTINUOUS
 10
58.535007
 20
255.550003
 11
58.535007
 21
295.635773
  0
LINE
  8
0
  6
CONTINUOUS
 10
100.035004
 20
297.049988
 11
59.949219
 21
297.049988
  0
LINE
  8
0
  6
CONTINUOUS
 10
106.534996
 20
290.549988
 11
106.534996
 21
250.464218
  0
LINE
  8
0
  6
CONTINUOUS
 10
65.035004
 20
249.050003
 11
105.120781
 21
249.050003
  0
LINE
  8
0
  6
CONTINUOUS
 10
105.120781
 20
249.050003
 11
106.534996
 21
250.464218
  0
LINE
  8
0
  6
CONTINUOUS
 10
58.035000
 20
249.549973
 11
58.035000
 21
218.050003
  0
LINE
  8
0
  6
CONTINUOUS
 10
345.535004
 20
121.812500
 11
340.606110
 21
121.812500
  0
TEXT
  8
0
 10
-5.000000
 20
-2.000000
 40
4.000000
 41
1.000000
  1
GLM-18-40~240-S90T
 50
0.000000
  0
ENDSEC
  0
EOF
