  0
SECTION
  2
HEADER
  9
$CLAYER
  8
1
  9
$LTSCALE
 40
3.0
  0
ENDSEC
  0
SECTION
  2
TABLES
  0
TABLE
  2
LTYPE
 70
     4
  0
LTYPE
  2
CONTINUOUS
  3
solid line
 70
    64
 72
    65
 73
     0
 40
0.0
  0
LTYPE
  2
DASHED
  3
__ __ __ __ __ __ __ __ __ __ __ __ __ __ __
 70
    64
 72
    65
 73
     2
 40
0.75
 49
0.5
 49
-0.25
  0
LTYPE
  2
CENTER
  3
____ _ ____ _ ____ _ ____ _ ____ _ ____ _ ____
 70
    64
 72
    65
 73
     4
 40
2.0
 49
1.25
 49
-0.25
 49
0.25
 49
-0.25
  0
LTYPE
  2
PHANTOM
  3
_____ _ _ _____ _ _ _____ _ _ _____ _ _ ____
 70
    64
 72
    65
 73
     6
 40
2.5
 49
1.25
 49
-0.25
 49
0.25
 49
-0.25
 49
0.25
 49
-0.25
  0
ENDTAB
  0
TABLE
  2
LAYER
 70
     1
  0
LAYER
  2
0
 70
    64
 62
     7
  6
CONTINUOUS
  0
ENDTAB
  0
TABLE
  2
STYLE
 70
     1
  0
STYLE
  2
STANDARD
 70
     0
 40
0.000000
 41
1.000000
 50
0.000000
 71
     0
 42
3.000000
  3
txt
  4
BIGFONT
  0
ENDTAB
  0
ENDSEC
  0
SECTION
  2
BLOCKS
  0
ENDSEC
  0
SECTION
  2
ENTITIES
  0
LINE
  8
0
  6
CONTINUOUS
 10
52.747501
 20
115.467499
 11
52.747501
 21
5.467500
  0
LINE
  8
0
  6
CONTINUOUS
 10
52.747501
 20
113.467499
 11
61.247501
 21
113.467499
  0
LINE
  8
0
  6
CONTINUOUS
 10
52.747501
 20
7.467500
 11
61.247501
 21
7.467500
  0
LINE
  8
0
  6
CONTINUOUS
 10
52.747501
 20
103.030098
 11
61.247501
 21
103.030098
  0
LINE
  8
0
  6
CONTINUOUS
 10
52.747501
 20
17.783369
 11
61.247501
 21
17.783369
  0
LINE
  8
0
  6
CONTINUOUS
 10
13.747500
 20
115.467499
 11
52.747501
 21
115.467499
  0
LINE
  8
0
  6
CONTINUOUS
 10
13.747500
 20
5.467500
 11
52.747501
 21
5.467500
  0
LINE
  8
0
  6
CONTINUOUS
 10
3.747500
 20
15.467500
 11
3.747500
 21
105.467499
  0
LINE
  8
0
  6
CONTINUOUS
 10
8.747500
 20
90.967499
 11
52.747501
 21
90.967499
  0
LINE
  8
0
  6
CONTINUOUS
 10
8.747500
 20
29.967501
 11
52.747501
 21
29.967501
  0
ARC
  8
0
  6
CONTINUOUS
 10
13.747590
 20
105.467499
 40
10.000000
 50
90.000000
 51
180.000000
  0
ARC
  8
0
  6
CONTINUOUS
 10
13.747500
 20
15.467500
 40
10.000000
 50
180.000000
 51
270.000000
  0
LINE
  8
0
  6
CONTINUOUS
 10
61.247501
 20
7.467500
 11
61.247501
 21
113.467499
  0
LINE
  8
0
  6
CENTER
 10
-7.523125
 20
60.467499
 11
203.997498
 21
60.467499
  0
LINE
  8
0
  6
CONTINUOUS
 10
191.247498
 20
8.467500
 11
191.247498
 21
0.467500
  0
LINE
  8
0
  6
CONTINUOUS
 10
131.247498
 20
8.467500
 11
131.247498
 21
0.467500
  0
LINE
  8
0
  6
CENTER
 10
141.247498
 20
14.342500
 11
141.247498
 21
-4.782500
  0
LINE
  8
0
  6
CENTER
 10
181.247498
 20
14.717500
 11
181.247498
 21
-4.032500
  0
LINE
  8
0
  6
CENTER
 10
167.184296
 20
75.467499
 11
237.247498
 21
75.467499
  0
LINE
  8
0
  6
CONTINUOUS
 10
131.247498
 20
0.467500
 11
191.247498
 21
0.467500
  0
LINE
  8
0
  6
CONTINUOUS
 10
61.247501
 20
113.467499
 11
191.247498
 21
113.467499
  0
LINE
  8
0
  6
CONTINUOUS
 10
61.247501
 20
7.467500
 11
131.247498
 21
7.467500
  0
LINE
  8
0
  6
CONTINUOUS
 10
169.247498
 20
29.248911
 11
169.247498
 21
12.467480
  0
LINE
  8
0
  6
CONTINUOUS
 10
153.247498
 20
29.248899
 11
153.247498
 21
12.467500
  0
LINE
  8
0
  6
CONTINUOUS
 10
133.247498
 20
10.467500
 11
189.247498
 21
10.467500
  0
LINE
  8
0
  6
CONTINUOUS
 10
191.247498
 20
8.467500
 11
191.247498
 21
113.467499
  0
ARC
  8
0
  6
CONTINUOUS
 10
189.247498
 20
8.467490
 40
2.000000
 50
0.000000
 51
90.000000
  0
LINE
  8
0
  6
CONTINUOUS
 10
131.247498
 20
25.140930
 11
131.247498
 21
8.467500
  0
ARC
  8
0
  6
CONTINUOUS
 10
133.247498
 20
8.467510
 40
2.000000
 50
90.000000
 51
180.000000
  0
LINE
  8
0
  6
DASHED
 10
185.497498
 20
10.467500
 11
185.497498
 21
0.467500
  0
LINE
  8
0
  6
DASHED
 10
176.997498
 20
10.467500
 11
176.997498
 21
0.467500
  0
LINE
  8
0
  6
DASHED
 10
145.497498
 20
10.467500
 11
145.497498
 21
0.467500
  0
LINE
  8
0
  6
DASHED
 10
136.997498
 20
10.467500
 11
136.997498
 21
0.467500
  0
LINE
  8
0
  6
CONTINUOUS
 10
61.247501
 20
103.090797
 11
191.247498
 21
103.090797
  0
LINE
  8
0
  6
CONTINUOUS
 10
61.247501
 20
17.844139
 11
131.247498
 21
17.844139
  0
LINE
  8
0
  6
CONTINUOUS
 10
196.247498
 20
52.967499
 11
196.247498
 21
97.967499
  0
LINE
  8
0
  6
CONTINUOUS
 10
195.247498
 20
98.967499
 11
191.247498
 21
98.967499
  0
LINE
  8
0
  6
CONTINUOUS
 10
195.247498
 20
51.967499
 11
191.247498
 21
51.967499
  0
ARC
  8
0
  6
CONTINUOUS
 10
195.247498
 20
97.967499
 40
1.000000
 50
0.000000
 51
90.000000
  0
ARC
  8
0
  6
CONTINUOUS
 10
195.247498
 20
52.967499
 40
1.000000
 50
-90.000000
 51
0.000000
  0
ARC
  8
0
  6
CONTINUOUS
 10
134.247498
 20
25.140949
 40
3.000000
 50
90.000000
 51
180.000000
  0
LINE
  8
0
  6
CONTINUOUS
 10
134.247498
 20
28.140930
 11
152.622498
 21
28.140930
  0
LINE
  8
0
  6
CONTINUOUS
 10
190.622498
 20
28.140930
 11
169.872498
 21
28.140930
  0
ARC
  8
0
  6
CONTINUOUS
 10
171.247498
 20
29.248911
 40
2.000000
 50
90.000000
 51
180.000000
  0
ARC
  8
0
  6
CONTINUOUS
 10
151.247498
 20
29.248899
 40
2.000000
 50
0.000000
 51
90.000000
  0
ARC
  8
0
  6
CONTINUOUS
 10
171.247498
 20
12.467500
 40
2.000000
 50
180.000000
 51
270.000000
  0
ARC
  8
0
  6
CONTINUOUS
 10
151.247498
 20
12.467500
 40
2.000000
 50
-90.000000
 51
0.000000
  0
LINE
  8
0
  6
CONTINUOUS
 10
228.247498
 20
66.467499
 11
228.247498
 21
84.467499
  0
LINE
  8
0
  6
CONTINUOUS
 10
198.247498
 20
84.467499
 11
228.247498
 21
84.467499
  0
LINE
  8
0
  6
CONTINUOUS
 10
198.247498
 20
66.467499
 11
228.247498
 21
66.467499
  0
LINE
  8
0
  6
CONTINUOUS
 10
198.247498
 20
85.467499
 11
198.247498
 21
65.467499
  0
LINE
  8
0
  6
CONTINUOUS
 10
196.247498
 20
85.467499
 11
198.247498
 21
85.467499
  0
LINE
  8
0
  6
CONTINUOUS
 10
196.247498
 20
65.467499
 11
198.247498
 21
65.467499
  0
ARC
  8
0
  6
CONTINUOUS
 10
204.247498
 20
75.467499
 40
3.000000
 50
90.000000
 51
270.000000
  0
LINE
  8
0
  6
CONTINUOUS
 10
204.247498
 20
78.467499
 11
228.247498
 21
78.467499
  0
LINE
  8
0
  6
CONTINUOUS
 10
204.247498
 20
72.467499
 11
228.247498
 21
72.467499
  0
LINE
  8
0
  6
CENTER
 10
363.747498
 20
-9.282500
 11
363.747498
 21
167.349380
  0
LINE
  8
0
  6
CENTER
 10
297.747498
 20
60.467499
 11
427.247498
 21
60.467499
  0
LINE
  8
0
  6
CONTINUOUS
 10
403.747498
 20
0.467500
 11
428.747498
 21
0.467500
  0
LINE
  8
0
  6
CONTINUOUS
 10
428.747498
 20
8.467490
 11
428.747498
 21
0.467500
  0
LINE
  8
0
  6
CONTINUOUS
 10
402.747498
 20
1.467500
 11
363.747498
 21
1.467500
  0
LINE
  8
0
  6
CONTINUOUS
 10
410.747498
 20
10.467500
 11
426.747498
 21
10.467500
  0
LINE
  8
0
  6
CONTINUOUS
 10
395.247498
 20
110.952301
 11
395.247498
 21
103.090897
  0
LINE
  8
0
  6
CENTER
 10
418.747498
 20
14.967500
 11
418.747498
 21
-5.782500
  0
LINE
  8
0
  6
DASHED
 10
422.997498
 20
10.467500
 11
422.997498
 21
0.467500
  0
LINE
  8
0
  6
DASHED
 10
414.497498
 20
10.467500
 11
414.497498
 21
0.467500
  0
LINE
  8
0
  6
CONTINUOUS
 10
393.282410
 20
112.952003
 11
363.747498
 21
113.467499
  0
ARC
  8
0
  6
CONTINUOUS
 10
393.247498
 20
110.952301
 40
2.000000
 50
0.000000
 51
89.000076
  0
LINE
  8
0
  6
CENTER
 10
330.742493
 20
75.467499
 11
396.316254
 21
75.467499
  0
LINE
  8
0
  6
CONTINUOUS
 10
323.747498
 20
0.467500
 11
298.747498
 21
0.467500
  0
LINE
  8
0
  6
CONTINUOUS
 10
298.747498
 20
8.467480
 11
298.747498
 21
0.467500
  0
LINE
  8
0
  6
CONTINUOUS
 10
324.747498
 20
1.467500
 11
363.747498
 21
1.467500
  0
LINE
  8
0
  6
CONTINUOUS
 10
316.747498
 20
10.467500
 11
300.747498
 21
10.467500
  0
LINE
  8
0
  6
CONTINUOUS
 10
332.247498
 20
110.952301
 11
332.247498
 21
103.090897
  0
LINE
  8
0
  6
CENTER
 10
308.747498
 20
14.967500
 11
308.747498
 21
-5.782500
  0
LINE
  8
0
  6
DASHED
 10
304.497498
 20
10.467500
 11
304.497498
 21
0.467500
  0
LINE
  8
0
  6
DASHED
 10
312.997498
 20
10.467500
 11
312.997498
 21
0.467500
  0
LINE
  8
0
  6
CONTINUOUS
 10
334.212585
 20
112.952003
 11
363.747498
 21
113.467499
  0
ARC
  8
0
  6
CONTINUOUS
 10
334.247498
 20
110.952301
 40
2.000000
 50
90.999924
 51
180.000000
  0
ARC
  8
0
  6
CONTINUOUS
 10
363.747498
 20
60.467499
 40
53.000000
 50
126.465599
 51
217.584595
  0
ARC
  8
0
  6
CONTINUOUS
 10
363.747498
 20
60.467499
 40
53.000000
 50
53.534370
 51
53.534382
  0
ARC
  8
0
  6
CONTINUOUS
 10
363.747498
 20
60.467499
 40
53.000000
 50
-37.584629
 51
53.534382
  0
LINE
  8
0
  6
CONTINUOUS
 10
411.747498
 20
76.159897
 11
411.747498
 21
44.775459
  0
LINE
  8
0
  6
CONTINUOUS
 10
315.747498
 20
76.159698
 11
315.747498
 21
44.774979
  0
ARC
  8
0
  6
CONTINUOUS
 10
363.747498
 20
60.467499
 40
50.500000
 50
18.103800
 51
161.896194
  0
ARC
  8
0
  6
CONTINUOUS
 10
363.747498
 20
60.467499
 40
50.500000
 50
198.103806
 51
341.896210
  0
LINE
  8
0
  6
CONTINUOUS
 10
321.747498
 20
15.467500
 11
321.747498
 21
28.141050
  0
ARC
  8
0
  6
CONTINUOUS
 10
410.747498
 20
15.467500
 40
5.000000
 50
180.000000
 51
270.000000
  0
ARC
  8
0
  6
CONTINUOUS
 10
316.747498
 20
15.467480
 40
5.000000
 50
-90.000000
 51
0.000000
  0
LINE
  8
0
  6
CONTINUOUS
 10
405.747498
 20
15.467480
 11
405.747498
 21
28.141050
  0
CIRCLE
  8
0
  6
CONTINUOUS
 10
363.747498
 20
75.467499
 40
23.500000
  0
ARC
  8
0
  6
CONTINUOUS
 10
426.747498
 20
8.467490
 40
2.000000
 50
0.000000
 51
90.000000
  0
LINE
  8
0
  6
CONTINUOUS
 10
428.161713
 20
9.881710
 11
407.531891
 21
30.511320
  0
ARC
  8
0
  6
CONTINUOUS
 10
300.747498
 20
8.467490
 40
2.000000
 50
90.000000
 51
180.000000
  0
LINE
  8
0
  6
CONTINUOUS
 10
299.333313
 20
9.881710
 11
319.963104
 21
30.511320
  0
LINE
  8
0
  6
CONTINUOUS
 10
403.747498
 20
0.467500
 11
402.747498
 21
1.467500
  0
LINE
  8
0
  6
CONTINUOUS
 10
323.747498
 20
0.467500
 11
324.747498
 21
1.467500
  0
LINE
  8
0
  6
CONTINUOUS
 10
357.372498
 20
38.020721
 11
357.372498
 21
32.467499
  0
LINE
  8
0
  6
CONTINUOUS
 10
360.559998
 20
40.037811
 11
360.559998
 21
42.029999
  0
LINE
  8
0
  6
CONTINUOUS
 10
366.934998
 20
40.037811
 11
366.934998
 21
42.029999
  0
LINE
  8
0
  6
CONTINUOUS
 10
363.124908
 20
40.859589
 11
363.124908
 21
33.513409
  0
LINE
  8
0
  6
CONTINUOUS
 10
364.320312
 20
40.859589
 11
364.320312
 21
33.513409
  0
LINE
  8
0
  6
CONTINUOUS
 10
370.595612
 20
40.859589
 11
370.595612
 21
33.463589
  0
LINE
  8
0
  6
CONTINUOUS
 10
371.691315
 20
36.937469
 11
371.691315
 21
33.463589
  0
LINE
  8
0
  6
CONTINUOUS
 10
355.859985
 20
40.759979
 11
352.788086
 21
40.759979
  0
LINE
  8
0
  6
CONTINUOUS
 10
352.788086
 20
40.759979
 11
352.068298
 21
39.867489
  0
LINE
  8
0
  6
CONTINUOUS
 10
352.154907
 20
42.029999
 11
350.997498
 21
40.547989
  0
LINE
  8
0
  6
CONTINUOUS
 10
352.068298
 20
34.358421
 11
352.799591
 21
33.588112
  0
LINE
  8
0
  6
CONTINUOUS
 10
350.997498
 20
33.708351
 11
352.227295
 21
32.467499
  0
LINE
  8
0
  6
CONTINUOUS
 10
350.997498
 20
40.547989
 11
350.997498
 21
33.708351
  0
LINE
  8
0
  6
CONTINUOUS
 10
352.068298
 20
39.867489
 11
352.068298
 21
34.358421
  0
LINE
  8
0
  6
CONTINUOUS
 10
356.451111
 20
40.188549
 11
355.847900
 21
40.759979
  0
LINE
  8
0
  6
CONTINUOUS
 10
356.441498
 20
42.029999
 11
357.372498
 21
40.996849
  0
LINE
  8
0
  6
CONTINUOUS
 10
356.451111
 20
40.037811
 11
357.372498
 21
40.037811
  0
LINE
  8
0
  6
CONTINUOUS
 10
352.154907
 20
42.029999
 11
356.441498
 21
42.029999
  0
LINE
  8
0
  6
CONTINUOUS
 10
356.451111
 20
36.974819
 11
354.782715
 21
36.974819
  0
LINE
  8
0
  6
CONTINUOUS
 10
356.451111
 20
35.978729
 11
356.451111
 21
36.775612
  0
LINE
  8
0
  6
CONTINUOUS
 10
354.458893
 20
33.588112
 11
352.799591
 21
33.588112
  0
ARC
  8
0
  6
CONTINUOUS
 10
354.458893
 20
35.580292
 40
1.992187
 50
-89.999786
 51
0.000109
  0
LINE
  8
0
  6
CONTINUOUS
 10
356.451111
 20
33.229759
 11
356.451111
 21
32.467499
  0
LINE
  8
0
  6
CONTINUOUS
 10
357.372498
 20
40.996849
 11
357.372498
 21
40.037811
  0
LINE
  8
0
  6
CONTINUOUS
 10
356.451111
 20
36.974819
 11
356.451111
 21
35.580292
  0
LINE
  8
0
  6
CONTINUOUS
 10
354.782715
 20
38.020721
 11
354.782715
 21
36.974819
  0
LINE
  8
0
  6
CONTINUOUS
 10
356.451111
 20
32.467499
 11
357.372498
 21
32.467499
  0
LINE
  8
0
  6
CONTINUOUS
 10
356.451111
 20
33.229759
 11
355.542511
 21
32.467499
  0
LINE
  8
0
  6
CONTINUOUS
 10
364.320312
 20
33.513409
 11
364.718689
 21
33.513409
  0
LINE
  8
0
  6
CONTINUOUS
 10
362.651794
 20
33.513409
 11
362.651794
 21
32.467499
  0
LINE
  8
0
  6
CONTINUOUS
 10
364.718689
 20
33.513409
 11
364.718689
 21
32.467499
  0
LINE
  8
0
  6
CONTINUOUS
 10
366.270111
 20
40.037811
 11
366.934998
 21
40.037811
  0
LINE
  8
0
  6
CONTINUOUS
 10
360.559998
 20
40.037811
 11
361.267609
 21
40.037811
  0
LINE
  8
0
  6
CONTINUOUS
 10
360.559998
 20
42.029999
 11
366.934998
 21
42.029999
  0
LINE
  8
0
  6
CONTINUOUS
 10
362.651794
 20
32.467499
 11
364.718689
 21
32.467499
  0
LINE
  8
0
  6
CONTINUOUS
 10
362.651794
 20
33.513409
 11
363.124908
 21
33.513409
  0
ARC
  8
0
  6
CONTINUOUS
 10
373.945007
 20
39.477509
 40
2.552490
 50
-73.981873
 51
90.003510
  0
ARC
  8
0
  6
CONTINUOUS
 10
373.945007
 20
39.477509
 40
1.557193
 50
-82.585274
 51
62.411850
  0
LINE
  8
0
  6
CONTINUOUS
 10
370.122498
 20
42.029999
 11
373.945007
 21
42.029999
  0
LINE
  8
0
  6
CONTINUOUS
 10
370.122498
 20
42.029999
 11
370.122498
 21
40.859589
  0
LINE
  8
0
  6
CONTINUOUS
 10
371.691315
 20
40.859589
 11
371.691315
 21
37.933338
  0
LINE
  8
0
  6
CONTINUOUS
 10
374.649414
 20
37.024109
 11
376.229187
 21
33.463589
  0
LINE
  8
0
  6
CONTINUOUS
 10
373.731812
 20
36.937469
 11
375.226807
 21
33.463589
  0
LINE
  8
0
  6
CONTINUOUS
 10
370.122498
 20
33.463589
 11
370.595612
 21
33.463589
  0
LINE
  8
0
  6
CONTINUOUS
 10
371.691315
 20
33.463589
 11
372.127106
 21
33.463589
  0
LINE
  8
0
  6
CONTINUOUS
 10
372.127106
 20
32.467499
 11
370.122498
 21
32.467499
  0
LINE
  8
0
  6
CONTINUOUS
 10
375.028290
 20
33.463589
 11
375.226807
 21
33.463589
  0
LINE
  8
0
  6
CONTINUOUS
 10
376.229187
 20
33.463589
 11
376.497498
 21
33.463589
  0
LINE
  8
0
  6
CONTINUOUS
 10
375.028290
 20
32.467499
 11
376.497498
 21
32.467499
  0
LINE
  8
0
  6
CONTINUOUS
 10
376.497498
 20
33.463589
 11
376.497498
 21
32.467499
  0
LINE
  8
0
  6
CONTINUOUS
 10
375.028290
 20
33.463589
 11
375.028290
 21
32.467499
  0
LINE
  8
0
  6
CONTINUOUS
 10
372.127106
 20
33.463589
 11
372.127106
 21
32.467499
  0
LINE
  8
0
  6
CONTINUOUS
 10
370.122498
 20
33.463589
 11
370.122498
 21
32.467499
  0
LINE
  8
0
  6
CONTINUOUS
 10
361.609985
 20
40.859589
 11
361.267609
 21
40.037811
  0
LINE
  8
0
  6
CONTINUOUS
 10
365.981293
 20
40.859589
 11
366.270111
 21
40.037811
  0
LINE
  8
0
  6
CONTINUOUS
 10
364.320312
 20
40.859589
 11
365.981293
 21
40.859589
  0
LINE
  8
0
  6
CONTINUOUS
 10
363.124908
 20
40.859589
 11
361.609985
 21
40.859589
  0
LINE
  8
0
  6
CONTINUOUS
 10
370.122498
 20
40.859589
 11
370.595612
 21
40.859589
  0
LINE
  8
0
  6
CONTINUOUS
 10
371.691315
 20
40.859589
 11
374.666199
 21
40.857651
  0
LINE
  8
0
  6
CONTINUOUS
 10
356.451111
 20
40.188549
 11
356.451111
 21
40.037811
  0
LINE
  8
0
  6
CONTINUOUS
 10
352.227295
 20
32.467499
 11
355.542511
 21
32.467499
  0
LINE
  8
0
  6
CONTINUOUS
 10
371.691315
 20
37.933338
 11
374.145996
 21
37.933338
  0
LINE
  8
0
  6
CONTINUOUS
 10
371.691315
 20
36.937469
 11
373.731812
 21
36.937469
  0
LINE
  8
0
  6
CONTINUOUS
 10
354.782715
 20
38.020721
 11
357.372498
 21
38.020721
  0
LINE
  8
0
  6
CONTINUOUS
 10
392.176392
 20
115.467499
 11
387.247498
 21
115.467499
  0
LINE
  8
0
  6
CONTINUOUS
 10
308.747498
 20
88.896400
 11
308.747498
 21
32.038559
  0
LINE
  8
0
  6
CONTINUOUS
 10
418.747498
 20
32.038559
 11
418.747498
 21
88.896400
  0
LINE
  8
0
  6
CONTINUOUS
 10
331.783112
 20
114.002998
 11
310.212006
 21
92.431999
  0
LINE
  8
0
  6
CONTINUOUS
 10
417.282990
 20
92.431999
 11
395.712006
 21
114.002998
  0
LINE
  8
0
  6
CONTINUOUS
 10
417.283112
 20
28.503031
 11
413.411713
 21
24.631630
  0
LINE
  8
0
  6
CONTINUOUS
 10
310.212006
 20
28.503031
 11
314.083313
 21
24.631651
  0
ARC
  8
0
  6
CONTINUOUS
 10
313.747498
 20
32.038609
 40
5.000000
 50
180.000000
 51
225.000397
  0
ARC
  8
0
  6
CONTINUOUS
 10
313.747498
 20
88.896500
 40
5.000000
 50
135.000397
 51
180.000000
  0
ARC
  8
0
  6
CONTINUOUS
 10
335.318604
 20
110.467499
 40
5.000000
 50
90.000000
 51
135.000198
  0
ARC
  8
0
  6
CONTINUOUS
 10
392.176514
 20
110.467499
 40
5.000000
 50
45.000198
 51
90.000000
  0
ARC
  8
0
  6
CONTINUOUS
 10
413.747498
 20
88.896400
 40
5.000000
 50
0.000000
 51
45.000160
  0
ARC
  8
0
  6
CONTINUOUS
 10
413.747498
 20
32.038528
 40
5.000000
 50
-44.999569
 51
0.000000
  0
LINE
  8
0
  6
CONTINUOUS
 10
358.247498
 20
78.467499
 11
358.247498
 21
72.467499
  0
LINE
  8
0
  6
CONTINUOUS
 10
352.247498
 20
78.467499
 11
352.247498
 21
72.467499
  0
LINE
  8
0
  6
CONTINUOUS
 10
352.247498
 20
78.467499
 11
358.247498
 21
78.467499
  0
LINE
  8
0
  6
CONTINUOUS
 10
352.247498
 20
72.467499
 11
358.247498
 21
72.467499
  0
ARC
  8
0
  6
CONTINUOUS
 10
363.747498
 20
75.467499
 40
9.000000
 50
-160.528793
 51
160.528793
  0
LINE
  8
0
  6
CENTER
 10
-10.955625
 20
281.281097
 11
233.902969
 21
281.281097
  0
LINE
  8
0
  6
CONTINUOUS
 10
61.247543
 20
334.281097
 11
191.247513
 21
334.281097
  0
LINE
  8
0
  6
CONTINUOUS
 10
61.247543
 20
228.281097
 11
191.247513
 21
228.281097
  0
LINE
  8
0
  6
CONTINUOUS
 10
191.247513
 20
219.281097
 11
191.247513
 21
343.281097
  0
LINE
  8
0
  6
CONTINUOUS
 10
188.247513
 20
346.281097
 11
134.247513
 21
346.281097
  0
LINE
  8
0
  6
CONTINUOUS
 10
134.247513
 20
216.281097
 11
188.247513
 21
216.281097
  0
LINE
  8
0
  6
CONTINUOUS
 10
131.247513
 20
343.281097
 11
131.247513
 21
334.281097
  0
LINE
  8
0
  6
CONTINUOUS
 10
131.247513
 20
219.281097
 11
131.247513
 21
228.281097
  0
ARC
  8
0
  6
CONTINUOUS
 10
134.247513
 20
343.281097
 40
3.000000
 50
90.000000
 51
180.000000
  0
ARC
  8
0
  6
CONTINUOUS
 10
188.247513
 20
343.281097
 40
3.000000
 50
0.000000
 51
90.000000
  0
ARC
  8
0
  6
CONTINUOUS
 10
188.247513
 20
219.281097
 40
3.000000
 50
-90.000000
 51
0.000000
  0
ARC
  8
0
  6
CONTINUOUS
 10
134.247513
 20
219.281097
 40
3.000000
 50
180.000000
 51
270.000000
  0
LINE
  8
0
  6
CONTINUOUS
 10
52.747501
 20
334.281067
 11
61.247543
 21
334.281067
  0
LINE
  8
0
  6
CONTINUOUS
 10
52.747501
 20
228.281113
 11
61.247543
 21
228.281113
  0
LINE
  8
0
  6
CONTINUOUS
 10
61.247543
 20
312.781097
 11
52.747501
 21
312.781097
  0
LINE
  8
0
  6
CONTINUOUS
 10
61.247543
 20
249.781097
 11
52.747501
 21
249.781097
  0
LINE
  8
0
  6
CONTINUOUS
 10
61.247543
 20
228.281113
 11
61.247543
 21
256.281067
  0
LINE
  8
0
  6
CONTINUOUS
 10
61.247543
 20
312.781097
 11
191.247513
 21
312.781097
  0
LINE
  8
0
  6
CONTINUOUS
 10
61.247543
 20
249.781097
 11
191.247513
 21
249.781097
  0
LINE
  8
0
  6
CONTINUOUS
 10
196.247513
 20
258.781097
 11
196.247513
 21
303.781097
  0
LINE
  8
0
  6
CONTINUOUS
 10
195.247513
 20
304.781097
 11
191.247513
 21
304.781097
  0
LINE
  8
0
  6
CONTINUOUS
 10
195.247513
 20
257.781097
 11
191.247513
 21
257.781097
  0
ARC
  8
0
  6
CONTINUOUS
 10
195.247513
 20
303.781097
 40
1.000000
 50
0.000000
 51
90.000000
  0
ARC
  8
0
  6
CONTINUOUS
 10
195.247513
 20
258.781097
 40
1.000000
 50
-90.000000
 51
0.000000
  0
LINE
  8
0
  6
CONTINUOUS
 10
228.247498
 20
269.781097
 11
228.247498
 21
290.281097
  0
LINE
  8
0
  6
CONTINUOUS
 10
198.247513
 20
290.281097
 11
228.247498
 21
290.281097
  0
LINE
  8
0
  6
CONTINUOUS
 10
198.247513
 20
272.281097
 11
201.247513
 21
272.281097
  0
LINE
  8
0
  6
CONTINUOUS
 10
198.247513
 20
291.281097
 11
198.247513
 21
271.281097
  0
LINE
  8
0
  6
CONTINUOUS
 10
196.247513
 20
291.281097
 11
198.247513
 21
291.281097
  0
LINE
  8
0
  6
CONTINUOUS
 10
196.247513
 20
271.281097
 11
198.247513
 21
271.281097
  0
LINE
  8
0
  6
CONTINUOUS
 10
169.247513
 20
228.281097
 11
169.247513
 21
218.143127
  0
LINE
  8
0
  6
CONTINUOUS
 10
153.247513
 20
228.281097
 11
153.247513
 21
218.143127
  0
LINE
  8
0
  6
CENTER
 10
181.247513
 20
234.519836
 11
181.247513
 21
217.530396
  0
LINE
  8
0
  6
CENTER
 10
141.247513
 20
235.299683
 11
141.247513
 21
217.808914
  0
LINE
  8
0
  6
CENTER
 10
133.191727
 20
226.281097
 11
150.014069
 21
226.281097
  0
LINE
  8
0
  6
CENTER
 10
173.297974
 20
226.281097
 11
189.618988
 21
226.281097
  0
ARC
  8
0
  6
CONTINUOUS
 10
181.247513
 20
226.281097
 40
4.250000
 50
-208.072495
 51
28.072487
  0
ARC
  8
0
  6
DASHED
 10
141.247513
 20
226.281097
 40
4.250000
 50
28.072487
 51
151.927505
  0
ARC
  8
0
  6
CONTINUOUS
 10
141.247513
 20
226.281097
 40
4.250000
 50
-208.072495
 51
28.072487
  0
ARC
  8
0
  6
DASHED
 10
181.247513
 20
226.281097
 40
4.250000
 50
28.072487
 51
151.927505
  0
LINE
  8
0
  6
CONTINUOUS
 10
201.247513
 20
272.796082
 11
201.247513
 21
269.781097
  0
LINE
  8
0
  6
CONTINUOUS
 10
201.247513
 20
269.781097
 11
228.247498
 21
269.781097
  0
LINE
  8
0
  6
CONTINUOUS
 10
201.247513
 20
272.796082
 11
228.247498
 21
272.796082
  0
LINE
  8
0
  6
CONTINUOUS
 10
61.247543
 20
306.281067
 11
61.247543
 21
334.281067
  0
LINE
  8
0
  6
CONTINUOUS
 10
169.247513
 20
334.281097
 11
169.247513
 21
344.419067
  0
LINE
  8
0
  6
CONTINUOUS
 10
153.247513
 20
334.281097
 11
153.247513
 21
344.419067
  0
LINE
  8
0
  6
CENTER
 10
181.247513
 20
328.042358
 11
181.247513
 21
345.031799
  0
LINE
  8
0
  6
CENTER
 10
141.247513
 20
327.262512
 11
141.247513
 21
344.753296
  0
LINE
  8
0
  6
CENTER
 10
133.191727
 20
336.281097
 11
150.014069
 21
336.281097
  0
LINE
  8
0
  6
CENTER
 10
173.297974
 20
336.281097
 11
189.618988
 21
336.281097
  0
ARC
  8
0
  6
CONTINUOUS
 10
181.247513
 20
336.281097
 40
4.250000
 50
-28.072487
 51
208.072495
  0
ARC
  8
0
  6
DASHED
 10
141.247513
 20
336.281097
 40
4.250000
 50
-151.927505
 51
-28.072487
  0
ARC
  8
0
  6
CONTINUOUS
 10
141.247513
 20
336.281097
 40
4.250000
 50
-28.072487
 51
208.072495
  0
ARC
  8
0
  6
DASHED
 10
181.247513
 20
336.281097
 40
4.250000
 50
-151.927505
 51
-28.072487
  0
LINE
  8
0
  6
CONTINUOUS
 10
52.747501
 20
336.281097
 11
52.747501
 21
304.781067
  0
LINE
  8
0
  6
CONTINUOUS
 10
13.747500
 20
336.281097
 11
52.747501
 21
336.281097
  0
LINE
  8
0
  6
CONTINUOUS
 10
13.747500
 20
226.281097
 11
52.747501
 21
226.281097
  0
LINE
  8
0
  6
CONTINUOUS
 10
3.747500
 20
236.281097
 11
3.747500
 21
326.281097
  0
LINE
  8
0
  6
CONTINUOUS
 10
8.747500
 20
311.781097
 11
52.747501
 21
311.781097
  0
LINE
  8
0
  6
CONTINUOUS
 10
8.747500
 20
250.781097
 11
52.747501
 21
250.781097
  0
ARC
  8
0
  6
CONTINUOUS
 10
13.747590
 20
326.281097
 40
10.000000
 50
90.000000
 51
180.000000
  0
ARC
  8
0
  6
CONTINUOUS
 10
13.747500
 20
236.281097
 40
10.000000
 50
180.000000
 51
270.000000
  0
LINE
  8
0
  6
CONTINUOUS
 10
52.247501
 20
258.281067
 11
52.247501
 21
304.281067
  0
LINE
  8
0
  6
CONTINUOUS
 10
54.247501
 20
306.281067
 11
52.247501
 21
304.281067
  0
LINE
  8
0
  6
CONTINUOUS
 10
54.247501
 20
306.281067
 11
100.247490
 21
306.281067
  0
LINE
  8
0
  6
CONTINUOUS
 10
94.747498
 20
301.781067
 11
94.747498
 21
306.281067
  0
ARC
  8
0
  6
CONTINUOUS
 10
97.747498
 20
301.781067
 40
3.000000
 50
180.000000
 51
270.000000
  0
LINE
  8
0
  6
CONTINUOUS
 10
97.747498
 20
298.781067
 11
102.247490
 21
298.781067
  0
CIRCLE
  8
0
  6
CONTINUOUS
 10
98.747498
 20
302.781067
 40
2.250000
  0
LINE
  8
0
  6
CONTINUOUS
 10
102.247498
 20
258.281067
 11
102.247490
 21
304.281067
  0
LINE
  8
0
  6
CONTINUOUS
 10
100.247490
 20
306.281067
 11
102.247490
 21
304.281067
  0
LINE
  8
0
  6
CONTINUOUS
 10
100.247498
 20
256.281067
 11
102.247498
 21
258.281067
  0
LINE
  8
0
  6
CONTINUOUS
 10
100.247498
 20
256.281067
 11
54.247501
 21
256.281067
  0
LINE
  8
0
  6
CONTINUOUS
 10
52.247501
 20
258.281067
 11
54.247501
 21
256.281067
  0
LINE
  8
0
  6
CONTINUOUS
 10
56.747501
 20
263.781067
 11
52.247509
 21
263.781067
  0
CIRCLE
  8
0
  6
CONTINUOUS
 10
55.747501
 20
259.781067
 40
2.250000
  0
ARC
  8
0
  6
CONTINUOUS
 10
56.747501
 20
260.781067
 40
3.000000
 50
0.000000
 51
90.000000
  0
LINE
  8
0
  6
CONTINUOUS
 10
59.747501
 20
260.781067
 11
59.747501
 21
256.281067
  0
LINE
  8
0
  6
CENTER
 10
77.247498
 20
248.815292
 11
77.247498
 21
312.947327
  0
LINE
  8
0
  6
CONTINUOUS
 10
53.247505
 20
263.781097
 11
53.247505
 21
298.781097
  0
LINE
  8
0
  6
CONTINUOUS
 10
94.747498
 20
305.281097
 11
59.747520
 21
305.281097
  0
LINE
  8
0
  6
CONTINUOUS
 10
101.247498
 20
298.781097
 11
101.247498
 21
263.781097
  0
LINE
  8
0
  6
CONTINUOUS
 10
59.747501
 20
257.281097
 11
94.747520
 21
257.281097
  0
LINE
  8
0
  6
CONTINUOUS
 10
52.747501
 20
257.781067
 11
52.747501
 21
226.281097
  0
LINE
  8
0
  6
CONTINUOUS
 10
340.247498
 20
115.467499
 11
335.318604
 21
115.467499
  0
LINE
  8
0
  6
CONTINUOUS
 10
56.747520
 20
298.781097
 11
52.247520
 21
298.781097
  0
ARC
  8
0
  6
CONTINUOUS
 10
56.747520
 20
301.781097
 40
3.000000
 50
-90.000000
 51
0.000000
  0
LINE
  8
0
  6
CONTINUOUS
 10
59.747520
 20
301.781097
 11
59.747520
 21
306.281097
  0
CIRCLE
  8
0
  6
CONTINUOUS
 10
55.747520
 20
302.781097
 40
2.250000
  0
CIRCLE
  8
0
  6
CONTINUOUS
 10
98.747520
 20
259.781097
 40
2.250000
  0
LINE
  8
0
  6
CONTINUOUS
 10
94.747520
 20
260.781097
 11
94.747520
 21
256.281097
  0
ARC
  8
0
  6
CONTINUOUS
 10
97.747520
 20
260.781097
 40
3.000000
 50
90.000000
 51
180.000000
  0
LINE
  8
0
  6
CONTINUOUS
 10
97.747520
 20
263.781097
 11
102.247520
 21
263.781097
  0
LINE
  8
0
  6
CONTINUOUS
 10
340.747498
 20
114.967499
 11
386.747498
 21
114.967499
  0
LINE
  8
0
  6
CONTINUOUS
 10
388.747498
 20
158.967499
 11
388.747498
 21
116.967499
  0
LINE
  8
0
  6
CONTINUOUS
 10
338.747498
 20
158.967499
 11
338.747498
 21
116.967499
  0
LINE
  8
0
  6
CONTINUOUS
 10
338.747498
 20
126.967499
 11
388.747498
 21
126.967499
  0
LINE
  8
0
  6
CONTINUOUS
 10
386.747498
 20
114.967499
 11
388.747498
 21
116.967499
  0
LINE
  8
0
  6
CONTINUOUS
 10
338.747498
 20
116.967499
 11
340.747498
 21
114.967499
  0
LINE
  8
0
  6
CONTINUOUS
 10
338.747498
 20
116.967499
 11
388.747498
 21
116.967499
  0
LINE
  8
0
  6
CONTINUOUS
 10
338.747498
 20
127.967499
 11
388.747498
 21
127.967499
  0
LINE
  8
0
  6
CONTINUOUS
 10
339.747498
 20
159.967499
 11
387.747498
 21
159.967499
  0
LINE
  8
0
  6
CONTINUOUS
 10
387.747498
 20
159.967499
 11
388.747498
 21
158.967499
  0
LINE
  8
0
  6
CONTINUOUS
 10
339.747498
 20
159.967499
 11
338.747498
 21
158.967499
  0
LINE
  8
0
  6
CONTINUOUS
 10
338.747498
 20
158.967499
 11
388.747498
 21
158.967499
  0
LINE
  8
0
  6
CONTINUOUS
 10
386.247498
 20
114.967499
 11
386.247498
 21
113.074768
  0
LINE
  8
0
  6
CONTINUOUS
 10
341.247498
 20
114.967499
 11
341.247498
 21
113.074760
  0
LINE
  8
0
  6
CONTINUOUS
 10
53.747501
 20
114.967499
 11
100.247498
 21
114.967499
  0
LINE
  8
0
  6
CONTINUOUS
 10
102.247482
 20
158.967499
 11
102.247498
 21
116.967499
  0
LINE
  8
0
  6
CONTINUOUS
 10
52.247501
 20
158.967499
 11
52.247501
 21
116.967499
  0
LINE
  8
0
  6
CONTINUOUS
 10
52.247501
 20
126.967499
 11
102.247498
 21
126.967499
  0
LINE
  8
0
  6
CONTINUOUS
 10
100.247498
 20
114.967499
 11
102.247498
 21
116.967499
  0
LINE
  8
0
  6
CONTINUOUS
 10
52.247501
 20
116.967499
 11
54.247501
 21
114.967499
  0
LINE
  8
0
  6
CONTINUOUS
 10
52.247501
 20
116.967499
 11
102.247498
 21
116.967499
  0
LINE
  8
0
  6
CONTINUOUS
 10
52.247501
 20
127.967499
 11
102.247490
 21
127.967499
  0
LINE
  8
0
  6
CONTINUOUS
 10
53.247501
 20
159.967499
 11
101.247482
 21
159.967499
  0
LINE
  8
0
  6
CONTINUOUS
 10
101.247482
 20
159.967499
 11
102.247482
 21
158.967499
  0
LINE
  8
0
  6
CONTINUOUS
 10
53.247501
 20
159.967499
 11
52.247501
 21
158.967499
  0
LINE
  8
0
  6
CONTINUOUS
 10
52.247501
 20
158.967499
 11
102.247482
 21
158.967499
  0
LINE
  8
0
  6
CENTER
 10
49.872501
 20
142.967499
 11
54.497501
 21
142.967499
  0
LINE
  8
0
  6
CONTINUOUS
 10
53.747501
 20
114.967499
 11
53.747501
 21
113.467499
  0
LINE
  8
0
  6
CONTINUOUS
 10
99.747498
 20
114.967499
 11
99.747498
 21
113.467499
  0
LINE
  8
0
  6
CONTINUOUS
 10
51.372501
 20
153.467499
 11
53.372501
 21
153.467499
  0
LINE
  8
0
  6
CONTINUOUS
 10
51.372501
 20
132.467499
 11
53.372501
 21
132.467499
  0
LINE
  8
0
  6
CENTER
 10
77.247498
 20
105.551872
 11
77.247498
 21
166.886871
  0
TEXT
  8
0
 10
-10.000000
 20
-9.000000
 40
4.000000
 41
1.000000
  1
GLM-18-40~240-S90WK
 50
0.000000
  0
ENDSEC
  0
EOF
