  0
SECTION
  2
HEADER
  9
$CLAYER
  8
1
  9
$LTSCALE
 40
3.0
  0
ENDSEC
  0
SECTION
  2
TABLES
  0
TABLE
  2
LTYPE
 70
     4
  0
LTYPE
  2
CONTINUOUS
  3
solid line
 70
    64
 72
    65
 73
     0
 40
0.0
  0
LTYPE
  2
DASHED
  3
__ __ __ __ __ __ __ __ __ __ __ __ __ __ __
 70
    64
 72
    65
 73
     2
 40
0.75
 49
0.5
 49
-0.25
  0
LTYPE
  2
CENTER
  3
____ _ ____ _ ____ _ ____ _ ____ _ ____ _ ____
 70
    64
 72
    65
 73
     4
 40
2.0
 49
1.25
 49
-0.25
 49
0.25
 49
-0.25
  0
LTYPE
  2
PHANTOM
  3
_____ _ _ _____ _ _ _____ _ _ _____ _ _ ____
 70
    64
 72
    65
 73
     6
 40
2.5
 49
1.25
 49
-0.25
 49
0.25
 49
-0.25
 49
0.25
 49
-0.25
  0
ENDTAB
  0
TABLE
  2
LAYER
 70
     1
  0
LAYER
  2
0
 70
    64
 62
     7
  6
CONTINUOUS
  0
ENDTAB
  0
TABLE
  2
STYLE
 70
     1
  0
STYLE
  2
STANDARD
 70
     0
 40
0.000000
 41
1.000000
 50
0.000000
 71
     0
 42
3.000000
  3
txt
  4
BIGFONT
  0
ENDTAB
  0
ENDSEC
  0
SECTION
  2
BLOCKS
  0
ENDSEC
  0
SECTION
  2
ENTITIES
  0
LINE
  8
0
  6
CONTINUOUS
 10
-0.060114
 20
70.498314
 11
-0.060114
 21
115.498306
  0
LINE
  8
0
  6
CONTINUOUS
 10
-0.060114
 20
70.498314
 11
-0.060114
 21
25.498327
  0
LINE
  8
0
  6
CONTINUOUS
 10
0.439886
 20
119.498306
 11
0.439886
 21
25.498327
  0
LINE
  8
0
  6
CONTINUOUS
 10
5.530075
 20
123.498306
 11
20.439880
 21
123.498306
  0
LINE
  8
0
  6
CONTINUOUS
 10
5.530075
 20
17.498329
 11
20.439880
 21
17.498329
  0
LINE
  8
0
  6
CONTINUOUS
 10
0.439886
 20
25.498327
 11
0.439886
 21
21.498329
  0
LINE
  8
0
  6
CONTINUOUS
 10
1.057886
 20
120.734406
 11
0.439886
 21
119.498306
  0
ARC
  8
0
  6
CONTINUOUS
 10
5.530075
 20
118.498306
 40
4.999999
 50
90.000000
 51
153.435196
  0
LINE
  8
0
  6
CONTINUOUS
 10
1.057886
 20
20.262259
 11
0.439886
 21
21.498329
  0
ARC
  8
0
  6
CONTINUOUS
 10
5.530075
 20
22.498329
 40
4.999999
 50
206.565002
 51
270.000000
  0
LINE
  8
0
  6
CONTINUOUS
 10
-0.060114
 20
25.498327
 11
0.439886
 21
24.998327
  0
LINE
  8
0
  6
CONTINUOUS
 10
-0.060114
 20
115.498306
 11
0.439886
 21
115.998306
  0
LINE
  8
0
  6
CONTINUOUS
 10
20.439880
 20
113.121605
 11
2.314885
 21
113.121605
  0
LINE
  8
0
  6
CONTINUOUS
 10
20.439880
 20
27.874977
 11
2.314885
 21
27.874977
  0
LINE
  8
0
  6
CONTINUOUS
 10
20.439880
 20
17.498329
 11
20.439880
 21
123.498306
  0
LINE
  8
0
  6
CENTER
 10
-10.325781
 20
70.498314
 11
163.189850
 21
70.498314
  0
LINE
  8
0
  6
CONTINUOUS
 10
150.439850
 20
18.498329
 11
150.439850
 21
10.498332
  0
LINE
  8
0
  6
CONTINUOUS
 10
90.439865
 20
18.498329
 11
90.439865
 21
10.498332
  0
LINE
  8
0
  6
CENTER
 10
100.439857
 20
24.373327
 11
100.439857
 21
5.248333
  0
LINE
  8
0
  6
CENTER
 10
140.439850
 20
24.748327
 11
140.439850
 21
5.998333
  0
LINE
  8
0
  6
CENTER
 10
126.376656
 20
85.498314
 11
196.439835
 21
85.498314
  0
LINE
  8
0
  6
CONTINUOUS
 10
90.439865
 20
10.498332
 11
150.439850
 21
10.498332
  0
LINE
  8
0
  6
CONTINUOUS
 10
20.439880
 20
123.498306
 11
150.439850
 21
123.498306
  0
LINE
  8
0
  6
CONTINUOUS
 10
20.439880
 20
17.498329
 11
90.439865
 21
17.498329
  0
LINE
  8
0
  6
CONTINUOUS
 10
128.439850
 20
39.279736
 11
128.439850
 21
22.498318
  0
LINE
  8
0
  6
CONTINUOUS
 10
112.439857
 20
39.279716
 11
112.439857
 21
22.498329
  0
LINE
  8
0
  6
CONTINUOUS
 10
92.439865
 20
20.498329
 11
148.439850
 21
20.498329
  0
LINE
  8
0
  6
CONTINUOUS
 10
150.439850
 20
18.498329
 11
150.439850
 21
123.498306
  0
ARC
  8
0
  6
CONTINUOUS
 10
148.439850
 20
18.498320
 40
2.000000
 50
0.000000
 51
90.000000
  0
LINE
  8
0
  6
CONTINUOUS
 10
90.439865
 20
35.171757
 11
90.439865
 21
18.498329
  0
ARC
  8
0
  6
CONTINUOUS
 10
92.439865
 20
18.498341
 40
2.000000
 50
90.000000
 51
180.000000
  0
LINE
  8
0
  6
DASHED
 10
144.689850
 20
20.498329
 11
144.689850
 21
10.498332
  0
LINE
  8
0
  6
DASHED
 10
136.189850
 20
20.498329
 11
136.189850
 21
10.498332
  0
LINE
  8
0
  6
DASHED
 10
104.689857
 20
20.498329
 11
104.689857
 21
10.498332
  0
LINE
  8
0
  6
DASHED
 10
96.189865
 20
20.498329
 11
96.189865
 21
10.498332
  0
LINE
  8
0
  6
CONTINUOUS
 10
20.439880
 20
113.121605
 11
150.439850
 21
113.121605
  0
LINE
  8
0
  6
CONTINUOUS
 10
20.439880
 20
27.874968
 11
90.439865
 21
27.874968
  0
LINE
  8
0
  6
CONTINUOUS
 10
155.439850
 20
62.998318
 11
155.439850
 21
107.998306
  0
LINE
  8
0
  6
CONTINUOUS
 10
154.439850
 20
108.998306
 11
150.439850
 21
108.998306
  0
LINE
  8
0
  6
CONTINUOUS
 10
154.439850
 20
61.998318
 11
150.439850
 21
61.998318
  0
ARC
  8
0
  6
CONTINUOUS
 10
154.439850
 20
107.998306
 40
1.000000
 50
0.000000
 51
90.000000
  0
ARC
  8
0
  6
CONTINUOUS
 10
154.439850
 20
62.998318
 40
1.000000
 50
-90.000000
 51
0.000000
  0
ARC
  8
0
  6
CONTINUOUS
 10
93.439865
 20
35.171776
 40
2.999999
 50
90.000000
 51
180.000000
  0
LINE
  8
0
  6
CONTINUOUS
 10
93.439865
 20
38.171753
 11
111.814857
 21
38.171753
  0
LINE
  8
0
  6
CONTINUOUS
 10
149.814850
 20
38.171753
 11
129.064850
 21
38.171753
  0
ARC
  8
0
  6
CONTINUOUS
 10
130.439850
 20
39.279743
 40
2.000000
 50
90.000000
 51
180.000000
  0
ARC
  8
0
  6
CONTINUOUS
 10
110.439857
 20
39.279716
 40
2.000000
 50
0.000000
 51
90.000000
  0
ARC
  8
0
  6
CONTINUOUS
 10
130.439850
 20
22.498329
 40
2.000000
 50
180.000000
 51
270.000000
  0
ARC
  8
0
  6
CONTINUOUS
 10
110.439857
 20
22.498329
 40
2.000000
 50
-90.000000
 51
0.000000
  0
LINE
  8
0
  6
CENTER
 10
312.959991
 20
0.748334
 11
312.959991
 21
169.300003
  0
LINE
  8
0
  6
CENTER
 10
246.960007
 20
70.498314
 11
376.459961
 21
70.498314
  0
LINE
  8
0
  6
CONTINUOUS
 10
352.959961
 20
10.498332
 11
377.959961
 21
10.498332
  0
LINE
  8
0
  6
CONTINUOUS
 10
377.959961
 20
18.498320
 11
377.959961
 21
10.498332
  0
LINE
  8
0
  6
CONTINUOUS
 10
351.959961
 20
11.498332
 11
312.959991
 21
11.498332
  0
LINE
  8
0
  6
CONTINUOUS
 10
359.959961
 20
20.498329
 11
375.959961
 21
20.498329
  0
LINE
  8
0
  6
CONTINUOUS
 10
344.459961
 20
120.983101
 11
344.459961
 21
113.121704
  0
LINE
  8
0
  6
CENTER
 10
367.959961
 20
24.998327
 11
367.959961
 21
4.248333
  0
LINE
  8
0
  6
DASHED
 10
372.209961
 20
20.498329
 11
372.209961
 21
10.498332
  0
LINE
  8
0
  6
DASHED
 10
363.709961
 20
20.498329
 11
363.709961
 21
10.498332
  0
LINE
  8
0
  6
CONTINUOUS
 10
342.494873
 20
122.982803
 11
312.959991
 21
123.498306
  0
ARC
  8
0
  6
CONTINUOUS
 10
342.459961
 20
120.983101
 40
2.000000
 50
0.000000
 51
89.000076
  0
LINE
  8
0
  6
CENTER
 10
282.130005
 20
85.498314
 11
344.230011
 21
85.498314
  0
LINE
  8
0
  6
CONTINUOUS
 10
272.959991
 20
10.498332
 11
247.959991
 21
10.498332
  0
LINE
  8
0
  6
CONTINUOUS
 10
247.959991
 20
18.498310
 11
247.959991
 21
10.498332
  0
LINE
  8
0
  6
CONTINUOUS
 10
273.959991
 20
11.498332
 11
312.959991
 21
11.498332
  0
LINE
  8
0
  6
CONTINUOUS
 10
265.959991
 20
20.498329
 11
249.959991
 21
20.498329
  0
LINE
  8
0
  6
CONTINUOUS
 10
281.459991
 20
120.983101
 11
281.459991
 21
113.121704
  0
LINE
  8
0
  6
CENTER
 10
257.959991
 20
24.998327
 11
257.959991
 21
4.248333
  0
LINE
  8
0
  6
DASHED
 10
253.709991
 20
20.498329
 11
253.709991
 21
10.498332
  0
LINE
  8
0
  6
DASHED
 10
262.209991
 20
20.498329
 11
262.209991
 21
10.498332
  0
LINE
  8
0
  6
CONTINUOUS
 10
283.425079
 20
122.982803
 11
312.959991
 21
123.498306
  0
ARC
  8
0
  6
CONTINUOUS
 10
283.459991
 20
120.983101
 40
2.000000
 50
90.999924
 51
180.000000
  0
ARC
  8
0
  6
CONTINUOUS
 10
312.959991
 20
70.498314
 40
52.999989
 50
126.465599
 51
217.584595
  0
ARC
  8
0
  6
CONTINUOUS
 10
312.959991
 20
70.498314
 40
52.999989
 50
53.534370
 51
53.534382
  0
ARC
  8
0
  6
CONTINUOUS
 10
312.959991
 20
70.498314
 40
52.999989
 50
-37.584629
 51
53.534382
  0
LINE
  8
0
  6
CONTINUOUS
 10
360.959961
 20
86.190712
 11
360.959961
 21
54.806282
  0
LINE
  8
0
  6
CONTINUOUS
 10
264.959991
 20
86.190514
 11
264.959991
 21
54.805801
  0
ARC
  8
0
  6
CONTINUOUS
 10
312.959991
 20
70.498314
 40
50.499989
 50
18.103800
 51
161.896194
  0
ARC
  8
0
  6
CONTINUOUS
 10
312.959991
 20
70.498314
 40
50.499989
 50
198.103806
 51
341.896210
  0
LINE
  8
0
  6
CONTINUOUS
 10
270.959991
 20
25.498327
 11
270.959991
 21
38.171864
  0
ARC
  8
0
  6
CONTINUOUS
 10
359.959961
 20
25.498327
 40
4.999999
 50
180.000000
 51
270.000000
  0
ARC
  8
0
  6
CONTINUOUS
 10
265.959991
 20
25.498318
 40
4.999999
 50
-90.000000
 51
0.000000
  0
LINE
  8
0
  6
CONTINUOUS
 10
354.959961
 20
25.498308
 11
354.959961
 21
38.171875
  0
CIRCLE
  8
0
  6
CONTINUOUS
 10
312.959991
 20
85.498314
 40
23.499994
  0
ARC
  8
0
  6
CONTINUOUS
 10
375.959961
 20
18.498320
 40
2.000000
 50
0.000000
 51
90.000000
  0
LINE
  8
0
  6
CONTINUOUS
 10
377.374176
 20
19.912539
 11
356.744385
 21
40.542145
  0
ARC
  8
0
  6
CONTINUOUS
 10
249.959991
 20
18.498320
 40
2.000000
 50
90.000000
 51
180.000000
  0
LINE
  8
0
  6
CONTINUOUS
 10
248.545792
 20
19.912539
 11
269.175598
 21
40.542145
  0
LINE
  8
0
  6
CONTINUOUS
 10
352.959961
 20
10.498332
 11
351.959961
 21
11.498332
  0
LINE
  8
0
  6
CONTINUOUS
 10
272.959991
 20
10.498332
 11
273.959991
 21
11.498332
  0
LINE
  8
0
  6
CONTINUOUS
 10
306.584991
 20
48.051544
 11
306.584991
 21
42.498325
  0
LINE
  8
0
  6
CONTINUOUS
 10
309.772491
 20
50.068623
 11
309.772491
 21
52.060822
  0
LINE
  8
0
  6
CONTINUOUS
 10
316.147491
 20
50.068623
 11
316.147491
 21
52.060822
  0
LINE
  8
0
  6
CONTINUOUS
 10
312.337372
 20
50.890411
 11
312.337372
 21
43.544224
  0
LINE
  8
0
  6
CONTINUOUS
 10
313.532776
 20
50.890411
 11
313.532776
 21
43.544224
  0
LINE
  8
0
  6
CONTINUOUS
 10
319.808075
 20
50.890411
 11
319.808075
 21
43.494415
  0
LINE
  8
0
  6
CONTINUOUS
 10
320.903778
 20
46.968292
 11
320.903778
 21
43.494415
  0
LINE
  8
0
  6
CONTINUOUS
 10
305.072479
 20
50.790802
 11
302.000580
 21
50.790802
  0
LINE
  8
0
  6
CONTINUOUS
 10
302.000580
 20
50.790802
 11
301.280792
 21
49.898300
  0
LINE
  8
0
  6
CONTINUOUS
 10
301.367401
 20
52.060822
 11
300.209991
 21
50.578823
  0
LINE
  8
0
  6
CONTINUOUS
 10
301.280792
 20
44.389233
 11
302.012085
 21
43.618935
  0
LINE
  8
0
  6
CONTINUOUS
 10
300.209991
 20
43.739162
 11
301.439789
 21
42.498325
  0
LINE
  8
0
  6
CONTINUOUS
 10
300.209991
 20
50.578823
 11
300.209991
 21
43.739162
  0
LINE
  8
0
  6
CONTINUOUS
 10
301.280792
 20
49.898300
 11
301.280792
 21
44.389233
  0
LINE
  8
0
  6
CONTINUOUS
 10
305.663574
 20
50.219360
 11
305.060394
 21
50.790802
  0
LINE
  8
0
  6
CONTINUOUS
 10
305.653992
 20
52.060822
 11
306.584991
 21
51.027683
  0
LINE
  8
0
  6
CONTINUOUS
 10
305.663574
 20
50.068623
 11
306.584991
 21
50.068623
  0
LINE
  8
0
  6
CONTINUOUS
 10
301.367401
 20
52.060822
 11
305.653992
 21
52.060822
  0
LINE
  8
0
  6
CONTINUOUS
 10
305.663574
 20
47.005642
 11
303.995178
 21
47.005642
  0
LINE
  8
0
  6
CONTINUOUS
 10
305.663574
 20
46.009552
 11
305.663574
 21
46.806435
  0
LINE
  8
0
  6
CONTINUOUS
 10
303.671387
 20
43.618935
 11
302.012085
 21
43.618935
  0
ARC
  8
0
  6
CONTINUOUS
 10
303.671387
 20
45.611111
 40
1.992186
 50
-89.999786
 51
0.000109
  0
LINE
  8
0
  6
CONTINUOUS
 10
305.663574
 20
43.260586
 11
305.663574
 21
42.498325
  0
LINE
  8
0
  6
CONTINUOUS
 10
306.584991
 20
51.027683
 11
306.584991
 21
50.068623
  0
LINE
  8
0
  6
CONTINUOUS
 10
305.663574
 20
47.005642
 11
305.663574
 21
45.611111
  0
LINE
  8
0
  6
CONTINUOUS
 10
303.995178
 20
48.051544
 11
303.995178
 21
47.005642
  0
LINE
  8
0
  6
CONTINUOUS
 10
305.663574
 20
42.498325
 11
306.584991
 21
42.498325
  0
LINE
  8
0
  6
CONTINUOUS
 10
305.663574
 20
43.260586
 11
304.754974
 21
42.498325
  0
LINE
  8
0
  6
CONTINUOUS
 10
313.532776
 20
43.544224
 11
313.931183
 21
43.544224
  0
LINE
  8
0
  6
CONTINUOUS
 10
311.864288
 20
43.544224
 11
311.864288
 21
42.498325
  0
LINE
  8
0
  6
CONTINUOUS
 10
313.931183
 20
43.544224
 11
313.931183
 21
42.498325
  0
LINE
  8
0
  6
CONTINUOUS
 10
315.482574
 20
50.068623
 11
316.147491
 21
50.068623
  0
LINE
  8
0
  6
CONTINUOUS
 10
309.772491
 20
50.068623
 11
310.480072
 21
50.068623
  0
LINE
  8
0
  6
CONTINUOUS
 10
309.772491
 20
52.060822
 11
316.147491
 21
52.060822
  0
LINE
  8
0
  6
CONTINUOUS
 10
311.864288
 20
42.498325
 11
313.931183
 21
42.498325
  0
LINE
  8
0
  6
CONTINUOUS
 10
311.864288
 20
43.544224
 11
312.337372
 21
43.544224
  0
ARC
  8
0
  6
CONTINUOUS
 10
323.157471
 20
49.508331
 40
2.552489
 50
-73.981873
 51
90.003510
  0
ARC
  8
0
  6
CONTINUOUS
 10
323.157471
 20
49.508331
 40
1.557193
 50
-82.585274
 51
62.411850
  0
LINE
  8
0
  6
CONTINUOUS
 10
319.334991
 20
52.060822
 11
323.157471
 21
52.060822
  0
LINE
  8
0
  6
CONTINUOUS
 10
319.334991
 20
52.060822
 11
319.334991
 21
50.890411
  0
LINE
  8
0
  6
CONTINUOUS
 10
320.903778
 20
50.890411
 11
320.903778
 21
47.964165
  0
LINE
  8
0
  6
CONTINUOUS
 10
323.861877
 20
47.054943
 11
325.441681
 21
43.494415
  0
LINE
  8
0
  6
CONTINUOUS
 10
322.944275
 20
46.968292
 11
324.439270
 21
43.494415
  0
LINE
  8
0
  6
CONTINUOUS
 10
319.334991
 20
43.494415
 11
319.808075
 21
43.494415
  0
LINE
  8
0
  6
CONTINUOUS
 10
320.903778
 20
43.494415
 11
321.339569
 21
43.494415
  0
LINE
  8
0
  6
CONTINUOUS
 10
321.339569
 20
42.498325
 11
319.334991
 21
42.498325
  0
LINE
  8
0
  6
CONTINUOUS
 10
324.240784
 20
43.494415
 11
324.439270
 21
43.494415
  0
LINE
  8
0
  6
CONTINUOUS
 10
325.441681
 20
43.494415
 11
325.709991
 21
43.494415
  0
LINE
  8
0
  6
CONTINUOUS
 10
324.240784
 20
42.498325
 11
325.709991
 21
42.498325
  0
LINE
  8
0
  6
CONTINUOUS
 10
325.709991
 20
43.494415
 11
325.709991
 21
42.498325
  0
LINE
  8
0
  6
CONTINUOUS
 10
324.240784
 20
43.494415
 11
324.240784
 21
42.498325
  0
LINE
  8
0
  6
CONTINUOUS
 10
321.339569
 20
43.494415
 11
321.339569
 21
42.498325
  0
LINE
  8
0
  6
CONTINUOUS
 10
319.334991
 20
43.494415
 11
319.334991
 21
42.498325
  0
LINE
  8
0
  6
CONTINUOUS
 10
310.822479
 20
50.890411
 11
310.480072
 21
50.068623
  0
LINE
  8
0
  6
CONTINUOUS
 10
315.193787
 20
50.890411
 11
315.482574
 21
50.068623
  0
LINE
  8
0
  6
CONTINUOUS
 10
313.532776
 20
50.890411
 11
315.193787
 21
50.890411
  0
LINE
  8
0
  6
CONTINUOUS
 10
312.337372
 20
50.890411
 11
310.822479
 21
50.890411
  0
LINE
  8
0
  6
CONTINUOUS
 10
319.334991
 20
50.890411
 11
319.808075
 21
50.890411
  0
LINE
  8
0
  6
CONTINUOUS
 10
320.903778
 20
50.890411
 11
323.878693
 21
50.888474
  0
LINE
  8
0
  6
CONTINUOUS
 10
305.663574
 20
50.219360
 11
305.663574
 21
50.068623
  0
LINE
  8
0
  6
CONTINUOUS
 10
301.439789
 20
42.498325
 11
304.754974
 21
42.498325
  0
LINE
  8
0
  6
CONTINUOUS
 10
320.903778
 20
47.964165
 11
323.358490
 21
47.964165
  0
LINE
  8
0
  6
CONTINUOUS
 10
320.903778
 20
46.968292
 11
322.944275
 21
46.968292
  0
LINE
  8
0
  6
CONTINUOUS
 10
303.995178
 20
48.051544
 11
306.584991
 21
48.051544
  0
LINE
  8
0
  6
CONTINUOUS
 10
187.439835
 20
76.498314
 11
187.439835
 21
94.498314
  0
LINE
  8
0
  6
CONTINUOUS
 10
157.439850
 20
94.498314
 11
187.439835
 21
94.498314
  0
LINE
  8
0
  6
CONTINUOUS
 10
157.439850
 20
76.498314
 11
187.439835
 21
76.498314
  0
LINE
  8
0
  6
CONTINUOUS
 10
157.439850
 20
95.498314
 11
157.439850
 21
75.498314
  0
LINE
  8
0
  6
CONTINUOUS
 10
155.439850
 20
95.498314
 11
157.439850
 21
95.498314
  0
LINE
  8
0
  6
CONTINUOUS
 10
155.439850
 20
75.498314
 11
157.439850
 21
75.498314
  0
ARC
  8
0
  6
CONTINUOUS
 10
163.439850
 20
85.498314
 40
2.999999
 50
90.000000
 51
270.000000
  0
LINE
  8
0
  6
CONTINUOUS
 10
163.439850
 20
88.498314
 11
187.439835
 21
88.498314
  0
LINE
  8
0
  6
CONTINUOUS
 10
163.439850
 20
82.498314
 11
187.439835
 21
82.498314
  0
LINE
  8
0
  6
CONTINUOUS
 10
307.459991
 20
88.498314
 11
307.459991
 21
82.498314
  0
LINE
  8
0
  6
CONTINUOUS
 10
301.459991
 20
88.498314
 11
301.459991
 21
82.498314
  0
LINE
  8
0
  6
CONTINUOUS
 10
301.459991
 20
88.498314
 11
307.459991
 21
88.498314
  0
LINE
  8
0
  6
CONTINUOUS
 10
301.459991
 20
82.498314
 11
307.459991
 21
82.498314
  0
ARC
  8
0
  6
CONTINUOUS
 10
312.959991
 20
85.498314
 40
8.999998
 50
-160.528793
 51
160.528793
  0
LINE
  8
0
  6
CENTER
 10
-11.000937
 20
270.596252
 11
193.095306
 21
270.596252
  0
LINE
  8
0
  6
CONTINUOUS
 10
20.439880
 20
323.596252
 11
150.439850
 21
323.596252
  0
LINE
  8
0
  6
CONTINUOUS
 10
20.439880
 20
217.596252
 11
150.439850
 21
217.596252
  0
LINE
  8
0
  6
CONTINUOUS
 10
150.439850
 20
208.596252
 11
150.439850
 21
332.596252
  0
LINE
  8
0
  6
CONTINUOUS
 10
147.439850
 20
335.596252
 11
93.439850
 21
335.596252
  0
LINE
  8
0
  6
CONTINUOUS
 10
93.439850
 20
205.596252
 11
147.439850
 21
205.596252
  0
LINE
  8
0
  6
CONTINUOUS
 10
90.439850
 20
332.596252
 11
90.439850
 21
323.596252
  0
LINE
  8
0
  6
CONTINUOUS
 10
90.439850
 20
208.596252
 11
90.439850
 21
217.596252
  0
ARC
  8
0
  6
CONTINUOUS
 10
93.439850
 20
332.596252
 40
3.000000
 50
90.000000
 51
180.000000
  0
ARC
  8
0
  6
CONTINUOUS
 10
147.439850
 20
332.596252
 40
3.000000
 50
0.000000
 51
90.000000
  0
ARC
  8
0
  6
CONTINUOUS
 10
147.439850
 20
208.596252
 40
3.000000
 50
-90.000000
 51
0.000000
  0
ARC
  8
0
  6
CONTINUOUS
 10
93.439850
 20
208.596252
 40
3.000000
 50
180.000000
 51
270.000000
  0
LINE
  8
0
  6
CONTINUOUS
 10
-0.060114
 20
270.596252
 11
-0.060114
 21
315.596252
  0
LINE
  8
0
  6
CONTINUOUS
 10
-0.060114
 20
270.596252
 11
-0.060114
 21
225.596268
  0
LINE
  8
0
  6
CONTINUOUS
 10
0.439886
 20
319.596252
 11
0.439886
 21
225.596268
  0
LINE
  8
0
  6
CONTINUOUS
 10
5.530075
 20
323.596222
 11
20.439880
 21
323.596222
  0
LINE
  8
0
  6
CONTINUOUS
 10
5.530075
 20
217.596268
 11
20.439880
 21
217.596268
  0
LINE
  8
0
  6
CONTINUOUS
 10
0.439886
 20
225.596268
 11
0.439886
 21
221.596268
  0
LINE
  8
0
  6
CONTINUOUS
 10
1.057886
 20
320.832336
 11
0.439886
 21
319.596252
  0
ARC
  8
0
  6
CONTINUOUS
 10
5.530075
 20
318.596252
 40
4.999999
 50
90.000000
 51
153.435196
  0
LINE
  8
0
  6
CONTINUOUS
 10
1.057886
 20
220.360199
 11
0.439886
 21
221.596268
  0
ARC
  8
0
  6
CONTINUOUS
 10
5.530075
 20
222.596268
 40
4.999999
 50
206.565002
 51
270.000000
  0
LINE
  8
0
  6
CONTINUOUS
 10
-0.060114
 20
225.596268
 11
0.439886
 21
225.096268
  0
LINE
  8
0
  6
CONTINUOUS
 10
-0.060114
 20
315.596252
 11
0.439886
 21
316.096252
  0
LINE
  8
0
  6
CONTINUOUS
 10
20.439880
 20
302.096252
 11
2.314885
 21
302.096252
  0
LINE
  8
0
  6
CONTINUOUS
 10
20.439880
 20
239.096252
 11
2.314885
 21
239.096252
  0
LINE
  8
0
  6
CONTINUOUS
 10
20.439880
 20
217.596268
 11
20.439880
 21
245.596237
  0
LINE
  8
0
  6
CONTINUOUS
 10
20.439880
 20
302.096252
 11
150.439850
 21
302.096252
  0
LINE
  8
0
  6
CONTINUOUS
 10
20.439880
 20
239.096252
 11
150.439850
 21
239.096252
  0
LINE
  8
0
  6
CONTINUOUS
 10
155.439850
 20
248.096252
 11
155.439850
 21
293.096252
  0
LINE
  8
0
  6
CONTINUOUS
 10
154.439850
 20
294.096252
 11
150.439850
 21
294.096252
  0
LINE
  8
0
  6
CONTINUOUS
 10
154.439850
 20
247.096252
 11
150.439850
 21
247.096252
  0
ARC
  8
0
  6
CONTINUOUS
 10
154.439850
 20
293.096252
 40
1.000000
 50
0.000000
 51
90.000000
  0
ARC
  8
0
  6
CONTINUOUS
 10
154.439850
 20
248.096252
 40
1.000000
 50
-90.000000
 51
0.000000
  0
LINE
  8
0
  6
CONTINUOUS
 10
187.439835
 20
259.096252
 11
187.439835
 21
279.596252
  0
LINE
  8
0
  6
CONTINUOUS
 10
157.439850
 20
279.596252
 11
187.439835
 21
279.596252
  0
LINE
  8
0
  6
CONTINUOUS
 10
157.439850
 20
261.596252
 11
160.439850
 21
261.596252
  0
LINE
  8
0
  6
CONTINUOUS
 10
157.439850
 20
280.596252
 11
157.439850
 21
260.596252
  0
LINE
  8
0
  6
CONTINUOUS
 10
155.439850
 20
280.596252
 11
157.439850
 21
280.596252
  0
LINE
  8
0
  6
CONTINUOUS
 10
155.439850
 20
260.596252
 11
157.439850
 21
260.596252
  0
LINE
  8
0
  6
CONTINUOUS
 10
128.439850
 20
217.596252
 11
128.439850
 21
207.458282
  0
LINE
  8
0
  6
CONTINUOUS
 10
112.439857
 20
217.596252
 11
112.439857
 21
207.458282
  0
LINE
  8
0
  6
CENTER
 10
140.439850
 20
223.835007
 11
140.439850
 21
206.845551
  0
LINE
  8
0
  6
CENTER
 10
100.439850
 20
224.614838
 11
100.439850
 21
207.124069
  0
LINE
  8
0
  6
CENTER
 10
92.384064
 20
215.596252
 11
109.206406
 21
215.596252
  0
LINE
  8
0
  6
CENTER
 10
132.490311
 20
215.596252
 11
148.811325
 21
215.596252
  0
ARC
  8
0
  6
CONTINUOUS
 10
140.439850
 20
215.596252
 40
4.250000
 50
-208.072495
 51
28.072487
  0
ARC
  8
0
  6
DASHED
 10
100.439850
 20
215.596252
 40
4.250000
 50
28.072487
 51
151.927505
  0
ARC
  8
0
  6
CONTINUOUS
 10
100.439850
 20
215.596252
 40
4.250000
 50
-208.072495
 51
28.072487
  0
ARC
  8
0
  6
DASHED
 10
140.439850
 20
215.596252
 40
4.250000
 50
28.072487
 51
151.927505
  0
LINE
  8
0
  6
CONTINUOUS
 10
160.439850
 20
262.111237
 11
160.439850
 21
259.096252
  0
LINE
  8
0
  6
CONTINUOUS
 10
160.439850
 20
259.096252
 11
187.439835
 21
259.096252
  0
LINE
  8
0
  6
CONTINUOUS
 10
160.439850
 20
262.111237
 11
187.439835
 21
262.111237
  0
LINE
  8
0
  6
CONTINUOUS
 10
20.439880
 20
295.596222
 11
20.439880
 21
323.596222
  0
LINE
  8
0
  6
CONTINUOUS
 10
128.439850
 20
323.596252
 11
128.439850
 21
333.734222
  0
LINE
  8
0
  6
CONTINUOUS
 10
112.439857
 20
323.596252
 11
112.439857
 21
333.734222
  0
LINE
  8
0
  6
CENTER
 10
140.439850
 20
317.357513
 11
140.439850
 21
334.346954
  0
LINE
  8
0
  6
CENTER
 10
100.439850
 20
316.577667
 11
100.439850
 21
334.068451
  0
LINE
  8
0
  6
CENTER
 10
92.384064
 20
325.596252
 11
109.206406
 21
325.596252
  0
LINE
  8
0
  6
CENTER
 10
132.490311
 20
325.596252
 11
148.811325
 21
325.596252
  0
ARC
  8
0
  6
CONTINUOUS
 10
140.439850
 20
325.596252
 40
4.250000
 50
-28.072487
 51
208.072495
  0
ARC
  8
0
  6
DASHED
 10
100.439850
 20
325.596252
 40
4.250000
 50
-151.927505
 51
-28.072487
  0
ARC
  8
0
  6
CONTINUOUS
 10
100.439850
 20
325.596252
 40
4.250000
 50
-28.072487
 51
208.072495
  0
ARC
  8
0
  6
DASHED
 10
140.439850
 20
325.596252
 40
4.250000
 50
-151.927505
 51
-28.072487
  0
LINE
  8
0
  6
CONTINUOUS
 10
12.939881
 20
124.998314
 11
59.439880
 21
124.998314
  0
LINE
  8
0
  6
CONTINUOUS
 10
61.439873
 20
154.998322
 11
61.439880
 21
126.998314
  0
LINE
  8
0
  6
CONTINUOUS
 10
11.439881
 20
154.998322
 11
11.439881
 21
126.998314
  0
LINE
  8
0
  6
CONTINUOUS
 10
9.439881
 20
136.998322
 11
61.439880
 21
136.998322
  0
LINE
  8
0
  6
CONTINUOUS
 10
59.439880
 20
124.998314
 11
61.439880
 21
126.998314
  0
LINE
  8
0
  6
CONTINUOUS
 10
11.439881
 20
126.998314
 11
13.439881
 21
124.998314
  0
LINE
  8
0
  6
CONTINUOUS
 10
11.439881
 20
126.998314
 11
61.439880
 21
126.998314
  0
LINE
  8
0
  6
CONTINUOUS
 10
12.439881
 20
155.998322
 11
60.439873
 21
155.998322
  0
LINE
  8
0
  6
CONTINUOUS
 10
60.439873
 20
155.998322
 11
61.439873
 21
154.998322
  0
LINE
  8
0
  6
CONTINUOUS
 10
12.439881
 20
155.998322
 11
11.439881
 21
154.998322
  0
LINE
  8
0
  6
CONTINUOUS
 10
11.439881
 20
154.998322
 11
61.439873
 21
154.998322
  0
LINE
  8
0
  6
CENTER
 10
3.496125
 20
146.498322
 11
15.571131
 21
146.498322
  0
LINE
  8
0
  6
CONTINUOUS
 10
9.439896
 20
152.998322
 11
9.439881
 21
136.998322
  0
LINE
  8
0
  6
CONTINUOUS
 10
10.439881
 20
153.998322
 11
11.439881
 21
153.998322
  0
ARC
  8
0
  6
CONTINUOUS
 10
10.439901
 20
152.998322
 40
1.000000
 50
90.000000
 51
180.000000
  0
LINE
  8
0
  6
CONTINUOUS
 10
5.939896
 20
150.498322
 11
5.939896
 21
142.498322
  0
LINE
  8
0
  6
CONTINUOUS
 10
5.939896
 20
150.498322
 11
9.439896
 21
151.998322
  0
LINE
  8
0
  6
CONTINUOUS
 10
5.939881
 20
142.498322
 11
9.439881
 21
140.998322
  0
LINE
  8
0
  6
CENTER
 10
36.439880
 20
117.168945
 11
36.439880
 21
164.756439
  0
LINE
  8
0
  6
CONTINUOUS
 10
12.939881
 20
124.998314
 11
12.939881
 21
123.498314
  0
LINE
  8
0
  6
CONTINUOUS
 10
58.939880
 20
124.998314
 11
58.939880
 21
123.498314
  0
LINE
  8
0
  6
CONTINUOUS
 10
289.959991
 20
124.998314
 11
335.959991
 21
124.998314
  0
LINE
  8
0
  6
CONTINUOUS
 10
337.959991
 20
154.998306
 11
337.959991
 21
126.998314
  0
LINE
  8
0
  6
CONTINUOUS
 10
287.959991
 20
154.998306
 11
287.959991
 21
126.998314
  0
LINE
  8
0
  6
CONTINUOUS
 10
287.959991
 20
136.998306
 11
337.959991
 21
136.998306
  0
LINE
  8
0
  6
CONTINUOUS
 10
335.959991
 20
124.998314
 11
337.959991
 21
126.998314
  0
LINE
  8
0
  6
CONTINUOUS
 10
287.959991
 20
126.998314
 11
289.959991
 21
124.998314
  0
LINE
  8
0
  6
CONTINUOUS
 10
287.959991
 20
126.998314
 11
337.959991
 21
126.998314
  0
LINE
  8
0
  6
CONTINUOUS
 10
288.959991
 20
155.998306
 11
336.959991
 21
155.998306
  0
LINE
  8
0
  6
CONTINUOUS
 10
336.959991
 20
155.998306
 11
337.959991
 21
154.998306
  0
LINE
  8
0
  6
CONTINUOUS
 10
288.959991
 20
155.998306
 11
287.959991
 21
154.998306
  0
LINE
  8
0
  6
CONTINUOUS
 10
287.959991
 20
154.998306
 11
337.959991
 21
154.998306
  0
LINE
  8
0
  6
CONTINUOUS
 10
335.459991
 20
124.998314
 11
335.459991
 21
123.105576
  0
LINE
  8
0
  6
CONTINUOUS
 10
290.459991
 20
124.998314
 11
290.459991
 21
123.105583
  0
LINE
  8
0
  6
CONTINUOUS
 10
10.439881
 20
278.096222
 11
11.439881
 21
278.096222
  0
ARC
  8
0
  6
CONTINUOUS
 10
10.439901
 20
277.096222
 40
1.000000
 50
90.000000
 51
180.000000
  0
LINE
  8
0
  6
CONTINUOUS
 10
5.939896
 20
274.596222
 11
5.939896
 21
266.596222
  0
LINE
  8
0
  6
CONTINUOUS
 10
5.939896
 20
274.596222
 11
9.439896
 21
276.096222
  0
LINE
  8
0
  6
CONTINUOUS
 10
5.939881
 20
266.596222
 11
9.439881
 21
265.096222
  0
LINE
  8
0
  6
CONTINUOUS
 10
9.439896
 20
277.096222
 11
9.439896
 21
264.096222
  0
LINE
  8
0
  6
CONTINUOUS
 10
10.439881
 20
263.096222
 11
11.439881
 21
263.096222
  0
ARC
  8
0
  6
CONTINUOUS
 10
10.439901
 20
264.096222
 40
1.000000
 50
-180.000000
 51
-90.000000
  0
LINE
  8
0
  6
CONTINUOUS
 10
11.439881
 20
247.596237
 11
11.439881
 21
293.596222
  0
LINE
  8
0
  6
CONTINUOUS
 10
13.439881
 20
295.596222
 11
11.439881
 21
293.596222
  0
LINE
  8
0
  6
CONTINUOUS
 10
13.439881
 20
295.596222
 11
59.439873
 21
295.596222
  0
LINE
  8
0
  6
CONTINUOUS
 10
53.939880
 20
291.096222
 11
53.939880
 21
295.596222
  0
ARC
  8
0
  6
CONTINUOUS
 10
56.939880
 20
291.096222
 40
3.000000
 50
180.000000
 51
270.000000
  0
LINE
  8
0
  6
CONTINUOUS
 10
56.939880
 20
288.096222
 11
61.439873
 21
288.096222
  0
CIRCLE
  8
0
  6
CONTINUOUS
 10
57.939880
 20
292.096222
 40
2.250000
  0
LINE
  8
0
  6
CONTINUOUS
 10
61.439877
 20
247.596237
 11
61.439873
 21
293.596222
  0
LINE
  8
0
  6
CONTINUOUS
 10
59.439873
 20
295.596222
 11
61.439873
 21
293.596222
  0
LINE
  8
0
  6
CONTINUOUS
 10
59.439877
 20
245.596237
 11
61.439877
 21
247.596237
  0
LINE
  8
0
  6
CONTINUOUS
 10
59.439877
 20
245.596237
 11
13.439881
 21
245.596237
  0
LINE
  8
0
  6
CONTINUOUS
 10
11.439881
 20
247.596237
 11
13.439881
 21
245.596237
  0
LINE
  8
0
  6
CONTINUOUS
 10
15.939881
 20
253.096237
 11
11.439891
 21
253.096237
  0
CIRCLE
  8
0
  6
CONTINUOUS
 10
14.939881
 20
249.096237
 40
2.250000
  0
ARC
  8
0
  6
CONTINUOUS
 10
15.939881
 20
250.096237
 40
3.000000
 50
0.000000
 51
90.000000
  0
LINE
  8
0
  6
CONTINUOUS
 10
18.939880
 20
250.096237
 11
18.939880
 21
245.596237
  0
LINE
  8
0
  6
CENTER
 10
36.439880
 20
238.130447
 11
36.439880
 21
302.262482
  0
LINE
  8
0
  6
CONTINUOUS
 10
13.854100
 20
294.596252
 11
12.439887
 21
293.182037
  0
LINE
  8
0
  6
CONTINUOUS
 10
12.439887
 20
253.096252
 11
12.439887
 21
293.182037
  0
LINE
  8
0
  6
CONTINUOUS
 10
53.939880
 20
294.596252
 11
13.854100
 21
294.596252
  0
LINE
  8
0
  6
CONTINUOUS
 10
60.439877
 20
288.096252
 11
60.439877
 21
248.010468
  0
LINE
  8
0
  6
CONTINUOUS
 10
18.939880
 20
246.596252
 11
59.025661
 21
246.596252
  0
LINE
  8
0
  6
CONTINUOUS
 10
59.025661
 20
246.596252
 11
60.439877
 21
248.010468
  0
TEXT
  8
0
 10
-11.000000
 20
0.000000
 40
4.000000
 41
1.000000
  1
GLM-18-160~240-T40WT
 50
0.000000
  0
ENDSEC
  0
EOF
