  0
SECTION
  2
HEADER
  9
$CLAYER
  8
1
  9
$LTSCALE
 40
3.0
  0
ENDSEC
  0
SECTION
  2
TABLES
  0
TABLE
  2
LTYPE
 70
     4
  0
LTYPE
  2
CONTINUOUS
  3
solid line
 70
    64
 72
    65
 73
     0
 40
0.0
  0
LTYPE
  2
DASHED
  3
__ __ __ __ __ __ __ __ __ __ __ __ __ __ __
 70
    64
 72
    65
 73
     2
 40
0.75
 49
0.5
 49
-0.25
  0
LTYPE
  2
CENTER
  3
____ _ ____ _ ____ _ ____ _ ____ _ ____ _ ____
 70
    64
 72
    65
 73
     4
 40
2.0
 49
1.25
 49
-0.25
 49
0.25
 49
-0.25
  0
LTYPE
  2
PHANTOM
  3
_____ _ _ _____ _ _ _____ _ _ _____ _ _ ____
 70
    64
 72
    65
 73
     6
 40
2.5
 49
1.25
 49
-0.25
 49
0.25
 49
-0.25
 49
0.25
 49
-0.25
  0
ENDTAB
  0
TABLE
  2
LAYER
 70
     1
  0
LAYER
  2
0
 70
    64
 62
     7
  6
CONTINUOUS
  0
ENDTAB
  0
TABLE
  2
STYLE
 70
     1
  0
STYLE
  2
STANDARD
 70
     0
 40
0.000000
 41
1.000000
 50
0.000000
 71
     0
 42
3.000000
  3
txt
  4
BIGFONT
  0
ENDTAB
  0
ENDSEC
  0
SECTION
  2
BLOCKS
  0
ENDSEC
  0
SECTION
  2
ENTITIES
  0
LINE
  8
0
  6
CONTINUOUS
 10
3.112386
 20
62.038319
 11
3.112386
 21
107.038307
  0
LINE
  8
0
  6
CONTINUOUS
 10
3.112386
 20
62.038319
 11
3.112386
 21
17.038328
  0
LINE
  8
0
  6
CONTINUOUS
 10
3.612386
 20
111.038307
 11
3.612386
 21
17.038328
  0
LINE
  8
0
  6
CONTINUOUS
 10
8.702575
 20
115.038307
 11
23.612381
 21
115.038307
  0
LINE
  8
0
  6
CONTINUOUS
 10
8.702575
 20
9.038330
 11
23.612381
 21
9.038330
  0
LINE
  8
0
  6
CONTINUOUS
 10
3.612386
 20
17.038328
 11
3.612386
 21
13.038329
  0
LINE
  8
0
  6
CONTINUOUS
 10
4.230386
 20
112.274406
 11
3.612386
 21
111.038307
  0
ARC
  8
0
  6
CONTINUOUS
 10
8.702575
 20
110.038307
 40
4.999999
 50
90.000000
 51
153.435196
  0
LINE
  8
0
  6
CONTINUOUS
 10
4.230386
 20
11.802259
 11
3.612386
 21
13.038329
  0
ARC
  8
0
  6
CONTINUOUS
 10
8.702575
 20
14.038329
 40
4.999999
 50
206.565002
 51
270.000000
  0
LINE
  8
0
  6
CONTINUOUS
 10
3.112386
 20
17.038328
 11
3.612386
 21
16.538328
  0
LINE
  8
0
  6
CONTINUOUS
 10
3.112386
 20
107.038307
 11
3.612386
 21
107.538307
  0
LINE
  8
0
  6
CONTINUOUS
 10
23.612381
 20
104.661606
 11
5.487385
 21
104.661606
  0
LINE
  8
0
  6
CONTINUOUS
 10
23.612381
 20
19.414978
 11
5.487385
 21
19.414978
  0
LINE
  8
0
  6
CONTINUOUS
 10
24.112381
 20
116.538300
 11
24.112381
 21
115.038307
  0
LINE
  8
0
  6
CONTINUOUS
 10
17.112383
 20
116.538300
 11
17.112383
 21
115.038307
  0
LINE
  8
0
  6
CONTINUOUS
 10
17.112383
 20
116.538300
 11
24.112381
 21
116.538300
  0
LINE
  8
0
  6
CONTINUOUS
 10
21.512371
 20
129.538300
 11
21.512371
 21
116.538300
  0
LINE
  8
0
  6
CONTINUOUS
 10
19.712381
 20
130.163300
 11
19.712381
 21
116.538300
  0
LINE
  8
0
  6
CONTINUOUS
 10
17.912382
 20
128.100800
 11
17.912382
 21
116.538300
  0
LINE
  8
0
  6
CONTINUOUS
 10
23.312382
 20
128.913300
 11
23.312382
 21
116.538300
  0
LINE
  8
0
  6
CONTINUOUS
 10
19.712381
 20
130.163300
 11
21.512371
 21
129.538300
  0
LINE
  8
0
  6
CONTINUOUS
 10
17.912382
 20
128.100800
 11
19.712381
 21
128.725800
  0
LINE
  8
0
  6
CONTINUOUS
 10
23.312382
 20
128.913300
 11
21.513371
 21
128.465607
  0
LINE
  8
0
  6
CONTINUOUS
 10
23.612381
 20
9.038330
 11
23.612381
 21
115.038307
  0
LINE
  8
0
  6
CENTER
 10
-7.153281
 20
62.038319
 11
166.362350
 21
62.038319
  0
LINE
  8
0
  6
CONTINUOUS
 10
153.612350
 20
10.038330
 11
153.612350
 21
2.038332
  0
LINE
  8
0
  6
CONTINUOUS
 10
93.612366
 20
10.038330
 11
93.612366
 21
2.038332
  0
LINE
  8
0
  6
CENTER
 10
103.612358
 20
15.913328
 11
103.612358
 21
-3.211667
  0
LINE
  8
0
  6
CENTER
 10
143.612350
 20
16.288328
 11
143.612350
 21
-2.461667
  0
LINE
  8
0
  6
CENTER
 10
129.549149
 20
77.038315
 11
199.612335
 21
77.038315
  0
LINE
  8
0
  6
CONTINUOUS
 10
93.612366
 20
2.038332
 11
153.612350
 21
2.038332
  0
LINE
  8
0
  6
CONTINUOUS
 10
23.612381
 20
115.038307
 11
153.612350
 21
115.038307
  0
LINE
  8
0
  6
CONTINUOUS
 10
23.612381
 20
9.038330
 11
93.612366
 21
9.038330
  0
LINE
  8
0
  6
CONTINUOUS
 10
131.612350
 20
30.819735
 11
131.612350
 21
14.038318
  0
LINE
  8
0
  6
CONTINUOUS
 10
115.612358
 20
30.819715
 11
115.612358
 21
14.038329
  0
LINE
  8
0
  6
CONTINUOUS
 10
95.612366
 20
12.038329
 11
151.612350
 21
12.038329
  0
LINE
  8
0
  6
CONTINUOUS
 10
153.612350
 20
10.038330
 11
153.612350
 21
115.038307
  0
ARC
  8
0
  6
CONTINUOUS
 10
151.612350
 20
10.038319
 40
2.000000
 50
0.000000
 51
90.000000
  0
LINE
  8
0
  6
CONTINUOUS
 10
93.612366
 20
26.711756
 11
93.612366
 21
10.038330
  0
ARC
  8
0
  6
CONTINUOUS
 10
95.612366
 20
10.038341
 40
2.000000
 50
90.000000
 51
180.000000
  0
LINE
  8
0
  6
DASHED
 10
147.862350
 20
12.038329
 11
147.862350
 21
2.038332
  0
LINE
  8
0
  6
DASHED
 10
139.362350
 20
12.038329
 11
139.362350
 21
2.038332
  0
LINE
  8
0
  6
DASHED
 10
107.862358
 20
12.038329
 11
107.862358
 21
2.038332
  0
LINE
  8
0
  6
DASHED
 10
99.362366
 20
12.038329
 11
99.362366
 21
2.038332
  0
LINE
  8
0
  6
CONTINUOUS
 10
23.612381
 20
104.661606
 11
153.612350
 21
104.661606
  0
LINE
  8
0
  6
CONTINUOUS
 10
23.612381
 20
19.414968
 11
93.612366
 21
19.414968
  0
LINE
  8
0
  6
CONTINUOUS
 10
158.612350
 20
54.538319
 11
158.612350
 21
99.538307
  0
LINE
  8
0
  6
CONTINUOUS
 10
157.612350
 20
100.538307
 11
153.612350
 21
100.538307
  0
LINE
  8
0
  6
CONTINUOUS
 10
157.612350
 20
53.538319
 11
153.612350
 21
53.538319
  0
ARC
  8
0
  6
CONTINUOUS
 10
157.612350
 20
99.538307
 40
1.000000
 50
0.000000
 51
90.000000
  0
ARC
  8
0
  6
CONTINUOUS
 10
157.612350
 20
54.538319
 40
1.000000
 50
-90.000000
 51
0.000000
  0
ARC
  8
0
  6
CONTINUOUS
 10
96.612366
 20
26.711777
 40
2.999999
 50
90.000000
 51
180.000000
  0
LINE
  8
0
  6
CONTINUOUS
 10
96.612366
 20
29.711754
 11
114.987358
 21
29.711754
  0
LINE
  8
0
  6
CONTINUOUS
 10
152.987350
 20
29.711754
 11
132.237350
 21
29.711754
  0
ARC
  8
0
  6
CONTINUOUS
 10
133.612350
 20
30.819744
 40
2.000000
 50
90.000000
 51
180.000000
  0
ARC
  8
0
  6
CONTINUOUS
 10
113.612358
 20
30.819715
 40
2.000000
 50
0.000000
 51
90.000000
  0
ARC
  8
0
  6
CONTINUOUS
 10
133.612350
 20
14.038329
 40
2.000000
 50
180.000000
 51
270.000000
  0
ARC
  8
0
  6
CONTINUOUS
 10
113.612358
 20
14.038329
 40
2.000000
 50
-90.000000
 51
0.000000
  0
LINE
  8
0
  6
CENTER
 10
303.265289
 20
-7.711666
 11
303.265289
 21
127.724998
  0
LINE
  8
0
  6
CENTER
 10
243.277496
 20
62.038319
 11
366.765289
 21
62.038319
  0
LINE
  8
0
  6
CONTINUOUS
 10
343.265289
 20
2.038332
 11
368.265289
 21
2.038332
  0
LINE
  8
0
  6
CONTINUOUS
 10
368.265289
 20
10.038319
 11
368.265289
 21
2.038332
  0
LINE
  8
0
  6
CONTINUOUS
 10
342.265289
 20
3.038332
 11
303.265289
 21
3.038332
  0
LINE
  8
0
  6
CONTINUOUS
 10
350.265289
 20
12.038329
 11
366.265289
 21
12.038329
  0
LINE
  8
0
  6
CONTINUOUS
 10
334.765289
 20
112.523102
 11
334.765289
 21
104.661705
  0
LINE
  8
0
  6
CENTER
 10
358.265289
 20
16.538328
 11
358.265289
 21
-4.211667
  0
LINE
  8
0
  6
DASHED
 10
362.515289
 20
12.038329
 11
362.515289
 21
2.038332
  0
LINE
  8
0
  6
DASHED
 10
354.015289
 20
12.038329
 11
354.015289
 21
2.038332
  0
LINE
  8
0
  6
CONTINUOUS
 10
332.800201
 20
114.522804
 11
303.265289
 21
115.038307
  0
ARC
  8
0
  6
CONTINUOUS
 10
332.765289
 20
112.523102
 40
2.000000
 50
0.000000
 51
89.000076
  0
LINE
  8
0
  6
CENTER
 10
273.112488
 20
77.038315
 11
334.274994
 21
77.038315
  0
LINE
  8
0
  6
CONTINUOUS
 10
263.265320
 20
2.038332
 11
238.265305
 21
2.038332
  0
LINE
  8
0
  6
CONTINUOUS
 10
238.265305
 20
10.038310
 11
238.265305
 21
2.038332
  0
LINE
  8
0
  6
CONTINUOUS
 10
264.265320
 20
3.038332
 11
303.265289
 21
3.038332
  0
LINE
  8
0
  6
CONTINUOUS
 10
256.265320
 20
12.038329
 11
240.265305
 21
12.038329
  0
LINE
  8
0
  6
CONTINUOUS
 10
271.765289
 20
112.523102
 11
271.765289
 21
104.661705
  0
LINE
  8
0
  6
CENTER
 10
248.265305
 20
16.538328
 11
248.265305
 21
-4.211667
  0
LINE
  8
0
  6
DASHED
 10
244.015305
 20
12.038329
 11
244.015305
 21
2.038332
  0
LINE
  8
0
  6
DASHED
 10
252.515305
 20
12.038329
 11
252.515305
 21
2.038332
  0
LINE
  8
0
  6
CONTINUOUS
 10
273.730408
 20
114.522804
 11
303.265289
 21
115.038307
  0
ARC
  8
0
  6
CONTINUOUS
 10
273.765289
 20
112.523102
 40
2.000000
 50
90.999924
 51
180.000000
  0
ARC
  8
0
  6
CONTINUOUS
 10
303.265289
 20
62.038319
 40
52.999989
 50
126.465599
 51
217.584595
  0
ARC
  8
0
  6
CONTINUOUS
 10
303.265289
 20
62.038319
 40
52.999989
 50
53.534370
 51
53.534382
  0
ARC
  8
0
  6
CONTINUOUS
 10
303.265289
 20
62.038319
 40
52.999989
 50
-37.584629
 51
53.534382
  0
LINE
  8
0
  6
CONTINUOUS
 10
351.265289
 20
77.730713
 11
351.265289
 21
46.346279
  0
LINE
  8
0
  6
CONTINUOUS
 10
255.265305
 20
77.730515
 11
255.265305
 21
46.345802
  0
ARC
  8
0
  6
CONTINUOUS
 10
303.265289
 20
62.038319
 40
50.499989
 50
18.103800
 51
161.896194
  0
ARC
  8
0
  6
CONTINUOUS
 10
303.265289
 20
62.038319
 40
50.499989
 50
198.103806
 51
341.896210
  0
LINE
  8
0
  6
CONTINUOUS
 10
261.265320
 20
17.038328
 11
261.265320
 21
29.711864
  0
ARC
  8
0
  6
CONTINUOUS
 10
350.265289
 20
17.038328
 40
4.999999
 50
180.000000
 51
270.000000
  0
ARC
  8
0
  6
CONTINUOUS
 10
256.265320
 20
17.038319
 40
4.999999
 50
-90.000000
 51
0.000000
  0
LINE
  8
0
  6
CONTINUOUS
 10
345.265289
 20
17.038307
 11
345.265289
 21
29.711876
  0
CIRCLE
  8
0
  6
CONTINUOUS
 10
303.265289
 20
77.038315
 40
23.499994
  0
ARC
  8
0
  6
CONTINUOUS
 10
366.265289
 20
10.038319
 40
2.000000
 50
0.000000
 51
90.000000
  0
LINE
  8
0
  6
CONTINUOUS
 10
367.679474
 20
11.452539
 11
347.049683
 21
32.082146
  0
ARC
  8
0
  6
CONTINUOUS
 10
240.265305
 20
10.038319
 40
2.000000
 50
90.000000
 51
180.000000
  0
LINE
  8
0
  6
CONTINUOUS
 10
238.851105
 20
11.452539
 11
259.480896
 21
32.082146
  0
LINE
  8
0
  6
CONTINUOUS
 10
343.265289
 20
2.038332
 11
342.265289
 21
3.038332
  0
LINE
  8
0
  6
CONTINUOUS
 10
263.265320
 20
2.038332
 11
264.265320
 21
3.038332
  0
LINE
  8
0
  6
CONTINUOUS
 10
296.890289
 20
39.591541
 11
296.890289
 21
34.038322
  0
LINE
  8
0
  6
CONTINUOUS
 10
300.077789
 20
41.608624
 11
300.077789
 21
43.600822
  0
LINE
  8
0
  6
CONTINUOUS
 10
306.452789
 20
41.608624
 11
306.452789
 21
43.600822
  0
LINE
  8
0
  6
CONTINUOUS
 10
302.642700
 20
42.430412
 11
302.642700
 21
35.084225
  0
LINE
  8
0
  6
CONTINUOUS
 10
303.838104
 20
42.430412
 11
303.838104
 21
35.084225
  0
LINE
  8
0
  6
CONTINUOUS
 10
310.113403
 20
42.430412
 11
310.113403
 21
35.034412
  0
LINE
  8
0
  6
CONTINUOUS
 10
311.209106
 20
38.508293
 11
311.209106
 21
35.034412
  0
LINE
  8
0
  6
CONTINUOUS
 10
295.377808
 20
42.330803
 11
292.305908
 21
42.330803
  0
LINE
  8
0
  6
CONTINUOUS
 10
292.305908
 20
42.330803
 11
291.586090
 21
41.438301
  0
LINE
  8
0
  6
CONTINUOUS
 10
291.672699
 20
43.600822
 11
290.515289
 21
42.118820
  0
LINE
  8
0
  6
CONTINUOUS
 10
291.586090
 20
35.929234
 11
292.317413
 21
35.158936
  0
LINE
  8
0
  6
CONTINUOUS
 10
290.515289
 20
35.279163
 11
291.745087
 21
34.038322
  0
LINE
  8
0
  6
CONTINUOUS
 10
290.515289
 20
42.118820
 11
290.515289
 21
35.279163
  0
LINE
  8
0
  6
CONTINUOUS
 10
291.586090
 20
41.438301
 11
291.586090
 21
35.929234
  0
LINE
  8
0
  6
CONTINUOUS
 10
295.968903
 20
41.759361
 11
295.365692
 21
42.330803
  0
LINE
  8
0
  6
CONTINUOUS
 10
295.959290
 20
43.600822
 11
296.890289
 21
42.567680
  0
LINE
  8
0
  6
CONTINUOUS
 10
295.968903
 20
41.608624
 11
296.890289
 21
41.608624
  0
LINE
  8
0
  6
CONTINUOUS
 10
291.672699
 20
43.600822
 11
295.959290
 21
43.600822
  0
LINE
  8
0
  6
CONTINUOUS
 10
295.968903
 20
38.545643
 11
294.300507
 21
38.545643
  0
LINE
  8
0
  6
CONTINUOUS
 10
295.968903
 20
37.549553
 11
295.968903
 21
38.346436
  0
LINE
  8
0
  6
CONTINUOUS
 10
293.976685
 20
35.158936
 11
292.317413
 21
35.158936
  0
ARC
  8
0
  6
CONTINUOUS
 10
293.976685
 20
37.151112
 40
1.992186
 50
-89.999786
 51
0.000109
  0
LINE
  8
0
  6
CONTINUOUS
 10
295.968903
 20
34.800583
 11
295.968903
 21
34.038322
  0
LINE
  8
0
  6
CONTINUOUS
 10
296.890289
 20
42.567680
 11
296.890289
 21
41.608624
  0
LINE
  8
0
  6
CONTINUOUS
 10
295.968903
 20
38.545643
 11
295.968903
 21
37.151112
  0
LINE
  8
0
  6
CONTINUOUS
 10
294.300507
 20
39.591541
 11
294.300507
 21
38.545643
  0
LINE
  8
0
  6
CONTINUOUS
 10
295.968903
 20
34.038322
 11
296.890289
 21
34.038322
  0
LINE
  8
0
  6
CONTINUOUS
 10
295.968903
 20
34.800583
 11
295.060303
 21
34.038322
  0
LINE
  8
0
  6
CONTINUOUS
 10
303.838104
 20
35.084225
 11
304.236511
 21
35.084225
  0
LINE
  8
0
  6
CONTINUOUS
 10
302.169586
 20
35.084225
 11
302.169586
 21
34.038322
  0
LINE
  8
0
  6
CONTINUOUS
 10
304.236511
 20
35.084225
 11
304.236511
 21
34.038322
  0
LINE
  8
0
  6
CONTINUOUS
 10
305.787903
 20
41.608624
 11
306.452789
 21
41.608624
  0
LINE
  8
0
  6
CONTINUOUS
 10
300.077789
 20
41.608624
 11
300.785400
 21
41.608624
  0
LINE
  8
0
  6
CONTINUOUS
 10
300.077789
 20
43.600822
 11
306.452789
 21
43.600822
  0
LINE
  8
0
  6
CONTINUOUS
 10
302.169586
 20
34.038322
 11
304.236511
 21
34.038322
  0
LINE
  8
0
  6
CONTINUOUS
 10
302.169586
 20
35.084225
 11
302.642700
 21
35.084225
  0
ARC
  8
0
  6
CONTINUOUS
 10
313.462799
 20
41.048332
 40
2.552489
 50
-73.981873
 51
90.003510
  0
ARC
  8
0
  6
CONTINUOUS
 10
313.462799
 20
41.048332
 40
1.557193
 50
-82.585274
 51
62.411850
  0
LINE
  8
0
  6
CONTINUOUS
 10
309.640289
 20
43.600822
 11
313.462799
 21
43.600822
  0
LINE
  8
0
  6
CONTINUOUS
 10
309.640289
 20
43.600822
 11
309.640289
 21
42.430412
  0
LINE
  8
0
  6
CONTINUOUS
 10
311.209106
 20
42.430412
 11
311.209106
 21
39.504162
  0
LINE
  8
0
  6
CONTINUOUS
 10
314.167206
 20
38.594944
 11
315.746979
 21
35.034412
  0
LINE
  8
0
  6
CONTINUOUS
 10
313.249603
 20
38.508293
 11
314.744598
 21
35.034412
  0
LINE
  8
0
  6
CONTINUOUS
 10
309.640289
 20
35.034412
 11
310.113403
 21
35.034412
  0
LINE
  8
0
  6
CONTINUOUS
 10
311.209106
 20
35.034412
 11
311.644897
 21
35.034412
  0
LINE
  8
0
  6
CONTINUOUS
 10
311.644897
 20
34.038322
 11
309.640289
 21
34.038322
  0
LINE
  8
0
  6
CONTINUOUS
 10
314.546082
 20
35.034412
 11
314.744598
 21
35.034412
  0
LINE
  8
0
  6
CONTINUOUS
 10
315.746979
 20
35.034412
 11
316.015289
 21
35.034412
  0
LINE
  8
0
  6
CONTINUOUS
 10
314.546082
 20
34.038322
 11
316.015289
 21
34.038322
  0
LINE
  8
0
  6
CONTINUOUS
 10
316.015289
 20
35.034412
 11
316.015289
 21
34.038322
  0
LINE
  8
0
  6
CONTINUOUS
 10
314.546082
 20
35.034412
 11
314.546082
 21
34.038322
  0
LINE
  8
0
  6
CONTINUOUS
 10
311.644897
 20
35.034412
 11
311.644897
 21
34.038322
  0
LINE
  8
0
  6
CONTINUOUS
 10
309.640289
 20
35.034412
 11
309.640289
 21
34.038322
  0
LINE
  8
0
  6
CONTINUOUS
 10
301.127808
 20
42.430412
 11
300.785400
 21
41.608624
  0
LINE
  8
0
  6
CONTINUOUS
 10
305.499084
 20
42.430412
 11
305.787903
 21
41.608624
  0
LINE
  8
0
  6
CONTINUOUS
 10
303.838104
 20
42.430412
 11
305.499084
 21
42.430412
  0
LINE
  8
0
  6
CONTINUOUS
 10
302.642700
 20
42.430412
 11
301.127808
 21
42.430412
  0
LINE
  8
0
  6
CONTINUOUS
 10
309.640289
 20
42.430412
 11
310.113403
 21
42.430412
  0
LINE
  8
0
  6
CONTINUOUS
 10
311.209106
 20
42.430412
 11
314.183990
 21
42.428471
  0
LINE
  8
0
  6
CONTINUOUS
 10
295.968903
 20
41.759361
 11
295.968903
 21
41.608624
  0
LINE
  8
0
  6
CONTINUOUS
 10
291.745087
 20
34.038322
 11
295.060303
 21
34.038322
  0
LINE
  8
0
  6
CONTINUOUS
 10
311.209106
 20
39.504162
 11
313.663788
 21
39.504162
  0
LINE
  8
0
  6
CONTINUOUS
 10
311.209106
 20
38.508293
 11
313.249603
 21
38.508293
  0
LINE
  8
0
  6
CONTINUOUS
 10
294.300507
 20
39.591541
 11
296.890289
 21
39.591541
  0
LINE
  8
0
  6
CONTINUOUS
 10
190.612335
 20
68.038315
 11
190.612335
 21
86.038307
  0
LINE
  8
0
  6
CONTINUOUS
 10
160.612350
 20
86.038307
 11
190.612335
 21
86.038307
  0
LINE
  8
0
  6
CONTINUOUS
 10
160.612350
 20
68.038315
 11
190.612335
 21
68.038315
  0
LINE
  8
0
  6
CONTINUOUS
 10
160.612350
 20
87.038307
 11
160.612350
 21
67.038315
  0
LINE
  8
0
  6
CONTINUOUS
 10
158.612350
 20
87.038307
 11
160.612350
 21
87.038307
  0
LINE
  8
0
  6
CONTINUOUS
 10
158.612350
 20
67.038315
 11
160.612350
 21
67.038315
  0
ARC
  8
0
  6
CONTINUOUS
 10
166.612350
 20
77.038315
 40
2.999999
 50
90.000000
 51
270.000000
  0
LINE
  8
0
  6
CONTINUOUS
 10
166.612350
 20
80.038315
 11
190.612335
 21
80.038315
  0
LINE
  8
0
  6
CONTINUOUS
 10
166.612350
 20
74.038315
 11
190.612335
 21
74.038315
  0
LINE
  8
0
  6
CONTINUOUS
 10
297.765289
 20
80.038315
 11
297.765289
 21
74.038315
  0
LINE
  8
0
  6
CONTINUOUS
 10
291.765289
 20
80.038315
 11
291.765289
 21
74.038315
  0
LINE
  8
0
  6
CONTINUOUS
 10
291.765289
 20
80.038315
 11
297.765289
 21
80.038315
  0
LINE
  8
0
  6
CONTINUOUS
 10
291.765289
 20
74.038315
 11
297.765289
 21
74.038315
  0
ARC
  8
0
  6
CONTINUOUS
 10
303.265289
 20
77.038315
 40
8.999998
 50
-160.528793
 51
160.528793
  0
LINE
  8
0
  6
CENTER
 10
-7.828437
 20
241.096100
 11
196.267807
 21
241.096100
  0
LINE
  8
0
  6
CONTINUOUS
 10
23.612381
 20
294.096100
 11
153.612350
 21
294.096100
  0
LINE
  8
0
  6
CONTINUOUS
 10
23.612381
 20
188.096100
 11
153.612350
 21
188.096100
  0
LINE
  8
0
  6
CONTINUOUS
 10
153.612350
 20
179.096100
 11
153.612350
 21
303.096100
  0
LINE
  8
0
  6
CONTINUOUS
 10
150.612350
 20
306.096100
 11
96.612350
 21
306.096100
  0
LINE
  8
0
  6
CONTINUOUS
 10
96.612350
 20
176.096100
 11
150.612350
 21
176.096100
  0
LINE
  8
0
  6
CONTINUOUS
 10
93.612350
 20
303.096100
 11
93.612350
 21
294.096100
  0
LINE
  8
0
  6
CONTINUOUS
 10
93.612350
 20
179.096100
 11
93.612350
 21
188.096100
  0
ARC
  8
0
  6
CONTINUOUS
 10
96.612350
 20
303.096100
 40
3.000000
 50
90.000000
 51
180.000000
  0
ARC
  8
0
  6
CONTINUOUS
 10
150.612350
 20
303.096100
 40
3.000000
 50
0.000000
 51
90.000000
  0
ARC
  8
0
  6
CONTINUOUS
 10
150.612350
 20
179.096100
 40
3.000000
 50
-90.000000
 51
0.000000
  0
ARC
  8
0
  6
CONTINUOUS
 10
96.612350
 20
179.096100
 40
3.000000
 50
180.000000
 51
270.000000
  0
LINE
  8
0
  6
CONTINUOUS
 10
3.112386
 20
241.096100
 11
3.112386
 21
286.096069
  0
LINE
  8
0
  6
CONTINUOUS
 10
3.112386
 20
241.096100
 11
3.112386
 21
196.096100
  0
LINE
  8
0
  6
CONTINUOUS
 10
3.612386
 20
290.096069
 11
3.612386
 21
196.096100
  0
LINE
  8
0
  6
CONTINUOUS
 10
8.702575
 20
294.096069
 11
23.612381
 21
294.096069
  0
LINE
  8
0
  6
CONTINUOUS
 10
8.702575
 20
188.096100
 11
23.612381
 21
188.096100
  0
LINE
  8
0
  6
CONTINUOUS
 10
3.612386
 20
196.096100
 11
3.612386
 21
192.096100
  0
LINE
  8
0
  6
CONTINUOUS
 10
4.230386
 20
291.332184
 11
3.612386
 21
290.096069
  0
ARC
  8
0
  6
CONTINUOUS
 10
8.702575
 20
289.096069
 40
4.999999
 50
90.000000
 51
153.435196
  0
LINE
  8
0
  6
CONTINUOUS
 10
4.230386
 20
190.860031
 11
3.612386
 21
192.096100
  0
ARC
  8
0
  6
CONTINUOUS
 10
8.702575
 20
193.096100
 40
4.999999
 50
206.565002
 51
270.000000
  0
LINE
  8
0
  6
CONTINUOUS
 10
3.112386
 20
196.096100
 11
3.612386
 21
195.596100
  0
LINE
  8
0
  6
CONTINUOUS
 10
3.112386
 20
286.096069
 11
3.612386
 21
286.596069
  0
LINE
  8
0
  6
CONTINUOUS
 10
23.612381
 20
272.596100
 11
5.487385
 21
272.596100
  0
LINE
  8
0
  6
CONTINUOUS
 10
23.612381
 20
209.596100
 11
5.487385
 21
209.596100
  0
LINE
  8
0
  6
CONTINUOUS
 10
23.612381
 20
188.096100
 11
23.612381
 21
234.230072
  0
LINE
  8
0
  6
CONTINUOUS
 10
23.612381
 20
272.596100
 11
153.612350
 21
272.596100
  0
LINE
  8
0
  6
CONTINUOUS
 10
23.612381
 20
209.596100
 11
153.612350
 21
209.596100
  0
LINE
  8
0
  6
CONTINUOUS
 10
158.612350
 20
218.596100
 11
158.612350
 21
263.596100
  0
LINE
  8
0
  6
CONTINUOUS
 10
157.612350
 20
264.596100
 11
153.612350
 21
264.596100
  0
LINE
  8
0
  6
CONTINUOUS
 10
157.612350
 20
217.596100
 11
153.612350
 21
217.596100
  0
ARC
  8
0
  6
CONTINUOUS
 10
157.612350
 20
263.596100
 40
1.000000
 50
0.000000
 51
90.000000
  0
ARC
  8
0
  6
CONTINUOUS
 10
157.612350
 20
218.596100
 40
1.000000
 50
-90.000000
 51
0.000000
  0
LINE
  8
0
  6
CONTINUOUS
 10
190.612335
 20
229.596085
 11
190.612335
 21
250.096085
  0
LINE
  8
0
  6
CONTINUOUS
 10
160.612350
 20
250.096085
 11
190.612335
 21
250.096085
  0
LINE
  8
0
  6
CONTINUOUS
 10
160.612350
 20
232.096100
 11
163.612350
 21
232.096100
  0
LINE
  8
0
  6
CONTINUOUS
 10
160.612350
 20
251.096085
 11
160.612350
 21
231.096100
  0
LINE
  8
0
  6
CONTINUOUS
 10
158.612350
 20
251.096085
 11
160.612350
 21
251.096085
  0
LINE
  8
0
  6
CONTINUOUS
 10
158.612350
 20
231.096100
 11
160.612350
 21
231.096100
  0
LINE
  8
0
  6
CONTINUOUS
 10
131.612350
 20
188.096100
 11
131.612350
 21
177.958130
  0
LINE
  8
0
  6
CONTINUOUS
 10
115.612358
 20
188.096100
 11
115.612358
 21
177.958130
  0
LINE
  8
0
  6
CENTER
 10
143.612350
 20
194.334839
 11
143.612350
 21
177.345398
  0
LINE
  8
0
  6
CENTER
 10
103.612350
 20
195.114685
 11
103.612350
 21
177.623901
  0
LINE
  8
0
  6
CENTER
 10
95.556564
 20
186.096100
 11
112.378906
 21
186.096100
  0
LINE
  8
0
  6
CENTER
 10
135.662811
 20
186.096100
 11
151.983826
 21
186.096100
  0
ARC
  8
0
  6
CONTINUOUS
 10
143.612350
 20
186.096100
 40
4.250000
 50
-208.072495
 51
28.072487
  0
ARC
  8
0
  6
DASHED
 10
103.612350
 20
186.096100
 40
4.250000
 50
28.072487
 51
151.927505
  0
ARC
  8
0
  6
CONTINUOUS
 10
103.612350
 20
186.096100
 40
4.250000
 50
-208.072495
 51
28.072487
  0
ARC
  8
0
  6
DASHED
 10
143.612350
 20
186.096100
 40
4.250000
 50
28.072487
 51
151.927505
  0
LINE
  8
0
  6
CONTINUOUS
 10
163.612350
 20
232.611099
 11
163.612350
 21
229.596085
  0
LINE
  8
0
  6
CONTINUOUS
 10
163.612350
 20
229.596085
 11
190.612335
 21
229.596085
  0
LINE
  8
0
  6
CONTINUOUS
 10
163.612350
 20
232.611099
 11
190.612335
 21
232.611099
  0
LINE
  8
0
  6
CONTINUOUS
 10
17.112381
 20
235.096100
 11
17.112381
 21
247.096100
  0
LINE
  8
0
  6
CONTINUOUS
 10
24.112381
 20
235.096100
 11
24.112381
 21
247.096100
  0
LINE
  8
0
  6
CONTINUOUS
 10
18.112381
 20
248.096100
 11
23.112381
 21
248.096100
  0
LINE
  8
0
  6
CONTINUOUS
 10
23.112381
 20
234.096100
 11
18.112381
 21
234.096100
  0
ARC
  8
0
  6
CONTINUOUS
 10
23.112381
 20
247.096100
 40
1.000000
 50
0.000000
 51
90.000000
  0
ARC
  8
0
  6
CONTINUOUS
 10
18.112381
 20
247.096100
 40
1.000000
 50
90.000000
 51
180.000000
  0
ARC
  8
0
  6
CONTINUOUS
 10
18.112381
 20
235.096100
 40
1.000000
 50
180.000000
 51
270.000000
  0
ARC
  8
0
  6
CONTINUOUS
 10
23.112381
 20
235.096100
 40
1.000000
 50
-90.000000
 51
0.000000
  0
LINE
  8
0
  6
CONTINUOUS
 10
21.612381
 20
237.596100
 11
21.612381
 21
244.596100
  0
LINE
  8
0
  6
CONTINUOUS
 10
19.612381
 20
237.596100
 11
19.612381
 21
244.596100
  0
ARC
  8
0
  6
CONTINUOUS
 10
20.612381
 20
244.596100
 40
1.000000
 50
90.000000
 51
180.000000
  0
ARC
  8
0
  6
CONTINUOUS
 10
20.612381
 20
244.596100
 40
1.000000
 50
0.000000
 51
90.000000
  0
ARC
  8
0
  6
CONTINUOUS
 10
20.612381
 20
237.596100
 40
1.000000
 50
180.000000
 51
270.000000
  0
ARC
  8
0
  6
CONTINUOUS
 10
20.612381
 20
237.596100
 40
1.000000
 50
-90.000000
 51
0.000000
  0
LINE
  8
0
  6
CONTINUOUS
 10
23.612381
 20
247.962112
 11
23.612381
 21
294.096069
  0
LINE
  8
0
  6
CONTINUOUS
 10
131.612350
 20
294.096100
 11
131.612350
 21
304.234070
  0
LINE
  8
0
  6
CONTINUOUS
 10
115.612358
 20
294.096100
 11
115.612358
 21
304.234070
  0
LINE
  8
0
  6
CENTER
 10
143.612350
 20
287.857330
 11
143.612350
 21
304.846802
  0
LINE
  8
0
  6
CENTER
 10
103.612350
 20
287.077515
 11
103.612350
 21
304.568268
  0
LINE
  8
0
  6
CENTER
 10
95.556564
 20
296.096100
 11
112.378906
 21
296.096100
  0
LINE
  8
0
  6
CENTER
 10
135.662811
 20
296.096100
 11
151.983826
 21
296.096100
  0
ARC
  8
0
  6
CONTINUOUS
 10
143.612350
 20
296.096100
 40
4.250000
 50
-28.072487
 51
208.072495
  0
ARC
  8
0
  6
DASHED
 10
103.612350
 20
296.096100
 40
4.250000
 50
-151.927505
 51
-28.072487
  0
ARC
  8
0
  6
CONTINUOUS
 10
103.612350
 20
296.096100
 40
4.250000
 50
-28.072487
 51
208.072495
  0
ARC
  8
0
  6
DASHED
 10
143.612350
 20
296.096100
 40
4.250000
 50
-151.927505
 51
-28.072487
  0
TEXT
  8
0
 10
-7.000000
 20
-7.000000
 40
4.000000
 41
1.000000
  1
GLM-18-40~240-T90
 50
0.000000
  0
ENDSEC
  0
EOF
