  0
SECTION
  2
HEADER
  9
$ACADVER
  1
AC1014
  9
$ACADMAINTVER
 70
     9
  9
$DWGCODEPAGE
  3
ANSI_932
  9
$INSBASE
 10
0.0
 20
0.0
 30
0.0
  9
$EXTMIN
 10
47.02604532291206
 20
50.59496608062886
 30
0.0
  9
$EXTMAX
 10
495.6709575586606
 20
354.9495414979972
 30
0.0
  9
$LIMMIN
 10
-23.21011987109386
 20
-38.89929022016485
  9
$LIMMAX
 10
674.4326645480287
 20
449.0444475321696
  9
$ORTHOMODE
 70
     1
  9
$REGENMODE
 70
     1
  9
$FILLMODE
 70
     1
  9
$QTEXTMODE
 70
     0
  9
$MIRRTEXT
 70
     0
  9
$DRAGMODE
 70
     2
  9
$LTSCALE
 40
2.0
  9
$OSMODE
 70
    37
  9
$ATTMODE
 70
     1
  9
$TEXTSIZE
 40
2.0
  9
$TRACEWID
 40
1.0
  9
$TEXTSTYLE
  7
STANDARD
  9
$CLAYER
  8
0
  9
$CELTYPE
  6
BYLAYER
  9
$CECOLOR
 62
   256
  9
$CELTSCALE
 40
1.0
  9
$DELOBJ
 70
     1
  9
$DISPSILH
 70
     0
  9
$DIMSCALE
 40
2.0
  9
$DIMASZ
 40
1.8
  9
$DIMEXO
 40
0.625
  9
$DIMDLI
 40
3.75
  9
$DIMRND
 40
0.0
  9
$DIMDLE
 40
0.0
  9
$DIMEXE
 40
0.8
  9
$DIMTP
 40
0.0
  9
$DIMTM
 40
0.0
  9
$DIMTXT
 40
1.8
  9
$DIMCEN
 40
2.5
  9
$DIMTSZ
 40
0.0
  9
$DIMTOL
 70
     0
  9
$DIMLIM
 70
     0
  9
$DIMTIH
 70
     0
  9
$DIMTOH
 70
     0
  9
$DIMSE1
 70
     0
  9
$DIMSE2
 70
     0
  9
$DIMTAD
 70
     1
  9
$DIMZIN
 70
     8
  9
$DIMBLK
  1

  9
$DIMASO
 70
     1
  9
$DIMSHO
 70
     1
  9
$DIMPOST
  1

  9
$DIMAPOST
  1

  9
$DIMALT
 70
     0
  9
$DIMALTD
 70
     4
  9
$DIMALTF
 40
0.0394
  9
$DIMLFAC
 40
1.0
  9
$DIMTOFL
 70
     1
  9
$DIMTVP
 40
0.0
  9
$DIMTIX
 70
     0
  9
$DIMSOXD
 70
     0
  9
$DIMSAH
 70
     0
  9
$DIMBLK1
  1

  9
$DIMBLK2
  1

  9
$DIMSTYLE
  2
STANDARD
  9
$DIMCLRD
 70
     0
  9
$DIMCLRE
 70
     0
  9
$DIMCLRT
 70
     0
  9
$DIMTFAC
 40
1.0
  9
$DIMGAP
 40
0.75
  9
$DIMJUST
 70
     0
  9
$DIMSD1
 70
     0
  9
$DIMSD2
 70
     0
  9
$DIMTOLJ
 70
     1
  9
$DIMTZIN
 70
     0
  9
$DIMALTZ
 70
     0
  9
$DIMALTTZ
 70
     0
  9
$DIMFIT
 70
     3
  9
$DIMUPT
 70
     0
  9
$DIMUNIT
 70
     8
  9
$DIMDEC
 70
     2
  9
$DIMTDEC
 70
     2
  9
$DIMALTU
 70
     8
  9
$DIMALTTD
 70
     4
  9
$DIMTXSTY
  7
STANDARD
  9
$DIMAUNIT
 70
     0
  9
$LUNITS
 70
     2
  9
$LUPREC
 70
     3
  9
$SKETCHINC
 40
1.0
  9
$FILLETRAD
 40
10.0
  9
$AUNITS
 70
     0
  9
$AUPREC
 70
     2
  9
$MENU
  1
.
  9
$ELEVATION
 40
0.0
  9
$PELEVATION
 40
0.0
  9
$THICKNESS
 40
0.0
  9
$LIMCHECK
 70
     0
  9
$BLIPMODE
 70
     0
  9
$CHAMFERA
 40
0.0
  9
$CHAMFERB
 40
0.0
  9
$CHAMFERC
 40
20.0
  9
$CHAMFERD
 40
0.0
  9
$SKPOLY
 70
     0
  9
$TDCREATE
 40
2453761.375732777
  9
$TDUPDATE
 40
2453832.511825081
  9
$TDINDWG
 40
0.3722699306
  9
$TDUSRTIMER
 40
0.3722699306
  9
$USRTIMER
 70
     1
  9
$ANGBASE
 50
0.0
  9
$ANGDIR
 70
     0
  9
$PDMODE
 70
     0
  9
$PDSIZE
 40
-10.0
  9
$PLINEWID
 40
0.0
  9
$COORDS
 70
     0
  9
$SPLFRAME
 70
     0
  9
$SPLINETYPE
 70
     6
  9
$SPLINESEGS
 70
     8
  9
$ATTDIA
 70
     0
  9
$ATTREQ
 70
     1
  9
$HANDLING
 70
-16383
  9
$HANDSEED
  5
142D
  9
$SURFTAB1
 70
     6
  9
$SURFTAB2
 70
     6
  9
$SURFTYPE
 70
     6
  9
$SURFU
 70
     6
  9
$SURFV
 70
     6
  9
$UCSNAME
  2

  9
$UCSORG
 10
0.0
 20
0.0
 30
0.0
  9
$UCSXDIR
 10
1.0
 20
0.0
 30
0.0
  9
$UCSYDIR
 10
0.0
 20
1.0
 30
0.0
  9
$PUCSNAME
  2

  9
$PUCSORG
 10
0.0
 20
0.0
 30
0.0
  9
$PUCSXDIR
 10
1.0
 20
0.0
 30
0.0
  9
$PUCSYDIR
 10
0.0
 20
1.0
 30
0.0
  9
$USERI1
 70
     0
  9
$USERI2
 70
     0
  9
$USERI3
 70
     0
  9
$USERI4
 70
     0
  9
$USERI5
 70
     0
  9
$USERR1
 40
0.0
  9
$USERR2
 40
0.0
  9
$USERR3
 40
0.0
  9
$USERR4
 40
0.0
  9
$USERR5
 40
0.0
  9
$WORLDVIEW
 70
     1
  9
$SHADEDGE
 70
     3
  9
$SHADEDIF
 70
    70
  9
$TILEMODE
 70
     1
  9
$MAXACTVP
 70
    48
  9
$PINSBASE
 10
0.0
 20
0.0
 30
0.0
  9
$PLIMCHECK
 70
     0
  9
$PEXTMIN
 10
0.0
 20
0.0
 30
0.0
  9
$PEXTMAX
 10
0.0
 20
0.0
 30
0.0
  9
$PLIMMIN
 10
0.0
 20
0.0
  9
$PLIMMAX
 10
12.0
 20
9.0
  9
$UNITMODE
 70
     0
  9
$VISRETAIN
 70
     1
  9
$PLINEGEN
 70
     0
  9
$PSLTSCALE
 70
     1
  9
$TREEDEPTH
 70
  3020
  9
$PICKSTYLE
 70
     1
  9
$CMLSTYLE
  2
STANDARD
  9
$CMLJUST
 70
     0
  9
$CMLSCALE
 40
1.0
  9
$PROXYGRAPHICS
 70
     1
  9
$MEASUREMENT
 70
     0
  0
ENDSEC
  0
SECTION
  2
CLASSES
  0
CLASS
  1
DICTIONARYVAR
  2
AcDbDictionaryVar
  3
AutoCAD 2000
 90
        0
280
     0
281
     0
  0
CLASS
  1
ACDBDICTIONARYWDFLT
  2
AcDbDictionaryWithDefault
  3
AutoCAD 2000
 90
        0
280
     0
281
     0
  0
CLASS
  1
ACDBPLACEHOLDER
  2
AcDbPlaceHolder
  3
AutoCAD 2000
 90
        0
280
     0
281
     0
  0
CLASS
  1
LAYOUT
  2
AcDbLayout
  3
AutoCAD 2000
 90
        0
280
     0
281
     0
  0
CLASS
  1
LONG_TRANSACTION
  2
AcDbLongTransaction
  3
AutoCAD 2000
 90
        0
280
     0
281
     0
  0
CLASS
  1
LWPOLYLINE
  2
AcDbPolyline
  3
AutoCAD 2000
 90
        0
280
     0
281
     1
  0
CLASS
  1
HATCH
  2
AcDbHatch
  3
AutoCAD 2000
 90
        0
280
     0
281
     1
  0
CLASS
  1
XRECORD
  2
AcDbXrecord
  3
AutoCAD 2000
 90
        0
280
     0
281
     0
  0
ENDSEC
  0
SECTION
  2
TABLES
  0
TABLE
  2
VPORT
  5
6E
330
0
100
AcDbSymbolTable
 70
     2
  0
VPORT
  5
1407
330
6E
100
AcDbSymbolTableRecord
100
AcDbViewportTableRecord
  2
*ACTIVE
 70
     0
 10
0.0
 20
0.0
 11
1.0
 21
1.0
 12
259.2119381339339
 22
186.7754341481285
 13
0.0
 23
0.0
 14
10.0
 24
10.0
 15
10.0
 25
10.0
 16
0.0
 26
0.0
 36
1.0
 17
0.0
 27
0.0
 37
0.0
 40
339.0604612024604
 41
1.566970091027308
 42
50.0
 43
0.0
 44
0.0
 50
0.0
 51
0.0
 71
     0
 72
   100
 73
     1
 74
     3
 75
     0
 76
     0
 77
     0
 78
     0
  0
ENDTAB
  0
TABLE
  2
LTYPE
  5
69
330
0
100
AcDbSymbolTable
 70
     4
  0
LTYPE
  5
6A
330
69
100
AcDbSymbolTableRecord
100
AcDbLinetypeTableRecord
  2
BYBLOCK
 70
     0
  3

 72
    65
 73
     0
 40
0.0
  0
LTYPE
  5
6B
330
69
100
AcDbSymbolTableRecord
100
AcDbLinetypeTableRecord
  2
BYLAYER
 70
     0
  3

 72
    65
 73
     0
 40
0.0
  0
LTYPE
  5
8
330
69
100
AcDbSymbolTableRecord
100
AcDbLinetypeTableRecord
  2
CONTINUOUS
 70
     0
  3
Solid line
 72
    65
 73
     0
 40
0.0
  0
LTYPE
  5
27C
330
69
100
AcDbSymbolTableRecord
100
AcDbLinetypeTableRecord
  2
SEKKEI_A2_
 70
     0
  3
center(A2)  ____ _ ____ _ ____ _ ____ _ ____ _ 
 72
    65
 73
     4
 40
14.28749999999999
 49
9.525
 74
     0
 49
-1.587499999999999
 74
     0
 49
1.587499999999999
 74
     0
 49
-1.587499999999999
 74
     0
  0
LTYPE
  5
2B4
330
69
100
AcDbSymbolTableRecord
100
AcDbLinetypeTableRecord
  2
HIDDEN2
 70
     0
  3
Hidden (.5x) _ _ _ _ _ _ _ _ _ _ _ _ _ _ _ _ _
 72
    65
 73
     2
 40
4.762499999999999
 49
3.174999999999999
 74
     0
 49
-1.587499999999999
 74
     0
  0
LTYPE
  5
48F
330
69
100
AcDbSymbolTableRecord
100
AcDbLinetypeTableRecord
  2
SEKKEI_H
 70
     0
  3
Hidden-S _ _ _ _ _ _ _ _ _ _ _ _ _ _ _ _ _
 72
    65
 73
     2
 40
2.381249999999999
 49
1.587499999999999
 74
     0
 49
-0.79375
 74
     0
  0
ENDTAB
  0
TABLE
  2
LAYER
  5
66
330
0
100
AcDbSymbolTable
 70
     9
  0
LAYER
  5
5E
330
66
100
AcDbSymbolTableRecord
100
AcDbLayerTableRecord
  2
0
 70
     0
 62
     7
  6
CONTINUOUS
  0
LAYER
  5
3E
330
66
100
AcDbSymbolTableRecord
100
AcDbLayerTableRecord
  2
CENTER
 70
     0
 62
     3
  6
SEKKEI_A2_
  0
LAYER
  5
2B5
330
66
100
AcDbSymbolTableRecord
100
AcDbLayerTableRecord
  2
HIDS
 70
     0
 62
     1
  6
HIDDEN2
  0
LAYER
  5
2BA
330
66
100
AcDbSymbolTableRecord
100
AcDbLayerTableRecord
  2
HOJO
 70
     0
 62
     4
  6
CONTINUOUS
  0
LAYER
  5
3FA
330
66
100
AcDbSymbolTableRecord
100
AcDbLayerTableRecord
  2
TITLE
 70
     0
 62
     4
  6
CONTINUOUS
  0
ENDTAB
  0
TABLE
  2
STYLE
  5
67
330
0
100
AcDbSymbolTable
 70
     1
  0
STYLE
  5
16
330
67
100
AcDbSymbolTableRecord
100
AcDbTextStyleTableRecord
  2
STANDARD
 70
     0
 40
0.0
 41
1.0
 50
0.0
 71
     0
 42
2.0
  3
simplex.shx
  4
extfont.shx
  0
ENDTAB
  0
TABLE
  2
VIEW
  5
6C
330
0
100
AcDbSymbolTable
 70
     0
  0
ENDTAB
  0
TABLE
  2
UCS
  5
6D
330
0
100
AcDbSymbolTable
 70
     0
  0
ENDTAB
  0
TABLE
  2
APPID
  5
70
330
0
100
AcDbSymbolTable
 70
     1
  0
APPID
  5
71
330
70
100
AcDbSymbolTableRecord
100
AcDbRegAppTableRecord
  2
ACAD
 70
     0
  0
ENDTAB
  0
TABLE
  2
DIMSTYLE
  5
72
330
0
100
AcDbSymbolTable
 70
     1
  0
DIMSTYLE
105
73
330
72
100
AcDbSymbolTableRecord
100
AcDbDimStyleTableRecord
  2
STANDARD
 70
     0
  3

  4

  5

  6

  7

 40
2.0
 41
1.8
 42
0.625
 43
3.75
 44
0.8
 45
0.0
 46
0.0
 47
0.0
 48
0.0
140
1.8
141
2.5
142
0.0
143
0.0394
144
1.0
145
0.0
146
1.0
147
0.75
 71
     0
 72
     0
 73
     0
 74
     0
 75
     0
 76
     0
 77
     1
 78
     8
170
     0
171
     4
172
     1
173
     0
174
     0
175
     0
176
     0
177
     0
178
     0
270
     8
271
     2
272
     2
273
     8
274
     4
340
16
275
     0
280
     0
281
     0
282
     0
283
     1
284
     0
285
     0
286
     0
287
     3
288
     0
  0
ENDTAB
  0
TABLE
  2
BLOCK_RECORD
  5
1
330
0
100
AcDbSymbolTable
 70
    56
  0
BLOCK_RECORD
  5
2
102
{ACAD_XDICTIONARY
360
1429
102
}
330
1
100
AcDbSymbolTableRecord
100
AcDbBlockTableRecord
  2
*MODEL_SPACE
  0
BLOCK_RECORD
  5
1402
102
{ACAD_XDICTIONARY
360
142B
102
}
330
1
100
AcDbSymbolTableRecord
100
AcDbBlockTableRecord
  2
*PAPER_SPACE
  0
ENDTAB
  0
ENDSEC
  0
SECTION
  2
BLOCKS
  0
BLOCK
  5
5D
330
2
100
AcDbEntity
  8
0
100
AcDbBlockBegin
  2
*MODEL_SPACE
 70
     0
 10
0.0
 20
0.0
 30
0.0
  3
*MODEL_SPACE
  1

  0
ENDBLK
  5
5F
330
2
100
AcDbEntity
  8
0
100
AcDbBlockEnd
  0
BLOCK
  5
1404
330
1402
100
AcDbEntity
 67
     1
  8
0
100
AcDbBlockBegin
  2
*PAPER_SPACE
 70
     0
 10
0.0
 20
0.0
 30
0.0
  3
*PAPER_SPACE
  1

  0
ENDBLK
  5
1405
330
1402
100
AcDbEntity
 67
     1
  8
0
100
AcDbBlockEnd
  0
ENDSEC
  0
SECTION
  2
ENTITIES
  0
TEXT
  5
61E
330
2
100
AcDbEntity
  8
TITLE
100
AcDbText
 10
400.9090527967559
 20
315.5743316778033
 30
0.0
 40
5.0
  1
GLMN-12-5~120-S25T
100
AcDbText
  0
TEXT
  5
61F
330
2
100
AcDbEntity
  8
TITLE
100
AcDbText
 10
291.3909445525254
 20
315.5743316778033
 30
0.0
 40
5.0
  1
GLMN-12-5~120-T25T
100
AcDbText
  0
TEXT
  5
620
330
2
100
AcDbEntity
  8
TITLE
100
AcDbText
 10
400.9090527967559
 20
298.4314745349461
 30
0.0
 40
5.0
  1
GLMN-12-5~60-S40T
100
AcDbText
  0
ARC
  5
621
330
2
100
AcDbEntity
  8
0
100
AcDbCircle
 10
110.332293322912
 20
277.7593879356241
 30
0.0
 40
4.5
100
AcDbArc
 50
0.0
 51
90.0
  0
ARC
  5
622
330
2
100
AcDbEntity
  8
0
100
AcDbCircle
 10
110.332293322912
 20
277.7593879356241
 30
0.0
 40
3.0
100
AcDbArc
 50
0.0
 51
90.0
  0
LINE
  5
623
330
2
100
AcDbEntity
  8
0
100
AcDbLine
 10
61.33228932291206
 20
274.535327935624
 30
0.0
 11
61.33228932291206
 21
344.535327935624
 31
0.0
  0
LINE
  5
624
330
2
100
AcDbEntity
  8
0
100
AcDbLine
 10
110.332293322912
 20
269.535327935624
 30
0.0
 11
110.332293322912
 21
302.035327935624
 31
0.0
  0
LINE
  5
625
330
2
100
AcDbEntity
  8
0
100
AcDbLine
 10
119.832293322912
 20
284.535327935624
 30
0.0
 11
119.832293322912
 21
271.535327935624
 31
0.0
  0
LINE
  5
626
330
2
100
AcDbEntity
  8
0
100
AcDbLine
 10
233.832289322912
 20
352.535327935624
 30
0.0
 11
233.832289322912
 21
266.535327935624
 31
0.0
  0
LINE
  5
627
330
2
100
AcDbEntity
  8
0
100
AcDbLine
 10
66.33228932291206
 20
269.535327935624
 30
0.0
 11
110.332293322912
 21
269.535327935624
 31
0.0
  0
LINE
  5
628
330
2
100
AcDbEntity
  8
CENTER
100
AcDbLine
 10
47.95713732291199
 20
99.84494308062892
 30
0.0
 11
240.8497913229119
 21
99.84494308062892
 31
0.0
  0
LINE
  5
629
330
2
100
AcDbEntity
  8
0
100
AcDbLine
 10
63.832289322912
 20
75.84494308062892
 30
0.0
 11
110.332293322912
 21
75.84494308062892
 31
0.0
  0
LINE
  5
62A
330
2
100
AcDbEntity
  8
0
100
AcDbLine
 10
63.832289322912
 20
125.8449430806289
 30
0.0
 11
110.332293322912
 21
125.8449430806289
 31
0.0
  0
LINE
  5
62B
330
2
100
AcDbEntity
  8
0
100
AcDbLine
 10
66.332289322912
 20
59.84494308062892
 30
0.0
 11
110.332293322912
 21
59.84494308062892
 31
0.0
  0
LINE
  5
62C
330
2
100
AcDbEntity
  8
0
100
AcDbLine
 10
66.332289322912
 20
139.8449430806289
 30
0.0
 11
110.332293322912
 21
139.8449430806289
 31
0.0
  0
LINE
  5
62D
330
2
100
AcDbEntity
  8
0
100
AcDbLine
 10
61.332289322912
 20
64.84494308062892
 30
0.0
 11
61.332289322912
 21
134.8449430806289
 31
0.0
  0
ARC
  5
62E
330
2
100
AcDbEntity
  8
0
100
AcDbCircle
 10
66.332289322912
 20
64.84494308062892
 30
0.0
 40
5.0
100
AcDbArc
 50
180.0
 51
270.0
  0
ARC
  5
62F
330
2
100
AcDbEntity
  8
0
100
AcDbCircle
 10
66.332289322912
 20
134.8449430806289
 30
0.0
 40
5.0
100
AcDbArc
 50
90.0
 51
180.0
  0
ARC
  5
630
330
2
100
AcDbEntity
  8
0
100
AcDbCircle
 10
66.33228932291206
 20
274.535327935624
 30
0.0
 40
5.0
100
AcDbArc
 50
180.0
 51
270.0
  0
LINE
  5
631
330
2
100
AcDbEntity
  8
CENTER
100
AcDbLine
 10
207.242793322912
 20
110.8449430806289
 30
0.0
 11
271.082289322912
 21
110.8449430806289
 31
0.0
  0
LINE
  5
632
330
2
100
AcDbEntity
  8
0
100
AcDbLine
 10
201.332293322912
 20
64.84494308062892
 30
0.0
 11
201.332293322912
 21
77.2742340806289
 31
0.0
  0
LINE
  5
633
330
2
100
AcDbEntity
  8
0
100
AcDbLine
 10
216.332293322912
 20
64.8449280806289
 30
0.0
 11
216.332293322912
 21
77.2742340806289
 31
0.0
  0
LINE
  5
634
330
2
100
AcDbEntity
  8
0
100
AcDbLine
 10
183.832293322912
 20
55.84494308062892
 30
0.0
 11
183.832293322912
 21
73.28888208062892
 31
0.0
  0
LINE
  5
635
330
2
100
AcDbEntity
  8
0
100
AcDbLine
 10
233.832289322912
 20
137.8449430806289
 30
0.0
 11
233.832289322912
 21
55.84494308062892
 31
0.0
  0
LINE
  5
636
330
2
100
AcDbEntity
  8
0
100
AcDbLine
 10
119.832293322912
 20
61.84496608062886
 30
0.0
 11
119.832293322912
 21
137.8449430806289
 31
0.0
  0
LINE
  5
637
330
2
100
AcDbEntity
  8
0
100
AcDbLine
 10
110.332293322912
 20
59.84494308062892
 30
0.0
 11
110.332293322912
 21
139.8449430806289
 31
0.0
  0
LINE
  5
638
330
2
100
AcDbEntity
  8
0
100
AcDbLine
 10
119.832293322912
 20
61.84496608062886
 30
0.0
 11
183.832293322912
 21
61.84496608062886
 31
0.0
  0
LINE
  5
639
330
2
100
AcDbEntity
  8
0
100
AcDbLine
 10
110.332293322912
 20
61.84494308062892
 30
0.0
 11
119.832293322912
 21
61.84494308062892
 31
0.0
  0
LINE
  5
63A
330
2
100
AcDbEntity
  8
0
100
AcDbLine
 10
185.832293322912
 20
62.84494308062892
 30
0.0
 11
231.832289322912
 21
62.84494308062892
 31
0.0
  0
LINE
  5
63B
330
2
100
AcDbEntity
  8
0
100
AcDbLine
 10
183.832293322912
 20
55.84494308062892
 30
0.0
 11
233.832289322912
 21
55.84494308062892
 31
0.0
  0
ARC
  5
63C
330
2
100
AcDbEntity
  8
0
100
AcDbCircle
 10
185.832293322912
 20
60.84495008062891
 30
0.0
 40
2.0
100
AcDbArc
 50
90.0
 51
180.0
  0
LINE
  5
63D
330
2
100
AcDbEntity
  8
HIDS
  6
SEKKEI_H
100
AcDbLine
 10
188.082293322912
 20
62.84494308062892
 30
0.0
 11
188.082293322912
 21
55.84494308062892
 31
0.0
  0
LINE
  5
63E
330
2
100
AcDbEntity
  8
HIDS
  6
SEKKEI_H
100
AcDbLine
 10
194.582293322912
 20
62.84494308062892
 30
0.0
 11
194.582293322912
 21
55.84494308062892
 31
0.0
  0
LINE
  5
63F
330
2
100
AcDbEntity
  8
CENTER
100
AcDbLine
 10
191.332293322912
 20
65.21994308062892
 30
0.0
 11
191.332293322912
 21
52.46994308062887
 31
0.0
  0
ARC
  5
640
330
2
100
AcDbEntity
  8
0
100
AcDbCircle
 10
199.332293322912
 20
64.84494308062892
 30
0.0
 40
2.0
100
AcDbArc
 50
270.0
 51
0.0
  0
ARC
  5
641
330
2
100
AcDbEntity
  8
0
100
AcDbCircle
 10
218.332293322912
 20
64.84494308062892
 30
0.0
 40
2.0
100
AcDbArc
 50
180.0
 51
270.0
  0
ARC
  5
642
330
2
100
AcDbEntity
  8
0
100
AcDbCircle
 10
231.832289322912
 20
60.8449280806289
 30
0.0
 40
2.0
100
AcDbArc
 50
0.0
 51
90.0
  0
LINE
  5
643
330
2
100
AcDbEntity
  8
HIDS
  6
SEKKEI_H
100
AcDbLine
 10
223.082289322912
 20
62.84494308062892
 30
0.0
 11
223.082289322912
 21
55.84494308062892
 31
0.0
  0
LINE
  5
644
330
2
100
AcDbEntity
  8
HIDS
  6
SEKKEI_H
100
AcDbLine
 10
229.582289322912
 20
62.84494308062892
 30
0.0
 11
229.582289322912
 21
55.84494308062892
 31
0.0
  0
LINE
  5
645
330
2
100
AcDbEntity
  8
CENTER
100
AcDbLine
 10
226.332289322912
 20
66.21994308062892
 30
0.0
 11
226.332289322912
 21
52.09494308062886
 31
0.0
  0
LINE
  5
646
330
2
100
AcDbEntity
  8
0
100
AcDbLine
 10
119.832293322912
 20
271.535327935624
 30
0.0
 11
233.832289322912
 21
271.535327935624
 31
0.0
  0
LINE
  5
647
330
2
100
AcDbEntity
  8
0
100
AcDbLine
 10
119.832293322912
 20
69.59597308062888
 30
0.0
 11
183.832293322912
 21
69.59597308062888
 31
0.0
  0
LINE
  5
648
330
2
100
AcDbEntity
  8
0
100
AcDbLine
 10
119.832293322912
 20
130.0939510806289
 30
0.0
 11
233.832289322912
 21
130.0939510806289
 31
0.0
  0
LINE
  5
649
330
2
100
AcDbEntity
  8
0
100
AcDbLine
 10
119.832293322912
 20
137.8449430806289
 30
0.0
 11
233.832289322912
 21
137.8449430806289
 31
0.0
  0
LINE
  5
64A
330
2
100
AcDbEntity
  8
0
100
AcDbLine
 10
110.332293322912
 20
69.5959420806289
 30
0.0
 11
119.832293322912
 21
69.5959420806289
 31
0.0
  0
LINE
  5
64B
330
2
100
AcDbEntity
  8
0
100
AcDbLine
 10
110.332293322912
 20
130.0939510806289
 30
0.0
 11
119.832293322912
 21
130.0939510806289
 31
0.0
  0
ARC
  5
64C
330
2
100
AcDbEntity
  8
0
100
AcDbCircle
 10
110.332293322912
 20
122.4699430806289
 30
0.0
 40
4.5
100
AcDbArc
 50
0.0
 51
90.0
  0
ARC
  5
64D
330
2
100
AcDbEntity
  8
0
100
AcDbCircle
 10
110.332293322912
 20
122.4699430806289
 30
0.0
 40
3.0
100
AcDbArc
 50
0.0
 51
90.0
  0
ARC
  5
64E
330
2
100
AcDbEntity
  8
0
100
AcDbCircle
 10
110.332293322912
 20
122.4699430806289
 30
0.0
 40
1.5
100
AcDbArc
 50
0.0
 51
90.0
  0
LINE
  5
64F
330
2
100
AcDbEntity
  8
HOJO
100
AcDbLine
 10
113.332293322912
 20
118.4678370806288
 30
0.0
 11
114.832293322912
 21
119.2470420806288
 31
0.0
  0
LINE
  5
650
330
2
100
AcDbEntity
  8
HOJO
100
AcDbLine
 10
111.834693322912
 20
118.2318450806288
 30
0.0
 11
113.332293322912
 21
117.4331390806288
 31
0.0
  0
LINE
  5
651
330
2
100
AcDbEntity
  8
0
100
AcDbLine
 10
114.832293322912
 20
122.4699430806289
 30
0.0
 11
114.832293322912
 21
119.2470420806288
 31
0.0
  0
LINE
  5
652
330
2
100
AcDbEntity
  8
0
100
AcDbLine
 10
113.332293322912
 20
122.4699430806289
 30
0.0
 11
113.332293322912
 21
117.4331390806288
 31
0.0
  0
LINE
  5
653
330
2
100
AcDbEntity
  8
0
100
AcDbLine
 10
111.832293322912
 20
122.4699430806289
 30
0.0
 11
111.832293322912
 21
118.2273430806288
 31
0.0
  0
LINE
  5
659
330
2
100
AcDbEntity
  8
0
100
AcDbLine
 10
110.332293322912
 20
137.8449430806289
 30
0.0
 11
119.832293322912
 21
137.8449430806289
 31
0.0
  0
LINE
  5
65F
330
2
100
AcDbEntity
  8
0
100
AcDbLine
 10
119.832293322912
 20
271.535327935624
 30
0.0
 11
110.332293322912
 21
271.535327935624
 31
0.0
  0
ARC
  5
660
330
2
100
AcDbEntity
  8
0
100
AcDbCircle
 10
110.332293322912
 20
277.7593879356241
 30
0.0
 40
1.5
100
AcDbArc
 50
0.0
 51
90.0
  0
LINE
  5
661
330
2
100
AcDbEntity
  8
HOJO
100
AcDbLine
 10
113.332293322912
 20
273.757282935624
 30
0.0
 11
114.832293322912
 21
274.5364879356241
 31
0.0
  0
LINE
  5
662
330
2
100
AcDbEntity
  8
HOJO
100
AcDbLine
 10
111.834693322912
 20
273.521289935624
 30
0.0
 11
113.332293322912
 21
272.7225839356241
 31
0.0
  0
LINE
  5
663
330
2
100
AcDbEntity
  8
0
100
AcDbLine
 10
114.832293322912
 20
277.7593879356241
 30
0.0
 11
114.832293322912
 21
274.5364879356241
 31
0.0
  0
LINE
  5
664
330
2
100
AcDbEntity
  8
0
100
AcDbLine
 10
113.332293322912
 20
277.7593879356241
 30
0.0
 11
113.332293322912
 21
272.7225839356241
 31
0.0
  0
LINE
  5
665
330
2
100
AcDbEntity
  8
0
100
AcDbLine
 10
111.832293322912
 20
277.7593879356241
 30
0.0
 11
111.832293322912
 21
273.516788935624
 31
0.0
  0
LINE
  5
666
330
2
100
AcDbEntity
  8
0
100
AcDbLine
 10
233.457289322912
 20
75.28888208062892
 30
0.0
 11
216.582293322912
 21
75.28888208062892
 31
0.0
  0
LINE
  5
667
330
2
100
AcDbEntity
  8
0
100
AcDbLine
 10
186.082293322912
 20
75.28888208062892
 30
0.0
 11
200.707293322912
 21
75.28888208062892
 31
0.0
  0
ARC
  5
668
330
2
100
AcDbEntity
  8
0
100
AcDbCircle
 10
185.832293322912
 20
73.28889708062888
 30
0.0
 40
2.0
100
AcDbArc
 50
90.0
 51
180.0
  0
LINE
  5
669
330
2
100
AcDbEntity
  8
0
100
AcDbLine
 10
202.238593322912
 20
77.2742340806289
 30
0.0
 11
215.488593322912
 21
77.2742340806289
 31
0.0
  0
ARC
  5
66A
330
2
100
AcDbEntity
  8
0
100
AcDbCircle
 10
199.332293322912
 20
77.2742340806289
 30
0.0
 40
2.0
100
AcDbArc
 50
0.0
 51
90.0
  0
ARC
  5
66B
330
2
100
AcDbEntity
  8
0
100
AcDbCircle
 10
218.332293322912
 20
77.27424108062888
 30
0.0
 40
2.0
100
AcDbArc
 50
90.0
 51
180.0
  0
LINE
  5
66C
330
2
100
AcDbEntity
  8
0
100
AcDbLine
 10
237.3322893229119
 20
94.34494308062893
 30
0.0
 11
237.3322893229119
 21
127.3449430806289
 31
0.0
  0
ARC
  5
66D
330
2
100
AcDbEntity
  8
0
100
AcDbCircle
 10
236.332289322912
 20
94.34494308062893
 30
0.0
 40
1.0
100
AcDbArc
 50
270.0
 51
0.0
  0
LINE
  5
66E
330
2
100
AcDbEntity
  8
0
100
AcDbLine
 10
236.332289322912
 20
93.34494308062891
 30
0.0
 11
233.832289322912
 21
93.34494308062891
 31
0.0
  0
LINE
  5
66F
330
2
100
AcDbEntity
  8
0
100
AcDbLine
 10
243.3322893229119
 20
108.8449430806289
 30
0.0
 11
261.332289322912
 21
108.8449430806289
 31
0.0
  0
LINE
  5
670
330
2
100
AcDbEntity
  8
0
100
AcDbLine
 10
243.3322893229119
 20
112.8449430806289
 30
0.0
 11
261.332289322912
 21
112.8449430806289
 31
0.0
  0
LINE
  5
671
330
2
100
AcDbEntity
  8
0
100
AcDbLine
 10
239.3322893229119
 20
104.8449430806289
 30
0.0
 11
261.332289322912
 21
104.8449430806289
 31
0.0
  0
LINE
  5
672
330
2
100
AcDbEntity
  8
0
100
AcDbLine
 10
239.3322893229119
 20
116.8449430806289
 30
0.0
 11
261.332289322912
 21
116.8449430806289
 31
0.0
  0
LINE
  5
673
330
2
100
AcDbEntity
  8
0
100
AcDbLine
 10
239.3322893229119
 20
118.3449430806289
 30
0.0
 11
239.3322893229119
 21
103.3449430806289
 31
0.0
  0
ARC
  5
674
330
2
100
AcDbEntity
  8
0
100
AcDbCircle
 10
243.3322893229119
 20
110.8449430806289
 30
0.0
 40
2.0
100
AcDbArc
 50
180.0
 51
270.0
  0
LINE
  5
675
330
2
100
AcDbEntity
  8
0
100
AcDbLine
 10
237.3322893229119
 20
103.3449430806289
 30
0.0
 11
239.3322893229119
 21
103.3449430806289
 31
0.0
  0
ARC
  5
676
330
2
100
AcDbEntity
  8
0
100
AcDbCircle
 10
243.3322893229119
 20
110.8449430806289
 30
0.0
 40
2.0
100
AcDbArc
 50
90.0
 51
180.0
  0
LINE
  5
677
330
2
100
AcDbEntity
  8
0
100
AcDbLine
 10
237.3322893229119
 20
118.3449430806289
 30
0.0
 11
239.3322893229119
 21
118.3449430806289
 31
0.0
  0
ARC
  5
678
330
2
100
AcDbEntity
  8
0
100
AcDbCircle
 10
236.332289322912
 20
127.3449430806289
 30
0.0
 40
1.0
100
AcDbArc
 50
0.0
 51
90.0
  0
LINE
  5
679
330
2
100
AcDbEntity
  8
0
100
AcDbLine
 10
236.332289322912
 20
128.3449430806289
 30
0.0
 11
233.832289322912
 21
128.3449430806289
 31
0.0
  0
LINE
  5
67A
330
2
100
AcDbEntity
  8
0
100
AcDbLine
 10
261.332289322912
 20
104.8449430806289
 30
0.0
 11
261.332289322912
 21
116.8449430806289
 31
0.0
  0
LINE
  5
67B
330
2
100
AcDbEntity
  8
0
100
AcDbLine
 10
185.832293322912
 20
264.535327935624
 30
0.0
 11
231.832289322912
 21
264.535327935624
 31
0.0
  0
ARC
  5
67C
330
2
100
AcDbEntity
  8
0
100
AcDbCircle
 10
185.832293322912
 20
266.535327935624
 30
0.0
 40
2.0
100
AcDbArc
 50
180.0
 51
270.0
  0
LINE
  5
67D
330
2
100
AcDbEntity
  8
0
100
AcDbLine
 10
183.832293322912
 20
266.535327935624
 30
0.0
 11
183.832293322912
 21
271.535327935624
 31
0.0
  0
ARC
  5
67E
330
2
100
AcDbEntity
  8
HIDS
100
AcDbCircle
 10
191.332293322912
 20
271.535327935624
 30
0.0
 40
3.25
100
AcDbArc
 50
0.0
 51
180.0
  0
LINE
  5
67F
330
2
100
AcDbEntity
  8
CENTER
100
AcDbLine
 10
191.332293322912
 20
265.410327935624
 30
0.0
 11
191.332293322912
 21
277.1603279356241
 31
0.0
  0
LINE
  5
680
330
2
100
AcDbEntity
  8
CENTER
100
AcDbLine
 10
185.957293322912
 20
271.535327935624
 30
0.0
 11
196.707293322912
 21
271.535327935624
 31
0.0
  0
ARC
  5
681
330
2
100
AcDbEntity
  8
0
100
AcDbCircle
 10
191.332293322912
 20
271.535327935624
 30
0.0
 40
3.25
100
AcDbArc
 50
180.0
 51
0.0
  0
LINE
  5
682
330
2
100
AcDbEntity
  8
0
100
AcDbLine
 10
201.332293322912
 20
265.160327935624
 30
0.0
 11
201.332293322912
 21
271.535327935624
 31
0.0
  0
LINE
  5
683
330
2
100
AcDbEntity
  8
0
100
AcDbLine
 10
216.332293322912
 20
265.160327935624
 30
0.0
 11
216.332293322912
 21
271.535327935624
 31
0.0
  0
ARC
  5
684
330
2
100
AcDbEntity
  8
0
100
AcDbCircle
 10
231.832289322912
 20
266.535327935624
 30
0.0
 40
2.0
100
AcDbArc
 50
270.0
 51
0.0
  0
ARC
  5
685
330
2
100
AcDbEntity
  8
HIDS
100
AcDbCircle
 10
226.332289322912
 20
271.535327935624
 30
0.0
 40
3.25
100
AcDbArc
 50
0.0
 51
180.0
  0
LINE
  5
686
330
2
100
AcDbEntity
  8
CENTER
100
AcDbLine
 10
226.332289322912
 20
265.410327935624
 30
0.0
 11
226.332289322912
 21
277.035327935624
 31
0.0
  0
LINE
  5
687
330
2
100
AcDbEntity
  8
CENTER
100
AcDbLine
 10
220.957289322912
 20
271.535327935624
 30
0.0
 11
231.707289322912
 21
271.535327935624
 31
0.0
  0
ARC
  5
688
330
2
100
AcDbEntity
  8
0
100
AcDbCircle
 10
226.332289322912
 20
271.535327935624
 30
0.0
 40
3.25
100
AcDbArc
 50
180.0
 51
0.0
  0
ARC
  5
689
330
2
100
AcDbEntity
  8
0
100
AcDbCircle
 10
361.3322893229119
 20
99.84494308062892
 30
0.0
 40
36.0
100
AcDbArc
 50
199.1880950000001
 51
340.81189
  0
LINE
  5
68A
330
2
100
AcDbEntity
  8
0
100
AcDbLine
 10
405.746489322912
 20
62.25917308062889
 30
0.0
 11
391.3987873229119
 21
76.60691308062888
 31
0.0
  0
LINE
  5
68B
330
2
100
AcDbEntity
  8
0
100
AcDbLine
 10
316.918090322912
 20
62.25917308062889
 30
0.0
 11
331.265792322912
 21
76.60688308062891
 31
0.0
  0
LINE
  5
68C
330
2
100
AcDbEntity
  8
0
100
AcDbLine
 10
332.3322893229119
 20
65.84496608062886
 30
0.0
 11
332.3322893229119
 21
75.28889708062888
 31
0.0
  0
LINE
  5
68D
330
2
100
AcDbEntity
  8
0
100
AcDbLine
 10
390.3322893229119
 20
65.8449280806289
 30
0.0
 11
390.3322893229119
 21
75.28889708062888
 31
0.0
  0
LINE
  5
68E
330
2
100
AcDbEntity
  8
CENTER
100
AcDbLine
 10
361.3322893229119
 20
50.59496608062886
 30
0.0
 11
361.3322893229119
 21
175.7324410806289
 31
0.0
  0
LINE
  5
68F
330
2
100
AcDbEntity
  8
0
100
AcDbLine
 10
388.3322893229119
 20
56.84496608062886
 30
0.0
 11
334.3322893229119
 21
56.84496608062886
 31
0.0
  0
LINE
  5
690
330
2
100
AcDbEntity
  8
CENTER
100
AcDbLine
 10
323.3322893229119
 20
66.34496608062886
 30
0.0
 11
323.3322893229119
 21
51.46996608062886
 31
0.0
  0
LINE
  5
691
330
2
100
AcDbEntity
  8
0
100
AcDbLine
 10
318.3322893229119
 20
62.84496608062887
 30
0.0
 11
329.3322893229119
 21
62.84496608062887
 31
0.0
  0
LINE
  5
692
330
2
100
AcDbEntity
  8
0
100
AcDbLine
 10
333.3322893229119
 20
55.84496608062886
 30
0.0
 11
316.3322893229119
 21
55.84496608062886
 31
0.0
  0
LINE
  5
693
330
2
100
AcDbEntity
  8
HIDS
  6
SEKKEI_H
100
AcDbLine
 10
320.0822893229119
 20
62.84496608062887
 30
0.0
 11
320.0822893229119
 21
55.84496608062886
 31
0.0
  0
LINE
  5
694
330
2
100
AcDbEntity
  8
0
100
AcDbLine
 10
316.3322893229119
 20
60.84496608062886
 30
0.0
 11
316.3322893229119
 21
55.84496608062886
 31
0.0
  0
ARC
  5
695
330
2
100
AcDbEntity
  8
0
100
AcDbCircle
 10
318.3322893229119
 20
60.8449730806289
 30
0.0
 40
2.0
100
AcDbArc
 50
90.0
 51
180.0
  0
LINE
  5
696
330
2
100
AcDbEntity
  8
HIDS
  6
SEKKEI_H
100
AcDbLine
 10
326.5822893229119
 20
62.84496608062887
 30
0.0
 11
326.5822893229119
 21
55.84496608062886
 31
0.0
  0
LINE
  5
697
330
2
100
AcDbEntity
  8
0
100
AcDbLine
 10
333.3322893229119
 20
55.84496608062886
 30
0.0
 11
334.3322893229119
 21
56.84496608062886
 31
0.0
  0
ARC
  5
698
330
2
100
AcDbEntity
  8
0
100
AcDbCircle
 10
329.3322893229119
 20
65.84496608062886
 30
0.0
 40
3.0
100
AcDbArc
 50
270.0
 51
0.0
  0
ARC
  5
699
330
2
100
AcDbEntity
  8
0
100
AcDbCircle
 10
404.3322893229119
 20
60.84496608062886
 30
0.0
 40
2.0
100
AcDbArc
 50
0.0
 51
90.0
  0
LINE
  5
69A
330
2
100
AcDbEntity
  8
0
100
AcDbLine
 10
389.3322893229119
 20
55.84496608062886
 30
0.0
 11
406.3322893229119
 21
55.84496608062886
 31
0.0
  0
LINE
  5
69B
330
2
100
AcDbEntity
  8
CENTER
100
AcDbLine
 10
399.3322893229119
 20
66.34496608062886
 30
0.0
 11
399.3322893229119
 21
51.46996608062886
 31
0.0
  0
LINE
  5
69C
330
2
100
AcDbEntity
  8
0
100
AcDbLine
 10
404.332198322912
 20
62.84496608062887
 30
0.0
 11
393.3322893229119
 21
62.84496608062887
 31
0.0
  0
LINE
  5
69D
330
2
100
AcDbEntity
  8
0
100
AcDbLine
 10
388.3322893229119
 20
56.84496608062886
 30
0.0
 11
389.3322893229119
 21
55.84496608062886
 31
0.0
  0
ARC
  5
69E
330
2
100
AcDbEntity
  8
0
100
AcDbCircle
 10
393.3322893229119
 20
65.84496608062886
 30
0.0
 40
3.0
100
AcDbArc
 50
180.0
 51
270.0
  0
LINE
  5
69F
330
2
100
AcDbEntity
  8
HIDS
  6
SEKKEI_H
100
AcDbLine
 10
396.0822893229119
 20
62.84496608062887
 30
0.0
 11
396.0822893229119
 21
55.84496608062886
 31
0.0
  0
LINE
  5
6A0
330
2
100
AcDbEntity
  8
HIDS
  6
SEKKEI_H
100
AcDbLine
 10
402.5822893229119
 20
62.84496608062887
 30
0.0
 11
402.5822893229119
 21
55.84496608062886
 31
0.0
  0
LINE
  5
6A1
330
2
100
AcDbEntity
  8
0
100
AcDbLine
 10
406.3322893229119
 20
55.84496608062886
 30
0.0
 11
406.3322893229119
 21
60.84496608062886
 31
0.0
  0
TEXT
  5
6A2
330
2
100
AcDbEntity
  8
TITLE
100
AcDbText
 10
291.3909445525254
 20
281.288617392089
 30
0.0
 40
5.0
  1
GLMN-12-5~30-T60T
100
AcDbText
  0
LINE
  5
6A4
330
2
100
AcDbEntity
  8
0
100
AcDbLine
 10
360.819594322912
 20
87.7560830806289
 30
0.0
 11
359.571990322912
 21
87.7560830806289
 31
0.0
  0
LINE
  5
6A5
330
2
100
AcDbEntity
  8
0
100
AcDbLine
 10
358.7072893229119
 20
88.71994308062893
 30
0.0
 11
363.9572893229119
 21
88.71994308062893
 31
0.0
  0
CIRCLE
  5
6A6
330
2
100
AcDbEntity
  8
0
100
AcDbCircle
 10
361.3322893229119
 20
110.8449430806289
 30
0.0
 40
17.5
  0
ARC
  5
6A7
330
2
100
AcDbEntity
  8
0
100
AcDbCircle
 10
361.3322893229119
 20
99.84494308062892
 30
0.0
 40
36.0
100
AcDbArc
 50
19.18812000000017
 51
160.8119049999998
  0
ARC
  5
6A8
330
2
100
AcDbEntity
  8
0
100
AcDbCircle
 10
361.3322893229119
 20
110.8449430806289
 30
0.0
 40
6.0
100
AcDbArc
 50
199.4712069999998
 51
160.5287930000002
  0
LINE
  5
6A9
330
2
100
AcDbEntity
  8
0
100
AcDbLine
 10
340.297392322912
 20
137.4778470806288
 30
0.0
 11
361.3322893229119
 21
137.8449430806289
 31
0.0
  0
LINE
  5
6AA
330
2
100
AcDbEntity
  8
CENTER
100
AcDbLine
 10
337.5611943229119
 20
110.8449430806289
 30
0.0
 11
385.1033843229119
 21
110.8449430806289
 31
0.0
  0
LINE
  5
6AB
330
2
100
AcDbEntity
  8
CENTER
100
AcDbLine
 10
313.9572893229119
 20
99.84494308062892
 30
0.0
 11
408.7072893229119
 21
99.84494308062892
 31
0.0
  0
LINE
  5
6AC
330
2
100
AcDbEntity
  8
0
100
AcDbLine
 10
335.3322893229119
 20
136.8449430806289
 30
0.0
 11
335.3322893229119
 21
133.2419460806289
 31
0.0
  0
LINE
  5
6AD
330
2
100
AcDbEntity
  8
0
100
AcDbLine
 10
338.3322893229119
 20
135.4780450806289
 30
0.0
 11
338.3322893229119
 21
130.0939510806289
 31
0.0
  0
LINE
  5
6AE
330
2
100
AcDbEntity
  8
0
100
AcDbLine
 10
321.3322893229119
 20
122.8449430806289
 30
0.0
 11
321.3322893229119
 21
77.91606408062887
 31
0.0
  0
LINE
  5
6AF
330
2
100
AcDbEntity
  8
0
100
AcDbLine
 10
327.3322893229119
 20
88.0127740806289
 30
0.0
 11
327.3322893229119
 21
111.6771420806288
 31
0.0
  0
ARC
  5
6B0
330
2
100
AcDbEntity
  8
0
100
AcDbCircle
 10
361.3322893229119
 20
99.84494308062892
 30
0.0
 40
38.0
100
AcDbArc
 50
127.247803
 51
220.2566070000001
  0
LINE
  5
6B1
330
2
100
AcDbEntity
  8
0
100
AcDbLine
 10
322.7967523229119
 20
74.38052608062889
 30
0.0
 11
325.918090322912
 21
71.2591730806289
 31
0.0
  0
ARC
  5
6B2
330
2
100
AcDbEntity
  8
0
100
AcDbCircle
 10
326.3322893229119
 20
77.91606408062887
 30
0.0
 40
5.0
100
AcDbArc
 50
180.0
 51
225.0003970000002
  0
LINE
  5
6B3
330
2
100
AcDbEntity
  8
0
100
AcDbLine
 10
355.3235003229119
 20
84.55686408062888
 30
0.0
 11
355.3235003229119
 21
83.40843508062892
 31
0.0
  0
LINE
  5
6B4
330
2
100
AcDbEntity
  8
0
100
AcDbLine
 10
351.714095322912
 20
86.93905108062887
 30
0.0
 11
351.714095322912
 21
82.40217108062887
 31
0.0
  0
LINE
  5
6B5
330
2
100
AcDbEntity
  8
0
100
AcDbLine
 10
350.8322893229119
 20
87.49948408062891
 30
0.0
 11
350.8322893229119
 21
81.86682408062893
 31
0.0
  0
LINE
  5
6B6
330
2
100
AcDbEntity
  8
0
100
AcDbLine
 10
356.0822893229119
 20
85.41819308062889
 30
0.0
 11
356.0822893229119
 21
80.84494308062891
 31
0.0
  0
LINE
  5
6B7
330
2
100
AcDbEntity
  8
0
100
AcDbLine
 10
351.845091322912
 20
80.84494308062891
 30
0.0
 11
354.5752863229119
 21
80.84494308062891
 31
0.0
  0
ARC
  5
6B8
330
2
100
AcDbEntity
  8
0
100
AcDbCircle
 10
353.682891322912
 20
83.40843508062892
 30
0.0
 40
1.640625
100
AcDbArc
 50
270.0002139999998
 51
0.0001089999998967
  0
LINE
  5
6B9
330
2
100
AcDbEntity
  8
0
100
AcDbLine
 10
353.682891322912
 20
81.76780208062888
 30
0.0
 11
352.3163903229119
 21
81.76780208062888
 31
0.0
  0
LINE
  5
6BA
330
2
100
AcDbEntity
  8
0
100
AcDbLine
 10
350.8322893229119
 20
81.86682408062893
 30
0.0
 11
351.845091322912
 21
80.84494308062891
 31
0.0
  0
LINE
  5
6BB
330
2
100
AcDbEntity
  8
0
100
AcDbLine
 10
351.714095322912
 20
82.40217108062887
 30
0.0
 11
352.3163903229119
 21
81.76780208062888
 31
0.0
  0
LINE
  5
6BC
330
2
100
AcDbEntity
  8
0
100
AcDbLine
 10
355.3235003229119
 20
81.47270508062888
 30
0.0
 11
354.5752863229119
 21
80.84494308062891
 31
0.0
  0
LINE
  5
6BD
330
2
100
AcDbEntity
  8
0
100
AcDbLine
 10
355.3235003229119
 20
80.84494308062891
 30
0.0
 11
356.0822893229119
 21
80.84494308062891
 31
0.0
  0
LINE
  5
6BE
330
2
100
AcDbEntity
  8
0
100
AcDbLine
 10
355.3235003229119
 20
81.47270508062888
 30
0.0
 11
355.3235003229119
 21
80.84494308062891
 31
0.0
  0
LINE
  5
6BF
330
2
100
AcDbEntity
  8
0
100
AcDbLine
 10
355.3235003229119
 20
83.73655208062888
 30
0.0
 11
355.3235003229119
 21
84.39280208062887
 31
0.0
  0
LINE
  5
6C0
330
2
100
AcDbEntity
  8
0
100
AcDbLine
 10
353.9494923229119
 20
85.41819308062889
 30
0.0
 11
356.0822893229119
 21
85.41819308062889
 31
0.0
  0
LINE
  5
6C1
330
2
100
AcDbEntity
  8
0
100
AcDbLine
 10
355.3235003229119
 20
84.55686408062888
 30
0.0
 11
353.9494923229119
 21
84.55686408062888
 31
0.0
  0
LINE
  5
6C2
330
2
100
AcDbEntity
  8
0
100
AcDbLine
 10
351.7853993229119
 20
88.71994308062893
 30
0.0
 11
355.315596322912
 21
88.71994308062893
 31
0.0
  0
LINE
  5
6C3
330
2
100
AcDbEntity
  8
0
100
AcDbLine
 10
354.8366993229119
 20
87.67405208062887
 30
0.0
 11
352.306899322912
 21
87.67405208062887
 31
0.0
  0
LINE
  5
6C4
330
2
100
AcDbEntity
  8
0
100
AcDbLine
 10
353.9494923229119
 20
85.41819308062889
 30
0.0
 11
353.9494923229119
 21
84.55686408062888
 31
0.0
  0
LINE
  5
6C5
330
2
100
AcDbEntity
  8
0
100
AcDbLine
 10
351.7853993229119
 20
88.71994308062893
 30
0.0
 11
350.8322893229119
 21
87.49948408062891
 31
0.0
  0
LINE
  5
6C6
330
2
100
AcDbEntity
  8
0
100
AcDbLine
 10
352.306899322912
 20
87.67405208062887
 30
0.0
 11
351.714095322912
 21
86.93905108062887
 31
0.0
  0
LINE
  5
6C7
330
2
100
AcDbEntity
  8
0
100
AcDbLine
 10
355.3235003229119
 20
87.20345608062888
 30
0.0
 11
355.3235003229119
 21
87.0793250806289
 31
0.0
  0
LINE
  5
6C8
330
2
100
AcDbEntity
  8
0
100
AcDbLine
 10
359.571990322912
 20
87.7560830806289
 30
0.0
 11
359.290099322912
 21
87.0793250806289
 31
0.0
  0
LINE
  5
6C9
330
2
100
AcDbEntity
  8
0
100
AcDbLine
 10
358.7072893229119
 20
87.0793250806289
 30
0.0
 11
359.290099322912
 21
87.0793250806289
 31
0.0
  0
LINE
  5
6CA
330
2
100
AcDbEntity
  8
0
100
AcDbLine
 10
356.0822893229119
 20
87.86912008062888
 30
0.0
 11
356.0822893229119
 21
87.0793250806289
 31
0.0
  0
LINE
  5
6CB
330
2
100
AcDbEntity
  8
0
100
AcDbLine
 10
355.3235003229119
 20
87.0793250806289
 30
0.0
 11
356.0822893229119
 21
87.0793250806289
 31
0.0
  0
LINE
  5
6CC
330
2
100
AcDbEntity
  8
0
100
AcDbLine
 10
355.315596322912
 20
88.71994308062893
 30
0.0
 11
356.0822893229119
 21
87.86912008062888
 31
0.0
  0
LINE
  5
6CD
330
2
100
AcDbEntity
  8
0
100
AcDbLine
 10
355.3235003229119
 20
87.20345608062888
 30
0.0
 11
354.826796322912
 21
87.67405208062887
 31
0.0
  0
LINE
  5
6CE
330
2
100
AcDbEntity
  8
0
100
AcDbLine
 10
358.7072893229119
 20
87.0793250806289
 30
0.0
 11
358.7072893229119
 21
88.71994308062893
 31
0.0
  0
LINE
  5
6CF
330
2
100
AcDbEntity
  8
0
100
AcDbLine
 10
324.3322893229119
 20
125.8449430806289
 30
0.0
 11
327.9353933229119
 21
125.8449430806289
 31
0.0
  0
ARC
  5
6D0
330
2
100
AcDbEntity
  8
0
100
AcDbCircle
 10
324.3322893229119
 20
122.8449430806289
 30
0.0
 40
3.0
100
AcDbArc
 50
90.0
 51
180.0
  0
LINE
  5
6D1
330
2
100
AcDbEntity
  8
0
100
AcDbLine
 10
335.3322893229119
 20
133.2419460806289
 30
0.0
 11
327.9353933229119
 21
125.8449430806289
 31
0.0
  0
LINE
  5
6D2
330
2
100
AcDbEntity
  8
0
100
AcDbLine
 10
357.8322893229119
 20
112.8449430806289
 30
0.0
 11
357.8322893229119
 21
108.8449430806289
 31
0.0
  0
LINE
  5
6D3
330
2
100
AcDbEntity
  8
0
100
AcDbLine
 10
353.8322893229119
 20
108.8449430806289
 30
0.0
 11
353.8322893229119
 21
112.8449430806289
 31
0.0
  0
LINE
  5
6D4
330
2
100
AcDbEntity
  8
0
100
AcDbLine
 10
353.8322893229119
 20
108.8449430806289
 30
0.0
 11
357.8322893229119
 21
108.8449430806289
 31
0.0
  0
LINE
  5
6D5
330
2
100
AcDbEntity
  8
0
100
AcDbLine
 10
357.8322893229119
 20
112.8449430806289
 30
0.0
 11
353.8322893229119
 21
112.8449430806289
 31
0.0
  0
ARC
  5
6D6
330
2
100
AcDbEntity
  8
0
100
AcDbCircle
 10
338.3322893229119
 20
136.8449430806289
 30
0.0
 40
3.0
100
AcDbArc
 50
98.89579528650392
 51
180.0
  0
ARC
  5
6D7
330
2
100
AcDbEntity
  8
0
100
AcDbCircle
 10
340.3322893229119
 20
135.4780450806289
 30
0.0
 40
2.0
100
AcDbArc
 50
90.99986299999995
 51
180.0
  0
LINE
  5
6D8
330
2
100
AcDbEntity
  8
0
100
AcDbLine
 10
399.867797322912
 20
125.3094510806288
 30
0.0
 11
386.796736322912
 21
138.3804040806288
 31
0.0
  0
LINE
  5
6D9
330
2
100
AcDbEntity
  8
0
100
AcDbLine
 10
384.3322893229119
 20
135.4780450806289
 30
0.0
 11
384.3322893229119
 21
130.0939510806289
 31
0.0
  0
LINE
  5
6DA
330
2
100
AcDbEntity
  8
0
100
AcDbLine
 10
401.3322893229119
 20
76.8449500806289
 30
0.0
 11
401.3322893229119
 21
121.7738370806288
 31
0.0
  0
LINE
  5
6DB
330
2
100
AcDbEntity
  8
0
100
AcDbLine
 10
395.3322893229119
 20
111.6771420806288
 30
0.0
 11
395.3322893229119
 21
88.01279708062891
 31
0.0
  0
ARC
  5
6DC
330
2
100
AcDbEntity
  8
0
100
AcDbCircle
 10
361.3322893229119
 20
99.84494308062892
 30
0.0
 40
38.0
100
AcDbArc
 50
319.7434389999997
 51
52.75215899999984
  0
LINE
  5
6DD
330
2
100
AcDbEntity
  8
0
100
AcDbLine
 10
369.554595322912
 20
84.5261030806289
 30
0.0
 11
370.785887322912
 21
81.6652630806289
 31
0.0
  0
LINE
  5
6DE
330
2
100
AcDbEntity
  8
0
100
AcDbLine
 10
370.310286322912
 20
84.59746008062888
 30
0.0
 11
371.611296322912
 21
81.6652630806289
 31
0.0
  0
LINE
  5
6DF
330
2
100
AcDbEntity
  8
0
100
AcDbLine
 10
367.874297322912
 20
84.5261030806289
 30
0.0
 11
367.874297322912
 21
81.6652630806289
 31
0.0
  0
LINE
  5
6E0
330
2
100
AcDbEntity
  8
0
100
AcDbLine
 10
366.971892322912
 20
87.7560830806289
 30
0.0
 11
366.971892322912
 21
81.6652630806289
 31
0.0
  0
LINE
  5
6E1
330
2
100
AcDbEntity
  8
0
100
AcDbLine
 10
361.8040003229121
 20
87.7560830806289
 30
0.0
 11
361.8040003229121
 21
81.70627108062888
 31
0.0
  0
LINE
  5
6E2
330
2
100
AcDbEntity
  8
0
100
AcDbLine
 10
360.819594322912
 20
87.7560830806289
 30
0.0
 11
360.819594322912
 21
81.70627108062888
 31
0.0
  0
LINE
  5
6E3
330
2
100
AcDbEntity
  8
0
100
AcDbLine
 10
370.622298322912
 20
80.84494308062891
 30
0.0
 11
371.8322893229119
 21
80.84494308062891
 31
0.0
  0
LINE
  5
6E4
330
2
100
AcDbEntity
  8
0
100
AcDbLine
 10
360.429991322912
 20
81.70627108062888
 30
0.0
 11
360.819594322912
 21
81.70627108062888
 31
0.0
  0
LINE
  5
6E5
330
2
100
AcDbEntity
  8
0
100
AcDbLine
 10
360.429991322912
 20
80.84494308062891
 30
0.0
 11
362.132094322912
 21
80.84494308062891
 31
0.0
  0
LINE
  5
6E6
330
2
100
AcDbEntity
  8
0
100
AcDbLine
 10
362.132094322912
 20
81.70627108062888
 30
0.0
 11
362.132094322912
 21
80.84494308062891
 31
0.0
  0
LINE
  5
6E7
330
2
100
AcDbEntity
  8
0
100
AcDbLine
 10
360.429991322912
 20
81.70627108062888
 30
0.0
 11
360.429991322912
 21
80.84494308062891
 31
0.0
  0
LINE
  5
6E8
330
2
100
AcDbEntity
  8
0
100
AcDbLine
 10
361.8040003229121
 20
81.70627108062888
 30
0.0
 11
362.132094322912
 21
81.70627108062888
 31
0.0
  0
LINE
  5
6E9
330
2
100
AcDbEntity
  8
0
100
AcDbLine
 10
366.5822893229119
 20
81.6652630806289
 30
0.0
 11
366.5822893229119
 21
80.84494308062891
 31
0.0
  0
LINE
  5
6EA
330
2
100
AcDbEntity
  8
0
100
AcDbLine
 10
368.233199322912
 20
81.6652630806289
 30
0.0
 11
368.233199322912
 21
80.84494308062891
 31
0.0
  0
LINE
  5
6EB
330
2
100
AcDbEntity
  8
0
100
AcDbLine
 10
370.622298322912
 20
81.6652630806289
 30
0.0
 11
370.622298322912
 21
80.84494308062891
 31
0.0
  0
LINE
  5
6EC
330
2
100
AcDbEntity
  8
0
100
AcDbLine
 10
370.622298322912
 20
81.6652630806289
 30
0.0
 11
370.785887322912
 21
81.6652630806289
 31
0.0
  0
LINE
  5
6ED
330
2
100
AcDbEntity
  8
0
100
AcDbLine
 10
368.233199322912
 20
80.84494308062891
 30
0.0
 11
366.5822893229119
 21
80.84494308062891
 31
0.0
  0
LINE
  5
6EE
330
2
100
AcDbEntity
  8
0
100
AcDbLine
 10
367.874297322912
 20
81.6652630806289
 30
0.0
 11
368.233199322912
 21
81.6652630806289
 31
0.0
  0
LINE
  5
6EF
330
2
100
AcDbEntity
  8
0
100
AcDbLine
 10
366.5822893229119
 20
81.6652630806289
 30
0.0
 11
366.971892322912
 21
81.6652630806289
 31
0.0
  0
LINE
  5
6F0
330
2
100
AcDbEntity
  8
0
100
AcDbLine
 10
371.8322893229119
 20
81.6652630806289
 30
0.0
 11
371.8322893229119
 21
80.84494308062891
 31
0.0
  0
LINE
  5
6F1
330
2
100
AcDbEntity
  8
0
100
AcDbLine
 10
371.611296322912
 20
81.6652630806289
 30
0.0
 11
371.8322893229119
 21
81.6652630806289
 31
0.0
  0
ARC
  5
6F2
330
2
100
AcDbEntity
  8
0
100
AcDbCircle
 10
369.730193322912
 20
86.6178920806289
 30
0.0
 40
2.102050999999999
100
AcDbArc
 50
286.0181269999996
 51
90.00350999999964
  0
LINE
  5
6F3
330
2
100
AcDbEntity
  8
0
100
AcDbLine
 10
361.8040003229121
 20
87.7560830806289
 30
0.0
 11
363.1718893229119
 21
87.7560830806289
 31
0.0
  0
LINE
  5
6F4
330
2
100
AcDbEntity
  8
0
100
AcDbLine
 10
363.1718893229119
 20
87.7560830806289
 30
0.0
 11
363.409697322912
 21
87.0793250806289
 31
0.0
  0
LINE
  5
6F5
330
2
100
AcDbEntity
  8
0
100
AcDbLine
 10
363.409697322912
 20
87.0793250806289
 30
0.0
 11
363.9572893229119
 21
87.0793250806289
 31
0.0
  0
LINE
  5
6F6
330
2
100
AcDbEntity
  8
0
100
AcDbLine
 10
363.9572893229119
 20
87.0793250806289
 30
0.0
 11
363.9572893229119
 21
88.71994308062893
 31
0.0
  0
LINE
  5
6F7
330
2
100
AcDbEntity
  8
0
100
AcDbLine
 10
367.874297322912
 20
84.5261030806289
 30
0.0
 11
369.554595322912
 21
84.5261030806289
 31
0.0
  0
LINE
  5
6F8
330
2
100
AcDbEntity
  8
0
100
AcDbLine
 10
367.874297322912
 20
85.34622508062886
 30
0.0
 11
369.895690322912
 21
85.34622508062886
 31
0.0
  0
LINE
  5
6F9
330
2
100
AcDbEntity
  8
0
100
AcDbLine
 10
367.874297322912
 20
87.7560830806289
 30
0.0
 11
370.324187322912
 21
87.75448108062892
 31
0.0
  0
LINE
  5
6FA
330
2
100
AcDbEntity
  8
0
100
AcDbLine
 10
366.5822893229119
 20
87.7560830806289
 30
0.0
 11
366.971892322912
 21
87.7560830806289
 31
0.0
  0
LINE
  5
6FB
330
2
100
AcDbEntity
  8
0
100
AcDbLine
 10
367.874297322912
 20
87.7560830806289
 30
0.0
 11
367.874297322912
 21
85.34622508062886
 31
0.0
  0
LINE
  5
6FC
330
2
100
AcDbEntity
  8
0
100
AcDbLine
 10
366.5822893229119
 20
88.71994308062893
 30
0.0
 11
366.5822893229119
 21
87.7560830806289
 31
0.0
  0
LINE
  5
6FD
330
2
100
AcDbEntity
  8
0
100
AcDbLine
 10
366.5822893229119
 20
88.71994308062893
 30
0.0
 11
369.730193322912
 21
88.71994308062893
 31
0.0
  0
ARC
  5
6FE
330
2
100
AcDbEntity
  8
0
100
AcDbCircle
 10
369.730193322912
 20
86.6178920806289
 30
0.0
 40
1.282395
100
AcDbArc
 50
277.4147260000003
 51
62.41184999999968
  0
LINE
  5
6FF
330
2
100
AcDbEntity
  8
0
100
AcDbLine
 10
394.729186322912
 20
73.84495008062891
 30
0.0
 11
394.444991322912
 21
73.56070208062885
 31
0.0
  0
ARC
  5
700
330
2
100
AcDbEntity
  8
0
100
AcDbCircle
 10
398.3322893229119
 20
76.84494308062892
 30
0.0
 40
3.0
100
AcDbArc
 50
270.0
 51
0.0
  0
LINE
  5
701
330
2
100
AcDbEntity
  8
0
100
AcDbLine
 10
398.3322893229119
 20
73.84495008062891
 30
0.0
 11
394.729186322912
 21
73.84495008062891
 31
0.0
  0
ARC
  5
702
330
2
100
AcDbEntity
  8
0
100
AcDbCircle
 10
396.3322893229119
 20
121.7738370806288
 30
0.0
 40
5.0
100
AcDbArc
 50
0.0
 51
45.00017900000002
  0
ARC
  5
703
330
2
100
AcDbEntity
  8
0
100
AcDbCircle
 10
382.3322893229119
 20
135.4780450806289
 30
0.0
 40
2.0
100
AcDbArc
 50
0.0
 51
89.00013700000005
  0
LINE
  5
704
330
2
100
AcDbEntity
  8
0
100
AcDbLine
 10
382.367186322912
 20
137.4778470806288
 30
0.0
 11
361.3322893229119
 21
137.8449430806289
 31
0.0
  0
ARC
  5
705
330
2
100
AcDbEntity
  8
0
100
AcDbCircle
 10
383.261290322912
 20
134.8449430806289
 30
0.0
 40
5.0
100
AcDbArc
 50
45.00017900000002
 51
74.00828549988607
  0
LINE
  5
706
330
2
100
AcDbEntity
  8
0
100
AcDbLine
 10
63.83228932291206
 20
283.535327935624
 30
0.0
 11
110.332293322912
 21
283.535327935624
 31
0.0
  0
LINE
  5
707
330
2
100
AcDbEntity
  8
0
100
AcDbLine
 10
63.83228932291206
 20
333.535327935624
 30
0.0
 11
110.332293322912
 21
333.535327935624
 31
0.0
  0
LINE
  5
708
330
2
100
AcDbEntity
  8
0
100
AcDbLine
 10
66.33228932291206
 20
349.535327935624
 30
0.0
 11
110.332293322912
 21
349.535327935624
 31
0.0
  0
LINE
  5
709
330
2
100
AcDbEntity
  8
CENTER
100
AcDbLine
 10
47.02604532291206
 20
309.5353279356241
 30
0.0
 11
270.0822893229119
 21
309.5353279356241
 31
0.0
  0
ARC
  5
70A
330
2
100
AcDbEntity
  8
0
100
AcDbCircle
 10
66.33228932291206
 20
344.535327935624
 30
0.0
 40
5.0
100
AcDbArc
 50
90.0
 51
180.0
  0
LINE
  5
70B
330
2
100
AcDbEntity
  8
0
100
AcDbLine
 10
119.832293322912
 20
347.535327935624
 30
0.0
 11
233.832289322912
 21
347.535327935624
 31
0.0
  0
LINE
  5
70C
330
2
100
AcDbEntity
  8
0
100
AcDbLine
 10
160.8321863229119
 20
286.5353279356241
 30
0.0
 11
233.832289322912
 21
286.5353279356241
 31
0.0
  0
LINE
  5
70D
330
2
100
AcDbEntity
  8
0
100
AcDbLine
 10
160.8321863229121
 20
332.5353279356241
 30
0.0
 11
233.832289322912
 21
332.5353279356241
 31
0.0
  0
LINE
  5
70E
330
2
100
AcDbEntity
  8
0
100
AcDbLine
 10
119.832293322912
 20
347.535327935624
 30
0.0
 11
119.832293322912
 21
334.5353279356241
 31
0.0
  0
LINE
  5
713
330
2
100
AcDbEntity
  8
0
100
AcDbLine
 10
110.832286322912
 20
286.5353279356241
 30
0.0
 11
110.332293322912
 21
286.5353279356241
 31
0.0
  0
LINE
  5
71E
330
2
100
AcDbEntity
  8
0
100
AcDbLine
 10
110.832286322912
 20
332.5353279356241
 30
0.0
 11
110.332293322912
 21
332.5353279356241
 31
0.0
  0
LINE
  5
71F
330
2
100
AcDbEntity
  8
0
100
AcDbLine
 10
119.832293322912
 20
347.535327935624
 30
0.0
 11
110.332293322912
 21
347.535327935624
 31
0.0
  0
ARC
  5
720
330
2
100
AcDbEntity
  8
HIDS
100
AcDbCircle
 10
226.332289322912
 20
347.535327935624
 30
0.0
 40
3.25
100
AcDbArc
 50
180.0
 51
0.0
  0
ARC
  5
721
330
2
100
AcDbEntity
  8
HIDS
100
AcDbCircle
 10
191.332293322912
 20
347.535327935624
 30
0.0
 40
3.25
100
AcDbArc
 50
180.0
 51
0.0
  0
LINE
  5
722
330
2
100
AcDbEntity
  8
CENTER
100
AcDbLine
 10
191.332293322912
 20
353.160327935624
 30
0.0
 11
191.332293322912
 21
342.285327935624
 31
0.0
  0
LINE
  5
723
330
2
100
AcDbEntity
  8
CENTER
100
AcDbLine
 10
226.332289322912
 20
353.660327935624
 30
0.0
 11
226.332289322912
 21
341.285327935624
 31
0.0
  0
LINE
  5
724
330
2
100
AcDbEntity
  8
0
100
AcDbLine
 10
237.3322893229119
 20
293.0353279356241
 30
0.0
 11
237.3322893229119
 21
326.0353279356241
 31
0.0
  0
LINE
  5
725
330
2
100
AcDbEntity
  8
0
100
AcDbLine
 10
239.3322893229119
 20
317.035327935624
 30
0.0
 11
239.3322893229119
 21
302.035327935624
 31
0.0
  0
LINE
  5
726
330
2
100
AcDbEntity
  8
0
100
AcDbLine
 10
261.3322893229119
 20
302.035327935624
 30
0.0
 11
261.3322893229119
 21
315.5353279356241
 31
0.0
  0
LINE
  5
727
330
2
100
AcDbEntity
  8
0
100
AcDbLine
 10
241.3322893229119
 20
303.878330935624
 30
0.0
 11
261.3322893229119
 21
303.878330935624
 31
0.0
  0
LINE
  5
728
330
2
100
AcDbEntity
  8
0
100
AcDbLine
 10
241.3322893229119
 20
302.035327935624
 30
0.0
 11
261.3322893229119
 21
302.035327935624
 31
0.0
  0
ARC
  5
729
330
2
100
AcDbEntity
  8
0
100
AcDbCircle
 10
236.332289322912
 20
293.0353279356241
 30
0.0
 40
1.0
100
AcDbArc
 50
270.0
 51
0.0
  0
LINE
  5
72A
330
2
100
AcDbEntity
  8
0
100
AcDbLine
 10
236.332289322912
 20
292.035327935624
 30
0.0
 11
233.832289322912
 21
292.035327935624
 31
0.0
  0
LINE
  5
72B
330
2
100
AcDbEntity
  8
0
100
AcDbLine
 10
237.3322893229119
 20
302.035327935624
 30
0.0
 11
239.3322893229119
 21
302.035327935624
 31
0.0
  0
LINE
  5
72C
330
2
100
AcDbEntity
  8
0
100
AcDbLine
 10
241.3322893229119
 20
303.878330935624
 30
0.0
 11
241.3322893229119
 21
302.035327935624
 31
0.0
  0
LINE
  5
72D
330
2
100
AcDbEntity
  8
0
100
AcDbLine
 10
239.3322893229119
 20
303.535327935624
 30
0.0
 11
241.3322893229119
 21
303.535327935624
 31
0.0
  0
LINE
  5
72E
330
2
100
AcDbEntity
  8
0
100
AcDbLine
 10
239.3322893229119
 20
315.5353279356241
 30
0.0
 11
261.3322893229119
 21
315.5353279356241
 31
0.0
  0
LINE
  5
72F
330
2
100
AcDbEntity
  8
0
100
AcDbLine
 10
237.3322893229119
 20
317.035327935624
 30
0.0
 11
239.3322893229119
 21
317.035327935624
 31
0.0
  0
ARC
  5
730
330
2
100
AcDbEntity
  8
0
100
AcDbCircle
 10
236.332289322912
 20
326.0353279356241
 30
0.0
 40
1.0
100
AcDbArc
 50
0.0
 51
90.0
  0
LINE
  5
731
330
2
100
AcDbEntity
  8
0
100
AcDbLine
 10
236.332289322912
 20
327.035327935624
 30
0.0
 11
233.832289322912
 21
327.035327935624
 31
0.0
  0
LINE
  5
732
330
2
100
AcDbEntity
  8
0
100
AcDbLine
 10
185.832293322912
 20
354.535327935624
 30
0.0
 11
231.832289322912
 21
354.535327935624
 31
0.0
  0
ARC
  5
733
330
2
100
AcDbEntity
  8
0
100
AcDbCircle
 10
185.832293322912
 20
352.535327935624
 30
0.0
 40
2.0
100
AcDbArc
 50
90.0
 51
180.0
  0
LINE
  5
734
330
2
100
AcDbEntity
  8
0
100
AcDbLine
 10
183.832293322912
 20
352.535327935624
 30
0.0
 11
183.832293322912
 21
347.535327935624
 31
0.0
  0
LINE
  5
735
330
2
100
AcDbEntity
  8
CENTER
100
AcDbLine
 10
186.082293322912
 20
347.535327935624
 30
0.0
 11
196.332293322912
 21
347.535327935624
 31
0.0
  0
ARC
  5
736
330
2
100
AcDbEntity
  8
0
100
AcDbCircle
 10
191.332293322912
 20
347.535327935624
 30
0.0
 40
3.25
100
AcDbArc
 50
0.0
 51
180.0
  0
LINE
  5
737
330
2
100
AcDbEntity
  8
0
100
AcDbLine
 10
201.332293322912
 20
353.910327935624
 30
0.0
 11
201.332293322912
 21
347.535327935624
 31
0.0
  0
LINE
  5
738
330
2
100
AcDbEntity
  8
0
100
AcDbLine
 10
216.332293322912
 20
353.910327935624
 30
0.0
 11
216.332293322912
 21
347.535327935624
 31
0.0
  0
ARC
  5
739
330
2
100
AcDbEntity
  8
0
100
AcDbCircle
 10
231.832289322912
 20
352.535327935624
 30
0.0
 40
2.0
100
AcDbArc
 50
0.0
 51
90.0
  0
LINE
  5
73A
330
2
100
AcDbEntity
  8
CENTER
100
AcDbLine
 10
221.082289322912
 20
347.535327935624
 30
0.0
 11
231.707289322912
 21
347.535327935624
 31
0.0
  0
ARC
  5
73B
330
2
100
AcDbEntity
  8
0
100
AcDbCircle
 10
226.332289322912
 20
347.535327935624
 30
0.0
 40
3.25
100
AcDbArc
 50
0.0
 51
180.0
  0
TEXT
  5
73C
330
2
100
AcDbEntity
  8
TITLE
100
AcDbText
 10
291.3909445525254
 20
298.4314745349461
 30
0.0
 40
5.0
  1
GLMN-12-5~60-T40T
100
AcDbText
  0
TEXT
  5
73D
330
2
100
AcDbEntity
  8
TITLE
100
AcDbText
 10
291.3909445525254
 20
332.7171888206605
 30
0.0
 40
5.0
  1
GLMN-12-5~240-T15T
100
AcDbText
  0
TEXT
  5
73E
330
2
100
AcDbEntity
  8
TITLE
100
AcDbText
 10
400.9090527967559
 20
332.7171888206605
 30
0.0
 40
5.0
  1
GLMN-12-5~240-S15T
100
AcDbText
  0
TEXT
  5
740
330
2
100
AcDbEntity
  8
TITLE
100
AcDbText
 10
400.9090527967559
 20
289.8600459635176
 30
0.0
 40
5.0
  1
GLMN-12-5~60-S40WT
100
AcDbText
  0
TEXT
  5
741
330
2
100
AcDbEntity
  8
TITLE
100
AcDbText
 10
291.3909445525254
 20
289.8600459635176
 30
0.0
 40
5.0
  1
GLMN-12-5~60-T40WT
100
AcDbText
  0
TEXT
  5
742
330
2
100
AcDbEntity
  8
TITLE
100
AcDbText
 10
400.9090527967559
 20
307.0029031063747
 30
0.0
 40
5.0
  1
GLMN-12-5~120-S25WT
100
AcDbText
  0
TEXT
  5
743
330
2
100
AcDbEntity
  8
TITLE
100
AcDbText
 10
291.3909445525254
 20
307.0029031063747
 30
0.0
 40
5.0
  1
GLMN-12-5~120-T25WT
100
AcDbText
  0
TEXT
  5
744
330
2
100
AcDbEntity
  8
TITLE
100
AcDbText
 10
400.9090527967559
 20
324.1457602492319
 30
0.0
 40
5.0
  1
GLMN-12-5~240-S15WT
100
AcDbText
  0
TEXT
  5
745
330
2
100
AcDbEntity
  8
TITLE
100
AcDbText
 10
291.3909445525254
 20
324.1457602492319
 30
0.0
 40
5.0
  1
GLMN-12-5~240-T15WT
100
AcDbText
  0
LINE
  5
124A
330
2
100
AcDbEntity
  8
0
100
AcDbLine
 10
338.3322893229119
 20
139.3449430806289
 30
0.0
 11
384.332274322912
 21
139.3449430806289
 31
0.0
  0
LINE
  5
124B
330
2
100
AcDbEntity
  8
0
100
AcDbLine
 10
336.3322893229119
 20
151.3449430806289
 30
0.0
 11
386.3322743229119
 21
151.3449430806289
 31
0.0
  0
LINE
  5
124C
330
2
100
AcDbEntity
  8
0
100
AcDbLine
 10
336.3322893229119
 20
141.3449430806289
 30
0.0
 11
386.3322743229119
 21
141.3449430806289
 31
0.0
  0
LINE
  5
124D
330
2
100
AcDbEntity
  8
0
100
AcDbLine
 10
337.3322893229119
 20
170.3449410806289
 30
0.0
 11
381.4943805068858
 21
170.3449410806288
 31
0.0
  0
LINE
  5
124E
330
2
100
AcDbEntity
  8
0
100
AcDbLine
 10
336.3322893229119
 20
169.3449410806289
 30
0.0
 11
378.8322743229119
 21
169.3449410806289
 31
0.0
  0
LINE
  5
1250
330
2
100
AcDbEntity
  8
CENTER
100
AcDbLine
 10
331.2886823417034
 20
160.8449410806289
 30
0.0
 11
391.3758963041205
 21
160.8449410806289
 31
0.0
  0
LINE
  5
1252
330
2
100
AcDbEntity
  8
0
100
AcDbLine
 10
115.6702021389376
 20
170.3449410806289
 30
0.0
 11
159.832293322912
 21
170.3449410806289
 31
0.0
  0
LINE
  5
1253
330
2
100
AcDbEntity
  8
0
100
AcDbLine
 10
112.332286322912
 20
139.3449430806289
 30
0.0
 11
158.832293322912
 21
139.3449430806289
 31
0.0
  0
LINE
  5
1254
330
2
100
AcDbEntity
  8
0
100
AcDbLine
 10
108.832286322912
 20
151.3449430806289
 30
0.0
 11
160.832293322912
 21
151.3449430806289
 31
0.0
  0
LINE
  5
1255
330
2
100
AcDbEntity
  8
0
100
AcDbLine
 10
110.832286322912
 20
141.3449430806289
 30
0.0
 11
160.832293322912
 21
141.3449430806289
 31
0.0
  0
LINE
  5
1256
330
2
100
AcDbEntity
  8
0
100
AcDbLine
 10
118.332286751483
 20
169.3449410806289
 30
0.0
 11
160.8323003229121
 21
169.3449410806289
 31
0.0
  0
LINE
  5
1257
330
2
100
AcDbEntity
  8
CENTER
100
AcDbLine
 10
102.888537322912
 20
160.8449410806289
 30
0.0
 11
164.7845962866501
 21
160.8449410806289
 31
0.0
  0
LINE
  5
125B
330
2
100
AcDbEntity
  8
CENTER
100
AcDbLine
 10
135.832293322912
 20
134.6512420806289
 30
0.0
 11
135.832293322912
 21
175.7324410806289
 31
0.0
  0
LINE
  5
125C
330
2
100
AcDbEntity
  8
0
100
AcDbLine
 10
105.332301322912
 20
164.8449410806289
 30
0.0
 11
108.832301322912
 21
166.3449410806289
 31
0.0
  0
LINE
  5
125D
330
2
100
AcDbEntity
  8
0
100
AcDbLine
 10
110.832286322912
 20
169.3449410806289
 30
0.0
 11
110.832286322912
 21
141.3449430806289
 31
0.0
  0
LINE
  5
125E
330
2
100
AcDbEntity
  8
0
100
AcDbLine
 10
108.832301322912
 20
167.3449410806289
 30
0.0
 11
108.832286322912
 21
151.3449430806289
 31
0.0
  0
LINE
  5
125F
330
2
100
AcDbEntity
  8
0
100
AcDbLine
 10
110.832286322912
 20
141.3449430806289
 30
0.0
 11
112.832286322912
 21
139.3449430806289
 31
0.0
  0
LINE
  5
1260
330
2
100
AcDbEntity
  8
0
100
AcDbLine
 10
112.332286322912
 20
139.3449430806289
 30
0.0
 11
112.332286322912
 21
137.8449430806289
 31
0.0
  0
LINE
  5
1261
330
2
100
AcDbEntity
  8
0
100
AcDbLine
 10
105.332286322912
 20
156.8449410806289
 30
0.0
 11
108.832286322912
 21
155.3449410806289
 31
0.0
  0
LINE
  5
1262
330
2
100
AcDbEntity
  8
0
100
AcDbLine
 10
105.332301322912
 20
164.8449410806289
 30
0.0
 11
105.332301322912
 21
156.8449410806289
 31
0.0
  0
ARC
  5
1263
330
2
100
AcDbEntity
  8
0
100
AcDbCircle
 10
116.4393040765049
 20
168.8510538048751
 30
0.0
 40
1.3
100
AcDbArc
 50
5.000000000000026
 51
74.11914999172198
  0
LINE
  5
1264
330
2
100
AcDbEntity
  8
0
100
AcDbLine
 10
118.332286751483
 20
169.8449410806288
 30
0.0
 11
117.2772707125323
 21
169.8449410806288
 31
0.0
  0
LINE
  5
1265
330
2
100
AcDbEntity
  8
0
100
AcDbLine
 10
118.332286751483
 20
167.8449410806288
 30
0.0
 11
110.832286751483
 21
167.8449410806288
 31
0.0
  0
ARC
  5
1266
330
2
100
AcDbEntity
  8
0
100
AcDbCircle
 10
114.3322933229121
 20
161.4449410806288
 30
0.0
 40
9.0
100
AcDbArc
 50
74.11914999172198
 51
105.880850008278
  0
SPLINE
  5
1267
330
2
100
AcDbEntity
  8
0
100
AcDbSpline
210
0.0
220
0.0
230
1.0
 70
     8
 71
     3
 72
    11
 73
     7
 74
     0
 42
0.0000000001
 43
0.0000000001
 40
0.0
 40
0.0
 40
0.0
 40
0.0
 40
0.4601364636755307
 40
1.04988694485363
 40
1.713742833862792
 40
2.320347933405154
 40
2.320347933405154
 40
2.320347933405154
 40
2.320347933405179
 10
114.0447933224571
 20
168.9279410806288
 30
0.0
 10
114.0223756653492
 20
169.0829645203087
 30
0.0
 10
113.9712256101159
 20
169.4366793382262
 30
0.0
 10
113.5353404485823
 20
169.8614070098279
 30
0.0
 10
112.930289733575
 20
170.0805941897937
 30
0.0
 10
112.5051051093991
 20
170.0116028901831
 30
0.0
 10
112.3025534997481
 20
169.9973826180064
 30
0.0
  0
LINE
  5
1268
330
2
100
AcDbEntity
  8
0
100
AcDbLine
 10
112.3025534997481
 20
169.9973826180064
 30
0.0
 11
112.2822933229121
 21
170.208359363468
 31
0.0
  0
LINE
  5
1269
330
2
100
AcDbEntity
  8
0
100
AcDbLine
 10
110.8322933229121
 20
167.8449410806288
 30
0.0
 11
110.9302294617999
 21
168.9643562704471
 31
0.0
  0
ARC
  5
126A
330
2
100
AcDbEntity
  8
0
100
AcDbCircle
 10
112.2252825693191
 20
168.8510538048751
 30
0.0
 40
1.3
100
AcDbArc
 50
105.880850008278
 51
174.9999999999999
  0
LINE
  5
126B
330
2
100
AcDbEntity
  8
0
100
AcDbLine
 10
111.832286751483
 20
170.3449410806288
 30
0.0
 11
110.832286322912
 21
169.3449410806289
 31
0.0
  0
LINE
  5
126C
330
2
100
AcDbEntity
  8
0
100
AcDbLine
 10
110.832286322912
 20
169.3449410806289
 30
0.0
 11
111.832286322912
 21
170.3449410806289
 31
0.0
  0
LINE
  5
126D
330
2
100
AcDbEntity
  8
0
100
AcDbLine
 10
109.832286322912
 20
168.3449410806289
 30
0.0
 11
110.832286322912
 21
168.3449410806289
 31
0.0
  0
ARC
  5
126E
330
2
100
AcDbEntity
  8
0
100
AcDbCircle
 10
109.832301322912
 20
167.3449410806289
 30
0.0
 40
1.0
100
AcDbArc
 50
90.0
 51
180.0
  0
LINE
  5
126F
330
2
100
AcDbEntity
  8
0
100
AcDbLine
 10
111.832286322912
 20
170.3449410806289
 30
0.0
 11
112.9943845068867
 21
170.3449410806289
 31
0.0
  0
LINE
  5
1270
330
2
100
AcDbEntity
  8
0
100
AcDbLine
 10
117.832293322912
 20
167.8449410806288
 30
0.0
 11
117.7343571840242
 21
168.9643562704471
 31
0.0
  0
LINE
  5
1271
330
2
100
AcDbEntity
  8
0
100
AcDbLine
 10
116.3620331460762
 20
169.9973826180064
 30
0.0
 11
116.3822933229122
 21
170.208359363468
 31
0.0
  0
LINE
  5
1272
330
2
100
AcDbEntity
  8
0
100
AcDbLine
 10
114.6197933233671
 20
168.9279410806288
 30
0.0
 11
114.0447933224571
 21
168.9279410806288
 31
0.0
  0
SPLINE
  5
1273
330
2
100
AcDbEntity
  8
0
100
AcDbSpline
210
0.0
220
0.0
230
1.0
 70
     8
 71
     3
 72
    11
 73
     7
 74
     0
 42
0.0000000001
 43
0.0000000001
 40
0.0
 40
0.0
 40
0.0
 40
0.0
 40
0.4601364636755307
 40
1.04988694485363
 40
1.713742833862792
 40
2.320347933405154
 40
2.320347933405154
 40
2.320347933405154
 40
2.320347933405179
 10
114.6197933233671
 20
168.9279410806288
 30
0.0
 10
114.642210980475
 20
169.0829645203087
 30
0.0
 10
114.6933610357083
 20
169.4366793382262
 30
0.0
 10
115.1292461972419
 20
169.8614070098279
 30
0.0
 10
115.7342969122493
 20
170.0805941897937
 30
0.0
 10
116.1594815364252
 20
170.0116028901831
 30
0.0
 10
116.3620331460762
 20
169.9973826180064
 30
0.0
  0
LINE
  5
1274
330
2
100
AcDbEntity
  8
0
100
AcDbLine
 10
118.832286751483
 20
170.3449410806288
 30
0.0
 11
118.332286751483
 21
169.8449410806288
 31
0.0
  0
LINE
  5
1275
330
2
100
AcDbEntity
  8
0
100
AcDbLine
 10
118.332286751483
 20
167.8449410806288
 30
0.0
 11
118.332286751483
 21
169.8449410806288
 31
0.0
  0
LINE
  5
1277
330
2
100
AcDbEntity
  8
0
100
AcDbLine
 10
160.832293322912
 20
169.3449410806289
 30
0.0
 11
160.832293322912
 21
141.3449430806289
 31
0.0
  0
LINE
  5
1278
330
2
100
AcDbEntity
  8
0
100
AcDbLine
 10
158.832293322912
 20
139.3449430806289
 30
0.0
 11
160.832293322912
 21
141.3449430806289
 31
0.0
  0
LINE
  5
1279
330
2
100
AcDbEntity
  8
0
100
AcDbLine
 10
158.332293322912
 20
139.3449430806289
 30
0.0
 11
158.332293322912
 21
137.8449430806289
 31
0.0
  0
LINE
  5
127A
330
2
100
AcDbEntity
  8
0
100
AcDbLine
 10
159.8323003229121
 20
170.3449410806289
 30
0.0
 11
160.8323003229121
 21
169.3449410806289
 31
0.0
  0
LINE
  5
127B
330
2
100
AcDbEntity
  8
0
100
AcDbLine
 10
336.3322893229119
 20
169.3449410806289
 30
0.0
 11
336.3322893229119
 21
141.3449430806289
 31
0.0
  0
LINE
  5
127C
330
2
100
AcDbEntity
  8
0
100
AcDbLine
 10
336.3322893229119
 20
141.3449430806289
 30
0.0
 11
338.3322893229119
 21
139.3449430806289
 31
0.0
  0
LINE
  5
127D
330
2
100
AcDbEntity
  8
0
100
AcDbLine
 10
338.8322893229119
 20
139.3449430806289
 30
0.0
 11
338.8322893229119
 21
136.8009207361612
 31
0.0
  0
LINE
  5
127E
330
2
100
AcDbEntity
  8
0
100
AcDbLine
 10
337.3322893229119
 20
170.3449410806289
 30
0.0
 11
336.3322893229119
 21
169.3449410806289
 31
0.0
  0
LINE
  5
127F
330
2
100
AcDbEntity
  8
0
100
AcDbLine
 10
158.432391322912
 20
285.935321935624
 30
0.0
 11
118.332286322912
 21
285.935321935624
 31
0.0
  0
LINE
  5
1280
330
2
100
AcDbEntity
  8
0
100
AcDbLine
 10
112.832286322912
 20
284.535327935624
 30
0.0
 11
158.8321863229119
 21
284.535327935624
 31
0.0
  0
LINE
  5
1282
330
2
100
AcDbEntity
  8
0
100
AcDbLine
 10
112.832286322912
 20
334.5353279356241
 30
0.0
 11
158.832186322912
 21
334.535327935624
 31
0.0
  0
LINE
  5
1283
330
2
100
AcDbEntity
  8
0
100
AcDbLine
 10
113.232287322912
 20
333.135318935624
 30
0.0
 11
153.3321863229121
 21
333.135318935624
 31
0.0
  0
LINE
  5
1284
330
2
100
AcDbEntity
  8
0
100
AcDbLine
 10
110.832286322912
 20
332.5353279356241
 30
0.0
 11
110.832286322912
 21
286.5353279356241
 31
0.0
  0
LINE
  5
1285
330
2
100
AcDbEntity
  8
CENTER
100
AcDbLine
 10
135.832293322912
 20
339.9245538797318
 30
0.0
 11
135.832293322912
 21
278.785327935624
 31
0.0
  0
LINE
  5
1286
330
2
100
AcDbEntity
  8
0
100
AcDbLine
 10
112.232280322912
 20
332.135318935624
 30
0.0
 11
112.232287322912
 21
292.035327935624
 31
0.0
  0
ARC
  5
1287
330
2
100
AcDbEntity
  8
0
100
AcDbCircle
 10
114.3323163229119
 20
288.035327935624
 30
0.0
 40
4.0
100
AcDbArc
 50
0.0
 51
90.0
  0
ARC
  5
1288
330
2
100
AcDbEntity
  8
0
100
AcDbCircle
 10
112.302616322912
 20
290.065027935624
 30
0.0
 40
1.742199999999999
100
AcDbArc
 50
269.9986903345002
 51
0.0013096654997424
  0
ARC
  5
1289
330
2
100
AcDbEntity
  8
0
100
AcDbCircle
 10
112.302616322912
 20
286.0056279356241
 30
0.0
 40
1.742199999999999
100
AcDbArc
 50
359.9986903345002
 51
90.00130966549322
  0
CIRCLE
  5
128A
330
2
100
AcDbEntity
  8
0
100
AcDbCircle
 10
114.3323163229119
 20
288.035327935624
 30
0.0
 40
3.500000000000028
  0
LINE
  5
128B
330
2
100
AcDbEntity
  8
0
100
AcDbLine
 10
114.3323163229121
 20
292.035327935624
 30
0.0
 11
110.8323163229121
 21
292.035327935624
 31
0.0
  0
ARC
  5
128C
330
2
100
AcDbEntity
  8
0
100
AcDbCircle
 10
114.3323163229119
 20
288.035327935624
 30
0.0
 40
2.049999999999998
100
AcDbArc
 50
180.0
 51
188.0619600839816
  0
ARC
  5
128D
330
2
100
AcDbEntity
  8
0
100
AcDbCircle
 10
114.3323163229119
 20
288.035327935624
 30
0.0
 40
2.049999999999998
100
AcDbArc
 50
171.9380399160183
 51
180.0
  0
LINE
  5
128E
330
2
100
AcDbEntity
  8
0
100
AcDbLine
 10
110.832286322912
 20
286.5353279356241
 30
0.0
 11
112.832286322912
 21
284.535327935624
 31
0.0
  0
LINE
  5
128F
330
2
100
AcDbEntity
  8
0
100
AcDbLine
 10
110.832286322912
 20
286.5353279356241
 30
0.0
 11
112.832286322912
 21
284.535327935624
 31
0.0
  0
ARC
  5
1290
330
2
100
AcDbEntity
  8
0
100
AcDbCircle
 10
116.3620163229121
 20
290.065027935624
 30
0.0
 40
1.742199999999999
100
AcDbArc
 50
179.9986903345002
 51
270.0013096654932
  0
ARC
  5
1291
330
2
100
AcDbEntity
  8
0
100
AcDbCircle
 10
114.3323163229119
 20
288.035327935624
 30
0.0
 40
2.049999999999998
100
AcDbArc
 50
351.9380399160183
 51
0.0
  0
ARC
  5
1292
330
2
100
AcDbEntity
  8
0
100
AcDbCircle
 10
116.3620163229121
 20
286.0056279356241
 30
0.0
 40
1.742199999999999
100
AcDbArc
 50
89.99869033450025
 51
180.0013096654997
  0
ARC
  5
1293
330
2
100
AcDbEntity
  8
0
100
AcDbCircle
 10
114.3323163229119
 20
288.035327935624
 30
0.0
 40
2.049999999999998
100
AcDbArc
 50
81.93803991601813
 51
90.0
  0
ARC
  5
1294
330
2
100
AcDbEntity
  8
0
100
AcDbCircle
 10
114.3323163229119
 20
288.035327935624
 30
0.0
 40
2.049999999999998
100
AcDbArc
 50
0.0
 51
8.061960083982455
  0
ARC
  5
1295
330
2
100
AcDbEntity
  8
0
100
AcDbCircle
 10
114.3323163229119
 20
288.035327935624
 30
0.0
 40
2.049999999999998
100
AcDbArc
 50
90.0
 51
98.06196008398188
  0
ARC
  5
1296
330
2
100
AcDbEntity
  8
0
100
AcDbCircle
 10
114.3323163229119
 20
288.035327935624
 30
0.0
 40
2.049999999999998
100
AcDbArc
 50
270.0
 51
278.0619600839818
  0
ARC
  5
1297
330
2
100
AcDbEntity
  8
0
100
AcDbCircle
 10
114.3323163229119
 20
288.035327935624
 30
0.0
 40
2.049999999999998
100
AcDbArc
 50
261.9380399160181
 51
270.0
  0
LINE
  5
1298
330
2
100
AcDbEntity
  8
0
100
AcDbLine
 10
108.832286322912
 20
304.035327935624
 30
0.0
 11
105.332286322912
 21
307.5353279356241
 31
0.0
  0
LINE
  5
1299
330
2
100
AcDbEntity
  8
0
100
AcDbLine
 10
105.332286322912
 20
311.5353279356241
 30
0.0
 11
108.832286322912
 21
315.035327935624
 31
0.0
  0
LINE
  5
129A
330
2
100
AcDbEntity
  8
0
100
AcDbLine
 10
105.332286322912
 20
311.5353279356241
 30
0.0
 11
105.332286322912
 21
307.5353279356241
 31
0.0
  0
LINE
  5
129B
330
2
100
AcDbEntity
  8
0
100
AcDbLine
 10
108.832286322912
 20
303.0353279356241
 30
0.0
 11
108.832286322912
 21
316.035327935624
 31
0.0
  0
ARC
  5
129C
330
2
100
AcDbEntity
  8
0
100
AcDbCircle
 10
109.8322863229119
 20
303.0353279356241
 30
0.0
 40
1.0
100
AcDbArc
 50
180.0
 51
270.0
  0
LINE
  5
129D
330
2
100
AcDbEntity
  8
0
100
AcDbLine
 10
109.832286322912
 20
302.035327935624
 30
0.0
 11
110.832286322912
 21
302.035327935624
 31
0.0
  0
ARC
  5
129E
330
2
100
AcDbEntity
  8
0
100
AcDbCircle
 10
109.832301322912
 20
316.035327935624
 30
0.0
 40
1.0
100
AcDbArc
 50
90.0
 51
180.0
  0
LINE
  5
129F
330
2
100
AcDbEntity
  8
0
100
AcDbLine
 10
109.832286322912
 20
317.035327935624
 30
0.0
 11
110.832286322912
 21
317.035327935624
 31
0.0
  0
LINE
  5
12A0
330
2
100
AcDbEntity
  8
0
100
AcDbLine
 10
118.332286322912
 20
288.035327935624
 30
0.0
 11
118.332286322912
 21
284.535526935624
 31
0.0
  0
LINE
  5
12A1
330
2
100
AcDbEntity
  8
0
100
AcDbLine
 10
112.232280322912
 20
332.135318935624
 30
0.0
 11
113.232287322912
 21
333.135318935624
 31
0.0
  0
LINE
  5
12A2
330
2
100
AcDbEntity
  8
0
100
AcDbLine
 10
110.832286322912
 20
332.5353279356241
 30
0.0
 11
112.832286322912
 21
334.5353279356241
 31
0.0
  0
LINE
  5
12A3
330
2
100
AcDbEntity
  8
0
100
AcDbLine
 10
160.8321863229121
 20
332.535327935624
 30
0.0
 11
160.8321863229119
 21
286.5353279356241
 31
0.0
  0
LINE
  5
12A4
330
2
100
AcDbEntity
  8
0
100
AcDbLine
 10
159.432391322912
 20
286.935321935624
 30
0.0
 11
159.432391322912
 21
327.035327935624
 31
0.0
  0
LINE
  5
12A5
330
2
100
AcDbEntity
  8
0
100
AcDbLine
 10
160.832385322912
 20
286.5353279356241
 30
0.0
 11
158.8321863229119
 21
284.535327935624
 31
0.0
  0
LINE
  5
12A6
330
2
100
AcDbEntity
  8
0
100
AcDbLine
 10
160.8321863229119
 20
286.5353279356241
 30
0.0
 11
158.8321863229119
 21
284.535327935624
 31
0.0
  0
LINE
  5
12A7
330
2
100
AcDbEntity
  8
0
100
AcDbLine
 10
160.8321863229119
 20
286.5353279356241
 30
0.0
 11
158.8321863229119
 21
284.535327935624
 31
0.0
  0
LINE
  5
12A8
330
2
100
AcDbEntity
  8
0
100
AcDbLine
 10
158.432391322912
 20
285.935321935624
 30
0.0
 11
159.432391322912
 21
286.935321935624
 31
0.0
  0
ARC
  5
12A9
330
2
100
AcDbEntity
  8
0
100
AcDbCircle
 10
155.3026853229121
 20
333.065027935624
 30
0.0
 40
1.742199999999999
100
AcDbArc
 50
269.9986903345002
 51
0.0013096654997424
  0
ARC
  5
12AA
330
2
100
AcDbEntity
  8
0
100
AcDbCircle
 10
155.3026853229121
 20
329.005627935624
 30
0.0
 40
1.742199999999999
100
AcDbArc
 50
359.9986903345002
 51
90.00130966549322
  0
CIRCLE
  5
12AB
330
2
100
AcDbEntity
  8
0
100
AcDbCircle
 10
157.332385322912
 20
331.035327935624
 30
0.0
 40
3.500000000000028
  0
ARC
  5
12AC
330
2
100
AcDbEntity
  8
0
100
AcDbCircle
 10
157.332385322912
 20
331.035327935624
 30
0.0
 40
4.0
100
AcDbArc
 50
180.0
 51
270.0
  0
LINE
  5
12AD
330
2
100
AcDbEntity
  8
0
100
AcDbLine
 10
153.3321863229121
 20
331.035327935624
 30
0.0
 11
153.3321863229121
 21
334.535327935624
 31
0.0
  0
ARC
  5
12AE
330
2
100
AcDbEntity
  8
0
100
AcDbCircle
 10
157.332385322912
 20
331.035327935624
 30
0.0
 40
2.049999999999998
100
AcDbArc
 50
180.0
 51
188.0619600839816
  0
ARC
  5
12AF
330
2
100
AcDbEntity
  8
0
100
AcDbCircle
 10
157.332385322912
 20
331.035327935624
 30
0.0
 40
2.049999999999998
100
AcDbArc
 50
171.9380399160183
 51
180.0
  0
ARC
  5
12B0
330
2
100
AcDbEntity
  8
0
100
AcDbCircle
 10
159.3620853229122
 20
333.065027935624
 30
0.0
 40
1.742199999999999
100
AcDbArc
 50
179.9986903345002
 51
270.0013096654932
  0
ARC
  5
12B1
330
2
100
AcDbEntity
  8
0
100
AcDbCircle
 10
157.332385322912
 20
331.035327935624
 30
0.0
 40
2.049999999999998
100
AcDbArc
 50
351.9380399160183
 51
0.0
  0
ARC
  5
12B2
330
2
100
AcDbEntity
  8
0
100
AcDbCircle
 10
159.3620853229122
 20
329.005627935624
 30
0.0
 40
1.742199999999999
100
AcDbArc
 50
89.99869033450025
 51
180.0013096654997
  0
ARC
  5
12B3
330
2
100
AcDbEntity
  8
0
100
AcDbCircle
 10
157.332385322912
 20
331.035327935624
 30
0.0
 40
2.049999999999998
100
AcDbArc
 50
0.0
 51
8.061960083982455
  0
ARC
  5
12B4
330
2
100
AcDbEntity
  8
0
100
AcDbCircle
 10
157.332385322912
 20
331.035327935624
 30
0.0
 40
2.049999999999998
100
AcDbArc
 50
270.0
 51
278.0619600839818
  0
ARC
  5
12B5
330
2
100
AcDbEntity
  8
0
100
AcDbCircle
 10
157.332385322912
 20
331.035327935624
 30
0.0
 40
2.049999999999998
100
AcDbArc
 50
261.9380399160181
 51
270.0
  0
LINE
  5
12B6
330
2
100
AcDbEntity
  8
0
100
AcDbLine
 10
157.3321863229121
 20
327.035327935624
 30
0.0
 11
160.8321863229121
 21
327.035327935624
 31
0.0
  0
ARC
  5
12B7
330
2
100
AcDbEntity
  8
0
100
AcDbCircle
 10
157.332385322912
 20
331.035327935624
 30
0.0
 40
2.049999999999998
100
AcDbArc
 50
81.93803991601813
 51
90.0
  0
ARC
  5
12B8
330
2
100
AcDbEntity
  8
0
100
AcDbCircle
 10
157.332385322912
 20
331.035327935624
 30
0.0
 40
2.049999999999998
100
AcDbArc
 50
90.0
 51
98.06196008398188
  0
LINE
  5
12B9
330
2
100
AcDbEntity
  8
0
100
AcDbLine
 10
158.832186322912
 20
334.535327935624
 30
0.0
 11
160.8321863229121
 21
332.535327935624
 31
0.0
  0
LINE
  5
12BA
330
2
100
AcDbEntity
  8
0
100
AcDbLine
 10
160.8321863229121
 20
332.535327935624
 30
0.0
 11
158.832186322912
 21
334.535327935624
 31
0.0
  0
ARC
  5
12BB
330
2
100
AcDbEntity
  8
0
100
AcDbCircle
 10
380.725278569319
 20
168.8510538048752
 30
0.0
 40
1.3
100
AcDbArc
 50
105.880850008278
 51
174.9999999999999
  0
LINE
  5
12BC
330
2
100
AcDbEntity
  8
0
100
AcDbLine
 10
378.8322743229119
 20
167.8449410806289
 30
0.0
 11
386.3322743229119
 21
167.8449410806289
 31
0.0
  0
LINE
  5
12BE
330
2
100
AcDbEntity
  8
0
100
AcDbLine
 10
379.3322893229119
 20
167.8449410806289
 30
0.0
 11
379.4302254617998
 21
168.9643562704472
 31
0.0
  0
LINE
  5
12BF
330
2
100
AcDbEntity
  8
0
100
AcDbLine
 10
378.332274322912
 20
170.3449410806288
 30
0.0
 11
378.8322743229119
 21
169.8449410806289
 31
0.0
  0
LINE
  5
12C0
330
2
100
AcDbEntity
  8
0
100
AcDbLine
 10
378.8322743229119
 20
167.8449410806289
 30
0.0
 11
378.8322743229119
 21
169.8449410806289
 31
0.0
  0
LINE
  5
12C1
330
2
100
AcDbEntity
  8
0
100
AcDbLine
 10
378.8322743229119
 20
169.8449410806289
 30
0.0
 11
379.8873119332915
 21
169.8449410806289
 31
0.0
  0
LINE
  5
12C2
330
2
100
AcDbEntity
  8
0
100
AcDbLine
 10
386.3322743229119
 20
169.3449410806288
 30
0.0
 11
386.3322743229119
 21
141.3449430806289
 31
0.0
  0
LINE
  5
12C3
330
2
100
AcDbEntity
  8
0
100
AcDbLine
 10
384.332274322912
 20
139.3449430806289
 30
0.0
 11
386.3322743229119
 21
141.3449430806289
 31
0.0
  0
LINE
  5
12C4
330
2
100
AcDbEntity
  8
0
100
AcDbLine
 10
383.8322743229119
 20
139.3449430806289
 30
0.0
 11
383.832274322912
 21
136.800937744368
 31
0.0
  0
LINE
  5
12C5
330
2
100
AcDbEntity
  8
0
100
AcDbLine
 10
384.1701981389381
 20
170.3449410806288
 30
0.0
 11
385.3322743229119
 21
170.3449410806288
 31
0.0
  0
ARC
  5
12C6
330
2
100
AcDbEntity
  8
0
100
AcDbCircle
 10
382.8322893229119
 20
161.4449410806289
 30
0.0
 40
9.0
100
AcDbArc
 50
74.11914999172198
 51
105.880850008278
  0
LINE
  5
12C7
330
2
100
AcDbEntity
  8
0
100
AcDbLine
 10
384.8620291460761
 20
169.9973826180065
 30
0.0
 11
384.882289322912
 21
170.208359363468
 31
0.0
  0
LINE
  5
12C8
330
2
100
AcDbEntity
  8
0
100
AcDbLine
 10
380.8025494997479
 20
169.9973826180065
 30
0.0
 11
380.7822893229119
 21
170.208359363468
 31
0.0
  0
LINE
  5
12C9
330
2
100
AcDbEntity
  8
0
100
AcDbLine
 10
383.119789323367
 20
168.9279410806289
 30
0.0
 11
382.5447893224569
 21
168.9279410806289
 31
0.0
  0
SPLINE
  5
12CA
330
2
100
AcDbEntity
  8
0
100
AcDbSpline
210
0.0
220
0.0
230
1.0
 70
     8
 71
     3
 72
    11
 73
     7
 74
     0
 42
0.0000000001
 43
0.0000000001
 40
0.0
 40
0.0
 40
0.0
 40
0.0
 40
0.4601364636755307
 40
1.04988694485363
 40
1.713742833862792
 40
2.320347933405154
 40
2.320347933405154
 40
2.320347933405154
 40
2.320347933405179
 10
383.119789323367
 20
168.9279410806289
 30
0.0
 10
383.1422069804748
 20
169.0829645203088
 30
0.0
 10
383.1933570357082
 20
169.4366793382263
 30
0.0
 10
383.6292421972417
 20
169.861407009828
 30
0.0
 10
384.2342929122492
 20
170.0805941897938
 30
0.0
 10
384.659477536425
 20
170.0116028901831
 30
0.0
 10
384.8620291460761
 20
169.9973826180065
 30
0.0
  0
SPLINE
  5
12CB
330
2
100
AcDbEntity
  8
0
100
AcDbSpline
210
0.0
220
0.0
230
1.0
 70
     8
 71
     3
 72
    11
 73
     7
 74
     0
 42
0.0000000001
 43
0.0000000001
 40
0.0
 40
0.0
 40
0.0
 40
0.0
 40
0.4601364636755307
 40
1.04988694485363
 40
1.713742833862792
 40
2.320347933405154
 40
2.320347933405154
 40
2.320347933405154
 40
2.320347933405179
 10
382.5447893224569
 20
168.9279410806289
 30
0.0
 10
382.522371665349
 20
169.0829645203088
 30
0.0
 10
382.4712216101159
 20
169.4366793382263
 30
0.0
 10
382.0353364485822
 20
169.861407009828
 30
0.0
 10
381.4302857335748
 20
170.0805941897938
 30
0.0
 10
381.0051011093989
 20
170.0116028901831
 30
0.0
 10
380.8025494997479
 20
169.9973826180065
 30
0.0
  0
LINE
  5
12CC
330
2
100
AcDbEntity
  8
0
100
AcDbLine
 10
386.3322893229119
 20
167.8449410806289
 30
0.0
 11
386.234353184024
 21
168.9643562704472
 31
0.0
  0
ARC
  5
12CD
330
2
100
AcDbEntity
  8
0
100
AcDbCircle
 10
384.9393000765049
 20
168.8510538048752
 30
0.0
 40
1.3
100
AcDbArc
 50
5.000000000000026
 51
74.11914999172198
  0
LINE
  5
12CE
330
2
100
AcDbEntity
  8
0
100
AcDbLine
 10
385.3322743229119
 20
170.3449410806288
 30
0.0
 11
386.3322743229119
 21
169.3449410806288
 31
0.0
  0
LINE
  5
1367
330
2
100
AcDbEntity
  8
0
100
AcDbLine
 10
110.332293322912
 20
317.035327935624
 30
0.0
 11
110.332293322912
 21
349.535327935624
 31
0.0
  0
ENDSEC
  0
SECTION
  2
OBJECTS
  0
DICTIONARY
  5
7
330
0
100
AcDbDictionary
  3
ACAD_GROUP
350
75
  3
ACAD_LAYOUT
350
61
  3
ACAD_MLINESTYLE
350
76
  3
ACAD_PLOTSETTINGS
350
77
  3
ACAD_PLOTSTYLENAME
350
6
  3
ACADDIM
350
480
  3
ACDBHEADERROUNDTRIPXREC
350
1408
  3
ACDBVARIABLEDICTIONARY
350
102
  3
DWGPROPS
350
3D2
  0
DICTIONARY
  5
1429
330
2
100
AcDbDictionary
280
     1
  3
ACAD_LAYOUTSELFREF
360
142A
  0
DICTIONARY
  5
142B
330
1402
100
AcDbDictionary
280
     1
  3
ACAD_LAYOUTSELFREF
360
142C
  0
DICTIONARY
  5
75
102
{ACAD_REACTORS
330
7
102
}
330
7
100
AcDbDictionary
  0
DICTIONARY
  5
61
102
{ACAD_REACTORS
330
7
102
}
330
7
100
AcDbDictionary
  0
DICTIONARY
  5
76
102
{ACAD_REACTORS
330
7
102
}
330
7
100
AcDbDictionary
  3
STANDARD
350
78
  0
DICTIONARY
  5
77
102
{ACAD_REACTORS
330
7
102
}
330
7
100
AcDbDictionary
  0
ACDBDICTIONARYWDFLT
  5
6
102
{ACAD_REACTORS
330
7
102
}
330
7
100
AcDbDictionary
281
     1
  3
Normal
350
5
100
AcDbDictionaryWithDefault
340
5
  0
XRECORD
  5
480
102
{ACAD_REACTORS
330
7
102
}
330
7
100
AcDbXrecord
 90
   990106
  3

 60
     0
 61
     0
 62
     1
 63
     3
 64
     1
 65
     0
 66
     0
 67
     3
 68
     1
 69
     0
 70
     0
 71
     0
 72
     0
 40
0.0
170
     2
  0
DICTIONARY
  5
1408
102
{ACAD_REACTORS
330
7
102
}
330
7
100
AcDbDictionary
  3
CEPSNTYPE
350
1412
  3
DIMSTYLEDATA
350
1416
  3
FINGERPRINTGUID
350
1413
  3
HYPERLINKBASE
350
140B
  3
INSUNITS
350
1411
  3
LAYOUTDICT
350
140D
  3
LWETCUNION
350
1410
  3
PLOTSETDICT
350
140E
  3
PLOTSTYLNAMDICT
350
140F
  3
PSVPSCALE
350
1415
  3
PUCSBASE
350
1419
  3
PUCSORGBACK
350
141F
  3
PUCSORGBOTTOM
350
141B
  3
PUCSORGFRONT
350
141E
  3
PUCSORGLEFT
350
141C
  3
PUCSORGRIGHT
350
141D
  3
PUCSORGTOP
350
141A
  3
PUCSORTHOREF
350
1417
  3
PUCSORTHOVIEW
350
1418
  3
STYLESHEET
350
140C
  3
TSTACKALIGN
350
1409
  3
TSTACKSIZE
350
140A
  3
UCSBASE
350
1422
  3
UCSORGBACK
350
1428
  3
UCSORGBOTTOM
350
1424
  3
UCSORGFRONT
350
1427
  3
UCSORGLEFT
350
1425
  3
UCSORGRIGHT
350
1426
  3
UCSORGTOP
350
1423
  3
UCSORTHOREF
350
1420
  3
UCSORTHOVIEW
350
1421
  3
VERSIONGUID
350
1414
  0
DICTIONARY
  5
102
102
{ACAD_REACTORS
330
7
102
}
330
7
100
AcDbDictionary
  3
DIMASSOC
350
103
  0
XRECORD
  5
3D2
102
{ACAD_REACTORS
330
7
102
}
330
7
100
AcDbXrecord
  1
DWGPROPS COOKIE
  2

  3

  4

  6

  7

  8

  9

300
=
301
=
302
=
303
=
304
=
305
=
306
=
307
=
308
=
309
=
 40
0.5353330671296296
 41
2452052.431989363
 42
2453406.550756377
  1

 90
        0
  0
XRECORD
  5
142A
102
{ACAD_REACTORS
330
1429
102
}
330
1429
100
AcDbXrecord
340
2
  0
XRECORD
  5
142C
102
{ACAD_REACTORS
330
142B
102
}
330
142B
100
AcDbXrecord
340
1402
  0
MLINESTYLE
  5
78
102
{ACAD_REACTORS
330
76
102
}
330
76
100
AcDbMlineStyle
  2
STANDARD
 70
     0
  3

 62
     0
 51
90.0
 52
90.0
 71
     2
 49
0.5
 62
   256
  6
BYLAYER
 49
-0.5
 62
   256
  6
BYLAYER
  0
ACDBPLACEHOLDER
  5
5
102
{ACAD_REACTORS
330
6
102
}
330
6
100
AcDbPlaceHolder
280
     0
  0
XRECORD
  5
1412
102
{ACAD_REACTORS
330
1408
102
}
330
1408
100
AcDbXrecord
 90
        0
  0
XRECORD
  5
1416
102
{ACAD_REACTORS
330
1408
102
}
330
1408
100
AcDbXrecord
1000
DSTYLE
1002
{
1070
   179
 70
     2
1070
   277
 70
     6
1002
}
  0
XRECORD
  5
1413
102
{ACAD_REACTORS
330
1408
102
}
330
1408
100
AcDbXrecord
  1
{6385560B-F4B1-4644-A7C2-A3E32AC3D232}
  0
XRECORD
  5
140B
102
{ACAD_REACTORS
330
1408
102
}
330
1408
100
AcDbXrecord
  1

  0
XRECORD
  5
1411
102
{ACAD_REACTORS
330
1408
102
}
330
1408
100
AcDbXrecord
 90
        0
  0
XRECORD
  5
140D
102
{ACAD_REACTORS
330
1408
102
}
330
1408
100
AcDbXrecord
340
61
  0
XRECORD
  5
1410
102
{ACAD_REACTORS
330
1408
102
}
330
1408
100
AcDbXrecord
 90
    10781
  0
XRECORD
  5
140E
102
{ACAD_REACTORS
330
1408
102
}
330
1408
100
AcDbXrecord
340
77
  0
XRECORD
  5
140F
102
{ACAD_REACTORS
330
1408
102
}
330
1408
100
AcDbXrecord
340
6
  0
XRECORD
  5
1415
102
{ACAD_REACTORS
330
1408
102
}
330
1408
100
AcDbXrecord
 40
0.0
  0
XRECORD
  5
1419
102
{ACAD_REACTORS
330
1408
102
}
330
1408
100
AcDbXrecord
340
0
  0
XRECORD
  5
141F
102
{ACAD_REACTORS
330
1408
102
}
330
1408
100
AcDbXrecord
 10
0.0
 20
0.0
 30
0.0
  0
XRECORD
  5
141B
102
{ACAD_REACTORS
330
1408
102
}
330
1408
100
AcDbXrecord
 10
0.0
 20
0.0
 30
0.0
  0
XRECORD
  5
141E
102
{ACAD_REACTORS
330
1408
102
}
330
1408
100
AcDbXrecord
 10
0.0
 20
0.0
 30
0.0
  0
XRECORD
  5
141C
102
{ACAD_REACTORS
330
1408
102
}
330
1408
100
AcDbXrecord
 10
0.0
 20
0.0
 30
0.0
  0
XRECORD
  5
141D
102
{ACAD_REACTORS
330
1408
102
}
330
1408
100
AcDbXrecord
 10
0.0
 20
0.0
 30
0.0
  0
XRECORD
  5
141A
102
{ACAD_REACTORS
330
1408
102
}
330
1408
100
AcDbXrecord
 10
0.0
 20
0.0
 30
0.0
  0
XRECORD
  5
1417
102
{ACAD_REACTORS
330
1408
102
}
330
1408
100
AcDbXrecord
340
0
  0
XRECORD
  5
1418
102
{ACAD_REACTORS
330
1408
102
}
330
1408
100
AcDbXrecord
 70
     0
  0
XRECORD
  5
140C
102
{ACAD_REACTORS
330
1408
102
}
330
1408
100
AcDbXrecord
  1
Sekkei.ctb
  0
XRECORD
  5
1409
102
{ACAD_REACTORS
330
1408
102
}
330
1408
100
AcDbXrecord
 90
        1
  0
XRECORD
  5
140A
102
{ACAD_REACTORS
330
1408
102
}
330
1408
100
AcDbXrecord
 90
       70
  0
XRECORD
  5
1422
102
{ACAD_REACTORS
330
1408
102
}
330
1408
100
AcDbXrecord
340
0
  0
XRECORD
  5
1428
102
{ACAD_REACTORS
330
1408
102
}
330
1408
100
AcDbXrecord
 10
0.0
 20
0.0
 30
0.0
  0
XRECORD
  5
1424
102
{ACAD_REACTORS
330
1408
102
}
330
1408
100
AcDbXrecord
 10
0.0
 20
0.0
 30
0.0
  0
XRECORD
  5
1427
102
{ACAD_REACTORS
330
1408
102
}
330
1408
100
AcDbXrecord
 10
0.0
 20
0.0
 30
0.0
  0
XRECORD
  5
1425
102
{ACAD_REACTORS
330
1408
102
}
330
1408
100
AcDbXrecord
 10
0.0
 20
0.0
 30
0.0
  0
XRECORD
  5
1426
102
{ACAD_REACTORS
330
1408
102
}
330
1408
100
AcDbXrecord
 10
0.0
 20
0.0
 30
0.0
  0
XRECORD
  5
1423
102
{ACAD_REACTORS
330
1408
102
}
330
1408
100
AcDbXrecord
 10
0.0
 20
0.0
 30
0.0
  0
XRECORD
  5
1420
102
{ACAD_REACTORS
330
1408
102
}
330
1408
100
AcDbXrecord
340
0
  0
XRECORD
  5
1421
102
{ACAD_REACTORS
330
1408
102
}
330
1408
100
AcDbXrecord
 70
     0
  0
XRECORD
  5
1414
102
{ACAD_REACTORS
330
1408
102
}
330
1408
100
AcDbXrecord
  1
{99314262-7123-4256-971D-075C65342E60}
  0
DICTIONARYVAR
  5
103
102
{ACAD_REACTORS
330
102
102
}
330
102
100
DictionaryVariables
280
     0
  1
1
  0
ENDSEC
  0
EOF
